999
DXF file: K:\Client\125_Heirloom\001\00\Final_Data\Drawings\TOILETS\veloso-373112s_1.dxf
999
Pro/ENGINEER 2017110 by Parametric Technology Corporation
  0
SECTION
  2
HEADER
  9
$EXTMAX
 10
420.0
 20
297.0
 30
0.0
  9
$EXTMIN
 10
0.0
 20
0.0
 30
0.0
  9
$LIMMIN
 10
0.0
 20
0.0
  9
$LIMMAX
 10
420.0
 20
297.0
  9
$VIEWCTR
 10
210.0
 20
148.5
  9
$VIEWSIZE
 40
297.0
  9
$CLAYER
  8
0
  9
$LTSCALE
 40
23.1
  9
$CELTYPE
  6
BYLAYER
  9
$DIMSCALE
 40
1.0
  9
$DIMASZ
 40
3.0
  9
$DIMEXO
 40
1.0
  9
$DIMDLI
 40
15.96
  9
$DIMEXE
 40
1.0
  9
$DIMCEN
 40
3.78
  9
$DIMLFAC
 40
1.0
  9
$DIMBLK
  1
_FILLED
  9
$DIMALT
 70
0
  9
$DIMALTF
 40
0.0393700787
  9
$DIMTXT
 40
3.0
  9
$AUNITS
 70
0
  9
$PDMODE
 70
3
  9
$PDSIZE
 40
5.0
  9
$TILEMODE
 70
1
  0
ENDSEC
  0
SECTION
  2
TABLES
  0
TABLE
  2
LTYPE
 70
6
  0
LTYPE
  2
BYBLOCK
 70
0
  3

 72
65
 73
0
 40
0.0
  0
LTYPE
  2
BYLAYER
 70
0
  3

 72
65
 73
0
 40
0.0
  0
LTYPE
  2
CONTINUOUS
 70
64
  3
Solid line
 72
65
 73
0
 40
0.0
  0
LTYPE
  2
CENTER
 70
64
  3
____ _ ____ _ ____ _ ____ _ ____ _ ____ _ ____
 72
65
 73
4
 40
0.6
 49
0.375
 49
-0.075
 49
0.075
 49
-0.075
  0
LTYPE
  2
HIDDEN
 70
64
  3
- - - - - - - - - - - - - - - - - - - -
 72
65
 73
2
 40
0.2
 49
0.1
 49
-0.1
  0
LTYPE
  2
PHANTOM
 70
64
  3
_____ _ _ _____ _ _ _____ _ _ _____
 72
65
 73
6
 40
0.8
 49
0.45
 49
-0.05
 49
0.1
 49
-0.05
 49
0.1
 49
-0.05
  0
LTYPE
  2
DOT
 70
64
  3
. . . . . . . . . . . . . . . . . . . .
 72
65
 73
2
 40
0.2
 49
0.1
 49
-0.1
  0
LTYPE
  2
DASHED
 70
64
  3
- - - - - - - - - - - - - - - - - - - -
 72
65
 73
2
 40
0.2
 49
0.1
 49
-0.1
  0
ENDTAB
  0
TABLE
  2
LAYER
 70
36
  0
LAYER
  2
0
 70
0
 62
7
  6
CONTINUOUS
  0
LAYER
  2
DEFAULT_1
 70
0
 62
7
  6
CENTER
  0
LAYER
  2
DEFAULT_2
 70
0
 62
8
  6
HIDDEN
  0
LAYER
  2
DEFAULT_3
 70
0
 62
7
  6
PHANTOM
  0
LAYER
  2
0000_BOM
 70
0
 62
7
  6
CONTINUOUS
  0
LAYER
  2
0000_REV_TABLE
 70
0
 62
7
  6
CONTINUOUS
  0
LAYER
  2
0000_STEVENS_NOTE
 70
0
 62
7
  6
CONTINUOUS
  0
LAYER
  2
01_DATUM_PLANES
 70
0
 62
7
  6
CONTINUOUS
  0
LAYER
  2
01_DEF_PLANES
 70
0
 62
7
  6
CONTINUOUS
  0
LAYER
  2
02_DATUM_COS
 70
0
 62
7
  6
CONTINUOUS
  0
LAYER
  2
90_IMP_FEAT
 70
0
 62
7
  6
CONTINUOUS
  0
LAYER
  2
95_STL
 70
0
 62
7
  6
CONTINUOUS
  0
LAYER
  2
99_SOLID
 70
0
 62
7
  6
CONTINUOUS
  0
LAYER
  2
CAD-MASTER_ZINC-PL
 70
0
 62
7
  6
CONTINUOUS
  0
LAYER
  2
CURVE
 70
0
 62
7
  6
CONTINUOUS
  0
LAYER
  2
SHELL
 70
0
 62
7
  6
CONTINUOUS
  0
LAYER
  2
SKEL
 70
0
 62
7
  6
CONTINUOUS
  0
LAYER
  2
SKETCH
 70
0
 62
7
  6
CONTINUOUS
  0
LAYER
  2
SURFACE
 70
0
 62
7
  6
CONTINUOUS
  0
ENDTAB
  0
TABLE
  2
STYLE
 70
1
  0
STYLE
  2
STANDARD
 70
0
 40
0.0
 41
0.75
 50
0.0
 71
0
 42
0.2
  3
txt
  4

  0
STYLE
  2
TEXTSTYLE_1
 70
0
 40
0.0
 41
0.8
 50
0.0
 71
0
 42
0.2
  3
gdt
  4

  0
ENDTAB
  0
ENDSEC
  0
SECTION
  2
BLOCKS
  0
BLOCK
  8
0
 62
5
  6
CONTINUOUS
  2
PLUMBING_BL1
 70
64
 10
184.2753920262
 20
-274.912622311
  0
CIRCLE
  8
0
 62
5
  6
CONTINUOUS
 10
184.2753920262
 20
-274.912622311
 40
12.5
  0
LINE
  8
0
 62
5
  6
CONTINUOUS
 10
196.7753920262
 20
-262.412622311
 11
171.7753920262
 21
-287.412622311
  0
LINE
  8
0
 62
5
  6
CONTINUOUS
 10
184.2753920262
 20
-274.912622311
 11
171.7753920262
 21
-262.412622311
  0
LINE
  8
0
 62
5
  6
CONTINUOUS
 10
184.2753920262
 20
-274.912622311
 11
196.7753920262
 21
-287.412622311
  0
ENDBLK
  8
0
  6
BYBLOCK
 62
0
  0
BLOCK
  8
0
 62
1
  6
CONTINUOUS
  2
PLUMBING_BL0
 70
64
 10
184.2753920262
 20
-94.912622311
  0
CIRCLE
  8
0
 62
1
  6
CONTINUOUS
 10
184.2753920262
 20
-94.912622311
 40
12.5
  0
LINE
  8
0
 62
1
  6
CONTINUOUS
 10
196.7753920262
 20
-82.412622311
 11
171.7753920262
 21
-107.412622311
  0
LINE
  8
0
 62
1
  6
CONTINUOUS
 10
184.2753920262
 20
-94.912622311
 11
171.7753920262
 21
-82.412622311
  0
LINE
  8
0
 62
1
  6
CONTINUOUS
 10
184.2753920262
 20
-94.912622311
 11
196.7753920262
 21
-107.412622311
  0
ENDBLK
  8
0
  6
BYBLOCK
 62
0
  0
ENDSEC
  0
SECTION
  2
ENTITIES
  0
INSERT
  8
0
 62
1
  6
CONTINUOUS
  2
PLUMBING_BL0
 10
184.2753920262
 20
-94.912622311
  0
INSERT
  8
0
 62
5
  6
CONTINUOUS
  2
PLUMBING_BL1
 10
184.2753920262
 20
-274.912622311
  0
POLYLINE
  8
0
 62
7
  6
CONTINUOUS
 66
1
 70
0
  0
VERTEX
  8
0
 62
7
  6
CONTINUOUS
 10
354.9230213797
 20
136.598647738
  0
VERTEX
  8
0
 62
7
  6
CONTINUOUS
 10
355.080736605
 20
136.6028706681
  0
VERTEX
  8
0
 62
7
  6
CONTINUOUS
 10
355.2383832676
 20
136.6154776867
  0
VERTEX
  8
0
 62
7
  6
CONTINUOUS
 10
355.3954383644
 20
136.636382095
  0
VERTEX
  8
0
 62
7
  6
CONTINUOUS
 10
355.5513788924
 20
136.665497194
  0
VERTEX
  8
0
 62
7
  6
CONTINUOUS
 10
355.7056818483
 20
136.702736285
  0
VERTEX
  8
0
 62
7
  6
CONTINUOUS
 10
355.8578242292
 20
136.748012669
  0
VERTEX
  8
0
 62
7
  6
CONTINUOUS
 10
356.0072830319
 20
136.8012396472
  0
VERTEX
  8
0
 62
7
  6
CONTINUOUS
 10
356.1622423871
 20
136.8662203309
  0
VERTEX
  8
0
 62
7
  6
CONTINUOUS
 10
356.3131821046
 20
136.9397622127
  0
VERTEX
  8
0
 62
7
  6
CONTINUOUS
 10
356.4596859759
 20
137.0215893564
  0
VERTEX
  8
0
 62
7
  6
CONTINUOUS
 10
356.6013377926
 20
137.1114258254
  0
VERTEX
  8
0
 62
7
  6
CONTINUOUS
 10
356.7377213463
 20
137.2089956833
  0
VERTEX
  8
0
 62
7
  6
CONTINUOUS
 10
356.8684204284
 20
137.3140229937
  0
VERTEX
  8
0
 62
7
  6
CONTINUOUS
 10
356.9998871116
 20
137.432759927
  0
VERTEX
  8
0
 62
7
  6
CONTINUOUS
 10
357.1241309153
 20
137.5590310551
  0
VERTEX
  8
0
 62
7
  6
CONTINUOUS
 10
357.2407391351
 20
137.692353863
  0
VERTEX
  8
0
 62
7
  6
CONTINUOUS
 10
357.3492990662
 20
137.8322458361
  0
VERTEX
  8
0
 62
7
  6
CONTINUOUS
 10
357.449398004
 20
137.9782244594
  0
VERTEX
  8
0
 62
7
  6
CONTINUOUS
 10
357.5357459011
 20
138.1211045248
  0
VERTEX
  8
0
 62
7
  6
CONTINUOUS
 10
357.6139981634
 20
138.2685016559
  0
VERTEX
  8
0
 62
7
  6
CONTINUOUS
 10
357.6839599743
 20
138.4199432
  0
VERTEX
  8
0
 62
7
  6
CONTINUOUS
 10
357.7454365174
 20
138.574956504
  0
VERTEX
  8
0
 62
7
  6
CONTINUOUS
 10
357.7925611451
 20
138.7145282807
  0
VERTEX
  8
0
 62
7
  6
CONTINUOUS
 10
357.8328789634
 20
138.8561747508
  0
VERTEX
  8
0
 62
7
  6
CONTINUOUS
 10
357.8663611855
 20
138.9995506062
  0
VERTEX
  8
0
 62
7
  6
CONTINUOUS
 10
357.8904102917
 20
139.1282522603
  0
VERTEX
  8
0
 62
7
  6
CONTINUOUS
 10
357.9092189775
 20
139.2578052656
  0
VERTEX
  8
0
 62
7
  6
CONTINUOUS
 10
357.9252688558
 20
139.4139811943
  0
VERTEX
  8
0
 62
7
  6
CONTINUOUS
 10
357.9330587793
 20
139.5276268195
  0
VERTEX
  8
0
 62
7
  6
CONTINUOUS
 10
357.9377697225
 20
139.6265755278
  0
VERTEX
  8
0
 62
7
  6
CONTINUOUS
 10
357.9409785766
 20
139.7225782444
  0
VERTEX
  8
0
 62
7
  6
CONTINUOUS
 10
357.9432790649
 20
139.8218022483
  0
VERTEX
  8
0
 62
7
  6
CONTINUOUS
 10
357.9449188919
 20
139.9279057511
  0
VERTEX
  8
0
 62
7
  6
CONTINUOUS
 10
357.946005878
 20
140.043271186
  0
VERTEX
  8
0
 62
7
  6
CONTINUOUS
 10
357.9465864846
 20
140.1699234997
  0
VERTEX
  8
0
 62
7
  6
CONTINUOUS
 10
357.9466720387
 20
140.3097157916
  0
VERTEX
  8
0
 62
7
  6
CONTINUOUS
 10
357.9462520634
 20
140.4643429335
  0
VERTEX
  8
0
 62
7
  6
CONTINUOUS
 10
357.945302833
 20
140.63545035
  0
VERTEX
  8
0
 62
7
  6
CONTINUOUS
 10
357.943791313
 20
140.8247036677
  0
VERTEX
  8
0
 62
7
  6
CONTINUOUS
 10
357.9416772309
 20
141.0338093098
  0
VERTEX
  8
0
 62
7
  6
CONTINUOUS
 10
357.9389178375
 20
141.2642573046
  0
VERTEX
  8
0
 62
7
  6
CONTINUOUS
 10
357.9354717023
 20
141.5172708382
  0
VERTEX
  8
0
 62
7
  6
CONTINUOUS
 10
357.9312987673
 20
141.7939609831
  0
VERTEX
  8
0
 62
7
  6
CONTINUOUS
 10
357.926360494
 20
142.0953644821
  0
VERTEX
  8
0
 62
7
  6
CONTINUOUS
 10
357.9206206946
 20
142.4224054786
  0
VERTEX
  8
0
 62
7
  6
CONTINUOUS
 10
357.914041476
 20
142.7761014461
  0
VERTEX
  8
0
 62
7
  6
CONTINUOUS
 10
357.9065810879
 20
143.1576421006
  0
VERTEX
  8
0
 62
7
  6
CONTINUOUS
 10
357.8981959738
 20
143.5682578794
  0
VERTEX
  8
0
 62
7
  6
CONTINUOUS
 10
357.8888409362
 20
144.0092108767
  0
VERTEX
  8
0
 62
7
  6
CONTINUOUS
 10
357.8784689065
 20
144.4818053678
  0
VERTEX
  8
0
 62
7
  6
CONTINUOUS
 10
357.8670307905
 20
144.9873930621
  0
VERTEX
  8
0
 62
7
  6
CONTINUOUS
 10
357.8544752665
 20
145.5273796367
  0
VERTEX
  8
0
 62
7
  6
CONTINUOUS
 10
357.8407487916
 20
146.103221902
  0
VERTEX
  8
0
 62
7
  6
CONTINUOUS
 10
357.8257980386
 20
146.7163568217
  0
VERTEX
  8
0
 62
7
  6
CONTINUOUS
 10
357.8095745348
 20
147.3680843525
  0
VERTEX
  8
0
 62
7
  6
CONTINUOUS
 10
357.792029073
 20
148.0597215738
  0
VERTEX
  8
0
 62
7
  6
CONTINUOUS
 10
357.773110537
 20
148.7926285094
  0
VERTEX
  8
0
 62
7
  6
CONTINUOUS
 10
357.7527657127
 20
149.5682127915
  0
VERTEX
  8
0
 62
7
  6
CONTINUOUS
 10
357.7309381503
 20
150.3879693359
  0
SEQEND
  0
LINE
  8
0
 62
7
  6
CONTINUOUS
 10
324.4676665842
 20
-274.912622311
 11
44.0831174681
 21
-274.912622311
  0
LINE
  8
0
 62
7
  6
CONTINUOUS
 10
165.6511590502
 20
576.5823943596
 11
162.8124066592
 21
572.9198319977
  0
POLYLINE
  8
0
 62
7
  6
CONTINUOUS
 66
1
 70
0
  0
VERTEX
  8
0
 62
7
  6
CONTINUOUS
 10
-1.1285302975
 20
554.0895504438
  0
VERTEX
  8
0
 62
7
  6
CONTINUOUS
 10
-1.1478323571
 20
553.8436398081
  0
VERTEX
  8
0
 62
7
  6
CONTINUOUS
 10
-1.1597144428
 20
553.5924843669
  0
VERTEX
  8
0
 62
7
  6
CONTINUOUS
 10
-1.1637191696
 20
553.341095321
  0
VERTEX
  8
0
 62
7
  6
CONTINUOUS
 10
-1.1609707698
 20
553.1290354458
  0
SEQEND
  0
LINE
  8
0
 62
7
  6
CONTINUOUS
 10
-0.127579792
 20
513.2840073864
 11
-0.1303340527
 21
513.0756783454
  0
LINE
  8
0
 62
7
  6
CONTINUOUS
 10
10.6258072921
 20
139.3340942937
 11
10.6358193637
 21
139.2428770212
  0
POLYLINE
  8
0
 62
7
  6
CONTINUOUS
 66
1
 70
0
  0
VERTEX
  8
0
 62
7
  6
CONTINUOUS
 10
10.6232268118
 20
139.3622805873
  0
VERTEX
  8
0
 62
7
  6
CONTINUOUS
 10
10.6320689232
 20
139.2743760601
  0
VERTEX
  8
0
 62
7
  6
CONTINUOUS
 10
10.6477889772
 20
139.1561482478
  0
SEQEND
  0
LINE
  8
0
 62
7
  6
CONTINUOUS
 10
41.0945335606
 20
-272.1740916732
 11
5.1745250393
 21
138.3901079843
  0
POLYLINE
  8
0
 62
7
  6
CONTINUOUS
 66
1
 70
0
  0
VERTEX
  8
0
 62
7
  6
CONTINUOUS
 10
-0.4742121616
 20
526.9042309016
  0
VERTEX
  8
0
 62
7
  6
CONTINUOUS
 10
-0.4666819902
 20
526.7147524514
  0
VERTEX
  8
0
 62
7
  6
CONTINUOUS
 10
-0.450943346
 20
526.4884997707
  0
VERTEX
  8
0
 62
7
  6
CONTINUOUS
 10
-0.4278836676
 20
526.2628765912
  0
VERTEX
  8
0
 62
7
  6
CONTINUOUS
 10
-0.3975239484
 20
526.038118368
  0
VERTEX
  8
0
 62
7
  6
CONTINUOUS
 10
-0.3598992509
 20
525.8144597589
  0
VERTEX
  8
0
 62
7
  6
CONTINUOUS
 10
-0.3150468508
 20
525.5921351189
  0
VERTEX
  8
0
 62
7
  6
CONTINUOUS
 10
-0.2630149902
 20
525.3713764903
  0
VERTEX
  8
0
 62
7
  6
CONTINUOUS
 10
-0.2038588912
 20
525.1524144274
  0
VERTEX
  8
0
 62
7
  6
CONTINUOUS
 10
-0.1376369675
 20
524.9354786806
  0
VERTEX
  8
0
 62
7
  6
CONTINUOUS
 10
-0.0644188625
 20
524.7207960435
  0
VERTEX
  8
0
 62
7
  6
CONTINUOUS
 10
0.0157206945
 20
524.5085916868
  0
VERTEX
  8
0
 62
7
  6
CONTINUOUS
 10
0.1026954381
 20
524.2990864188
  0
VERTEX
  8
0
 62
7
  6
CONTINUOUS
 10
0.1964159551
 20
524.0924998898
  0
VERTEX
  8
0
 62
7
  6
CONTINUOUS
 10
0.2967873859
 20
523.8890495381
  0
VERTEX
  8
0
 62
7
  6
CONTINUOUS
 10
0.4037067059
 20
523.6889490883
  0
VERTEX
  8
0
 62
7
  6
CONTINUOUS
 10
0.5170627613
 20
523.4924093285
  0
VERTEX
  8
0
 62
7
  6
CONTINUOUS
 10
0.6367329438
 20
523.2996325483
  0
VERTEX
  8
0
 62
7
  6
CONTINUOUS
 10
0.7625903217
 20
523.1108250957
  0
VERTEX
  8
0
 62
7
  6
CONTINUOUS
 10
0.894507801
 20
522.9261911631
  0
VERTEX
  8
0
 62
7
  6
CONTINUOUS
 10
1.0323452734
 20
522.7459277565
  0
VERTEX
  8
0
 62
7
  6
CONTINUOUS
 10
1.1759530669
 20
522.5702248354
  0
VERTEX
  8
0
 62
7
  6
CONTINUOUS
 10
1.3251793923
 20
522.3992706329
  0
VERTEX
  8
0
 62
7
  6
CONTINUOUS
 10
1.4798649038
 20
522.2332476245
  0
VERTEX
  8
0
 62
7
  6
CONTINUOUS
 10
1.639847465
 20
522.0723328712
  0
VERTEX
  8
0
 62
7
  6
CONTINUOUS
 10
1.8049519742
 20
521.9166940765
  0
VERTEX
  8
0
 62
7
  6
CONTINUOUS
 10
1.9750052056
 20
521.7664897184
  0
VERTEX
  8
0
 62
7
  6
CONTINUOUS
 10
2.1498323732
 20
521.6218800787
  0
VERTEX
  8
0
 62
7
  6
CONTINUOUS
 10
2.3292548768
 20
521.4830177591
  0
VERTEX
  8
0
 62
7
  6
CONTINUOUS
 10
2.5130820743
 20
521.3500412497
  0
VERTEX
  8
0
 62
7
  6
CONTINUOUS
 10
2.7011219457
 20
521.223087369
  0
VERTEX
  8
0
 62
7
  6
CONTINUOUS
 10
2.8931826848
 20
521.102292536
  0
VERTEX
  8
0
 62
7
  6
CONTINUOUS
 10
3.0890646039
 20
520.9877837709
  0
VERTEX
  8
0
 62
7
  6
CONTINUOUS
 10
3.2885635264
 20
520.8796771942
  0
VERTEX
  8
0
 62
7
  6
CONTINUOUS
 10
3.4914686383
 20
520.7780911875
  0
VERTEX
  8
0
 62
7
  6
CONTINUOUS
 10
3.6975657098
 20
520.6831324139
  0
VERTEX
  8
0
 62
7
  6
CONTINUOUS
 10
3.9066348838
 20
520.5949003668
  0
VERTEX
  8
0
 62
7
  6
CONTINUOUS
 10
4.1184554821
 20
520.5134915479
  0
VERTEX
  8
0
 62
7
  6
CONTINUOUS
 10
4.3328025883
 20
520.4389925463
  0
VERTEX
  8
0
 62
7
  6
CONTINUOUS
 10
4.5494492062
 20
520.3714843065
  0
VERTEX
  8
0
 62
7
  6
CONTINUOUS
 10
4.768163831
 20
520.3110330072
  0
VERTEX
  8
0
 62
7
  6
CONTINUOUS
 10
4.9887134616
 20
520.257699975
  0
VERTEX
  8
0
 62
7
  6
CONTINUOUS
 10
5.2108650715
 20
520.2115461549
  0
VERTEX
  8
0
 62
7
  6
CONTINUOUS
 10
5.4343838445
 20
520.1726231109
  0
VERTEX
  8
0
 62
7
  6
CONTINUOUS
 10
5.6590312475
 20
520.140963647
  0
VERTEX
  8
0
 62
7
  6
CONTINUOUS
 10
5.8845683662
 20
520.1165979959
  0
VERTEX
  8
0
 62
7
  6
CONTINUOUS
 10
6.1107563023
 20
520.0995554207
  0
VERTEX
  8
0
 62
7
  6
CONTINUOUS
 10
6.3373539693
 20
520.0898526778
  0
VERTEX
  8
0
 62
7
  6
CONTINUOUS
 10
6.5234915122
 20
520.0873771982
  0
SEQEND
  0
POLYLINE
  8
0
 62
7
  6
CONTINUOUS
 66
1
 70
0
  0
VERTEX
  8
0
 62
7
  6
CONTINUOUS
 10
9.3253125925
 20
151.9173035493
  0
VERTEX
  8
0
 62
7
  6
CONTINUOUS
 10
9.3285533854
 20
151.8256753387
  0
VERTEX
  8
0
 62
7
  6
CONTINUOUS
 10
9.3334714107
 20
151.7341916925
  0
VERTEX
  8
0
 62
7
  6
CONTINUOUS
 10
9.3400619319
 20
151.6428777682
  0
VERTEX
  8
0
 62
7
  6
CONTINUOUS
 10
9.3483158734
 20
151.5518073874
  0
VERTEX
  8
0
 62
7
  6
CONTINUOUS
 10
9.3582218637
 20
151.4610403489
  0
VERTEX
  8
0
 62
7
  6
CONTINUOUS
 10
9.3697663402
 20
151.3706321761
  0
VERTEX
  8
0
 62
7
  6
CONTINUOUS
 10
9.3829331411
 20
151.2806390828
  0
VERTEX
  8
0
 62
7
  6
CONTINUOUS
 10
9.3977038661
 20
151.1911150975
  0
VERTEX
  8
0
 62
7
  6
CONTINUOUS
 10
9.4140576394
 20
151.1021143288
  0
VERTEX
  8
0
 62
7
  6
CONTINUOUS
 10
9.4319716309
 20
151.0136879756
  0
VERTEX
  8
0
 62
7
  6
CONTINUOUS
 10
9.4514206223
 20
150.9258873817
  0
VERTEX
  8
0
 62
7
  6
CONTINUOUS
 10
9.4723777529
 20
150.8387604924
  0
VERTEX
  8
0
 62
7
  6
CONTINUOUS
 10
9.4948138775
 20
150.7523554347
  0
VERTEX
  8
0
 62
7
  6
CONTINUOUS
 10
9.5186985742
 20
150.666716463
  0
VERTEX
  8
0
 62
7
  6
CONTINUOUS
 10
9.5439992548
 20
150.5818880527
  0
VERTEX
  8
0
 62
7
  6
CONTINUOUS
 10
9.5706824377
 20
150.4979104609
  0
VERTEX
  8
0
 62
7
  6
CONTINUOUS
 10
9.5987126051
 20
150.414824197
  0
VERTEX
  8
0
 62
7
  6
CONTINUOUS
 10
9.6280537507
 20
150.3326652719
  0
VERTEX
  8
0
 62
7
  6
CONTINUOUS
 10
9.6586679689
 20
150.2514699848
  0
VERTEX
  8
0
 62
7
  6
CONTINUOUS
 10
9.6905172771
 20
150.1712699375
  0
VERTEX
  8
0
 62
7
  6
CONTINUOUS
 10
9.7235619404
 20
150.0920970484
  0
VERTEX
  8
0
 62
7
  6
CONTINUOUS
 10
9.7577625389
 20
150.0139784535
  0
VERTEX
  8
0
 62
7
  6
CONTINUOUS
 10
9.7930780522
 20
149.9369416266
  0
VERTEX
  8
0
 62
7
  6
CONTINUOUS
 10
9.8294681535
 20
149.8610092421
  0
VERTEX
  8
0
 62
7
  6
CONTINUOUS
 10
9.8668910658
 20
149.7862043384
  0
VERTEX
  8
0
 62
7
  6
CONTINUOUS
 10
9.905306065
 20
149.7125451947
  0
VERTEX
  8
0
 62
7
  6
CONTINUOUS
 10
9.9446711308
 20
149.6400504731
  0
VERTEX
  8
0
 62
7
  6
CONTINUOUS
 10
9.9849456039
 20
149.5687342156
  0
VERTEX
  8
0
 62
7
  6
CONTINUOUS
 10
10.0260876839
 20
149.4986108561
  0
VERTEX
  8
0
 62
7
  6
CONTINUOUS
 10
10.0680572016
 20
149.4296903981
  0
VERTEX
  8
0
 62
7
  6
CONTINUOUS
 10
10.110812995
 20
149.3619832489
  0
VERTEX
  8
0
 62
7
  6
CONTINUOUS
 10
10.1543157695
 20
149.2954956042
  0
VERTEX
  8
0
 62
7
  6
CONTINUOUS
 10
10.198525381
 20
149.2302340751
  0
VERTEX
  8
0
 62
7
  6
CONTINUOUS
 10
10.2434037391
 20
149.1662013255
  0
VERTEX
  8
0
 62
7
  6
CONTINUOUS
 10
10.288912044
 20
149.1034004388
  0
VERTEX
  8
0
 62
7
  6
CONTINUOUS
 10
10.3350136834
 20
149.0418308531
  0
VERTEX
  8
0
 62
7
  6
CONTINUOUS
 10
10.3816714715
 20
148.9814924234
  0
VERTEX
  8
0
 62
7
  6
CONTINUOUS
 10
10.4288504951
 20
148.922381684
  0
VERTEX
  8
0
 62
7
  6
CONTINUOUS
 10
10.4765153844
 20
148.8644955936
  0
VERTEX
  8
0
 62
7
  6
CONTINUOUS
 10
10.5246331318
 20
148.8078280672
  0
VERTEX
  8
0
 62
7
  6
CONTINUOUS
 10
10.5731704075
 20
148.7523734249
  0
VERTEX
  8
0
 62
7
  6
CONTINUOUS
 10
10.6220961548
 20
148.6981233866
  0
VERTEX
  8
0
 62
7
  6
CONTINUOUS
 10
10.6713792618
 20
148.6450698975
  0
VERTEX
  8
0
 62
7
  6
CONTINUOUS
 10
10.7209903203
 20
148.5932031946
  0
VERTEX
  8
0
 62
7
  6
CONTINUOUS
 10
10.7526663063
 20
148.5610322466
  0
SEQEND
  0
LINE
  8
0
 62
7
  6
CONTINUOUS
 10
9.3253123919
 20
151.9173078068
 11
-0.1279449653
 21
512.9041350276
  0
LINE
  8
0
 62
7
  6
CONTINUOUS
 10
-0.4742146643
 20
526.9042308361
 11
-1.160970547
 21
553.1290354516
  0
LINE
  8
0
 62
7
  6
CONTINUOUS
 10
9.32443993
 20
151.9564929475
 11
9.3253123535
 21
151.9173126783
  0
LINE
  8
0
 62
7
  6
CONTINUOUS
 10
-0.1303340527
 20
513.0756783454
 11
-0.1279452762
 21
512.9041399845
  0
POLYLINE
  8
0
 62
7
  6
CONTINUOUS
 66
1
 70
0
  0
VERTEX
  8
0
 62
7
  6
CONTINUOUS
 10
5.1444505654
 20
139.164242632
  0
VERTEX
  8
0
 62
7
  6
CONTINUOUS
 10
5.1450591394
 20
138.9622101697
  0
VERTEX
  8
0
 62
7
  6
CONTINUOUS
 10
5.1507714222
 20
138.7602489782
  0
VERTEX
  8
0
 62
7
  6
CONTINUOUS
 10
5.161582964
 20
138.5584867663
  0
VERTEX
  8
0
 62
7
  6
CONTINUOUS
 10
5.174525385
 20
138.3901080146
  0
SEQEND
  0
POLYLINE
  8
0
 62
7
  6
CONTINUOUS
 66
1
 70
0
  0
VERTEX
  8
0
 62
7
  6
CONTINUOUS
 10
10.6041840446
 20
140.1273805205
  0
VERTEX
  8
0
 62
7
  6
CONTINUOUS
 10
10.6042966587
 20
140.0690693193
  0
VERTEX
  8
0
 62
7
  6
CONTINUOUS
 10
10.604454982
 20
140.0138404502
  0
VERTEX
  8
0
 62
7
  6
CONTINUOUS
 10
10.6046638485
 20
139.9615163123
  0
VERTEX
  8
0
 62
7
  6
CONTINUOUS
 10
10.6049287341
 20
139.9118965752
  0
VERTEX
  8
0
 62
7
  6
CONTINUOUS
 10
10.605255687
 20
139.8648162344
  0
VERTEX
  8
0
 62
7
  6
CONTINUOUS
 10
10.6056530058
 20
139.8199678401
  0
VERTEX
  8
0
 62
7
  6
CONTINUOUS
 10
10.6061302227
 20
139.7771394182
  0
VERTEX
  8
0
 62
7
  6
CONTINUOUS
 10
10.60670298
 20
139.735857611
  0
VERTEX
  8
0
 62
7
  6
CONTINUOUS
 10
10.6073894301
 20
139.6958433264
  0
VERTEX
  8
0
 62
7
  6
CONTINUOUS
 10
10.6082252099
 20
139.6562816382
  0
VERTEX
  8
0
 62
7
  6
CONTINUOUS
 10
10.6092520869
 20
139.6167406089
  0
VERTEX
  8
0
 62
7
  6
CONTINUOUS
 10
10.6105611747
 20
139.5757778025
  0
VERTEX
  8
0
 62
7
  6
CONTINUOUS
 10
10.6122527546
 20
139.5328682213
  0
VERTEX
  8
0
 62
7
  6
CONTINUOUS
 10
10.6146088874
 20
139.4847251177
  0
VERTEX
  8
0
 62
7
  6
CONTINUOUS
 10
10.6179139049
 20
139.4307133871
  0
VERTEX
  8
0
 62
7
  6
CONTINUOUS
 10
10.6232268118
 20
139.3622805873
  0
SEQEND
  0
POLYLINE
  8
0
 62
7
  6
CONTINUOUS
 66
1
 70
0
  0
VERTEX
  8
0
 62
7
  6
CONTINUOUS
 10
10.6063405655
 20
141.019826899
  0
VERTEX
  8
0
 62
7
  6
CONTINUOUS
 10
10.60579456
 20
140.9178310045
  0
VERTEX
  8
0
 62
7
  6
CONTINUOUS
 10
10.6053362996
 20
140.820220627
  0
VERTEX
  8
0
 62
7
  6
CONTINUOUS
 10
10.6049595188
 20
140.7269299427
  0
VERTEX
  8
0
 62
7
  6
CONTINUOUS
 10
10.6046581158
 20
140.6378919592
  0
VERTEX
  8
0
 62
7
  6
CONTINUOUS
 10
10.6044261508
 20
140.5530360031
  0
VERTEX
  8
0
 62
7
  6
CONTINUOUS
 10
10.6042578624
 20
140.4722905019
  0
VERTEX
  8
0
 62
7
  6
CONTINUOUS
 10
10.6041476678
 20
140.3955802334
  0
VERTEX
  8
0
 62
7
  6
CONTINUOUS
 10
10.6040901797
 20
140.3228389192
  0
VERTEX
  8
0
 62
7
  6
CONTINUOUS
 10
10.6040801858
 20
140.2539584367
  0
VERTEX
  8
0
 62
7
  6
CONTINUOUS
 10
10.6041840446
 20
140.1273805205
  0
SEQEND
  0
POLYLINE
  8
0
 62
7
  6
CONTINUOUS
 66
1
 70
0
  0
VERTEX
  8
0
 62
7
  6
CONTINUOUS
 10
10.7692132202
 20
149.15875667
  0
VERTEX
  8
0
 62
7
  6
CONTINUOUS
 10
10.760703558
 20
148.8527456591
  0
VERTEX
  8
0
 62
7
  6
CONTINUOUS
 10
10.7524191285
 20
148.5520608882
  0
VERTEX
  8
0
 62
7
  6
CONTINUOUS
 10
10.7443646725
 20
148.2567100042
  0
VERTEX
  8
0
 62
7
  6
CONTINUOUS
 10
10.736544837
 20
147.9666994284
  0
VERTEX
  8
0
 62
7
  6
CONTINUOUS
 10
10.7289641716
 20
147.682034355
  0
VERTEX
  8
0
 62
7
  6
CONTINUOUS
 10
10.7216271254
 20
147.4027187482
  0
VERTEX
  8
0
 62
7
  6
CONTINUOUS
 10
10.7145380406
 20
147.1287552269
  0
VERTEX
  8
0
 62
7
  6
CONTINUOUS
 10
10.7077011532
 20
146.8601451961
  0
VERTEX
  8
0
 62
7
  6
CONTINUOUS
 10
10.7011205824
 20
146.5968885406
  0
VERTEX
  8
0
 62
7
  6
CONTINUOUS
 10
10.6948000481
 20
146.3389720294
  0
VERTEX
  8
0
 62
7
  6
CONTINUOUS
 10
10.6887443014
 20
146.0864284431
  0
VERTEX
  8
0
 62
7
  6
CONTINUOUS
 10
10.6829563091
 20
145.8392703064
  0
VERTEX
  8
0
 62
7
  6
CONTINUOUS
 10
10.6774327021
 20
145.5975126
  0
VERTEX
  8
0
 62
7
  6
CONTINUOUS
 10
10.6721680012
 20
145.3611732354
  0
VERTEX
  8
0
 62
7
  6
CONTINUOUS
 10
10.6671555395
 20
145.1302159397
  0
VERTEX
  8
0
 62
7
  6
CONTINUOUS
 10
10.6623890022
 20
144.9046165352
  0
VERTEX
  8
0
 62
7
  6
CONTINUOUS
 10
10.6578621411
 20
144.6843505429
  0
VERTEX
  8
0
 62
7
  6
CONTINUOUS
 10
10.6535687534
 20
144.4693920324
  0
VERTEX
  8
0
 62
7
  6
CONTINUOUS
 10
10.6495027094
 20
144.2597148261
  0
VERTEX
  8
0
 62
7
  6
CONTINUOUS
 10
10.6456579304
 20
144.0552912454
  0
VERTEX
  8
0
 62
7
  6
CONTINUOUS
 10
10.6420284135
 20
143.8560932505
  0
VERTEX
  8
0
 62
7
  6
CONTINUOUS
 10
10.6386082129
 20
143.6620912992
  0
VERTEX
  8
0
 62
7
  6
CONTINUOUS
 10
10.6353914607
 20
143.4732553408
  0
VERTEX
  8
0
 62
7
  6
CONTINUOUS
 10
10.6323723526
 20
143.2895538379
  0
VERTEX
  8
0
 62
7
  6
CONTINUOUS
 10
10.6295451637
 20
143.1109545564
  0
VERTEX
  8
0
 62
7
  6
CONTINUOUS
 10
10.6269042391
 20
142.9374238135
  0
VERTEX
  8
0
 62
7
  6
CONTINUOUS
 10
10.6244440045
 20
142.7689269907
  0
VERTEX
  8
0
 62
7
  6
CONTINUOUS
 10
10.6221589765
 20
142.6054291412
  0
VERTEX
  8
0
 62
7
  6
CONTINUOUS
 10
10.6200436959
 20
142.4468898642
  0
VERTEX
  8
0
 62
7
  6
CONTINUOUS
 10
10.6180928027
 20
142.2932681068
  0
VERTEX
  8
0
 62
7
  6
CONTINUOUS
 10
10.6163010616
 20
142.1445242404
  0
VERTEX
  8
0
 62
7
  6
CONTINUOUS
 10
10.614663132
 20
142.0005997965
  0
VERTEX
  8
0
 62
7
  6
CONTINUOUS
 10
10.6131741155
 20
141.8615016755
  0
VERTEX
  8
0
 62
7
  6
CONTINUOUS
 10
10.6118273876
 20
141.7272108192
  0
VERTEX
  8
0
 62
7
  6
CONTINUOUS
 10
10.6106157834
 20
141.5976822293
  0
VERTEX
  8
0
 62
7
  6
CONTINUOUS
 10
10.6095322712
 20
141.4728749108
  0
VERTEX
  8
0
 62
7
  6
CONTINUOUS
 10
10.6085698392
 20
141.352738477
  0
VERTEX
  8
0
 62
7
  6
CONTINUOUS
 10
10.6077215905
 20
141.2372219759
  0
VERTEX
  8
0
 62
7
  6
CONTINUOUS
 10
10.6069807242
 20
141.1262703469
  0
VERTEX
  8
0
 62
7
  6
CONTINUOUS
 10
10.6063405655
 20
141.019826899
  0
SEQEND
  0
POLYLINE
  8
0
 62
7
  6
CONTINUOUS
 66
1
 70
0
  0
VERTEX
  8
0
 62
7
  6
CONTINUOUS
 10
10.7960448924
 20
150.1086531684
  0
VERTEX
  8
0
 62
7
  6
CONTINUOUS
 10
10.7868888417
 20
149.7867209954
  0
VERTEX
  8
0
 62
7
  6
CONTINUOUS
 10
10.7779432863
 20
149.4700851179
  0
VERTEX
  8
0
 62
7
  6
CONTINUOUS
 10
10.7692132202
 20
149.15875667
  0
SEQEND
  0
LINE
  8
0
 62
7
  6
CONTINUOUS
 10
10.8041761195
 20
150.3929693875
 11
10.7960448924
 21
150.1086531684
  0
POLYLINE
  8
0
 62
7
  6
CONTINUOUS
 66
1
 70
0
  0
VERTEX
  8
0
 62
7
  6
CONTINUOUS
 10
11.3331047047
 20
165.9767272314
  0
VERTEX
  8
0
 62
7
  6
CONTINUOUS
 10
11.2668724373
 20
164.1076854853
  0
VERTEX
  8
0
 62
7
  6
CONTINUOUS
 10
11.2022882999
 20
162.2579239357
  0
VERTEX
  8
0
 62
7
  6
CONTINUOUS
 10
11.1388530449
 20
160.4127574058
  0
VERTEX
  8
0
 62
7
  6
CONTINUOUS
 10
11.0780644153
 20
158.6162414258
  0
VERTEX
  8
0
 62
7
  6
CONTINUOUS
 10
11.0209757226
 20
156.8989324723
  0
VERTEX
  8
0
 62
7
  6
CONTINUOUS
 10
10.9684210138
 20
155.2866425288
  0
VERTEX
  8
0
 62
7
  6
CONTINUOUS
 10
10.9213672102
 20
153.8082595228
  0
VERTEX
  8
0
 62
7
  6
CONTINUOUS
 10
10.8804689993
 20
152.4851120981
  0
VERTEX
  8
0
 62
7
  6
CONTINUOUS
 10
10.8468255002
 20
151.3520279516
  0
VERTEX
  8
0
 62
7
  6
CONTINUOUS
 10
10.8200703398
 20
150.3973978511
  0
SEQEND
  0
LINE
  8
0
 62
7
  6
CONTINUOUS
 10
12.0063726636
 20
184.8279740524
 11
11.3331047047
 21
165.9767272314
  0
POLYLINE
  8
0
 62
7
  6
CONTINUOUS
 66
1
 70
0
  0
VERTEX
  8
0
 62
7
  6
CONTINUOUS
 10
12.0064319769
 20
184.8303516062
  0
VERTEX
  8
0
 62
7
  6
CONTINUOUS
 10
12.0816032525
 20
185.3989612
  0
VERTEX
  8
0
 62
7
  6
CONTINUOUS
 10
12.264027267
 20
185.943806965
  0
SEQEND
  0
LINE
  8
0
 62
7
  6
CONTINUOUS
 10
156.5211152459
 20
570.7639846186
 11
155.947514114
 21
569.1880284609
  0
POLYLINE
  8
0
 62
7
  6
CONTINUOUS
 66
1
 70
0
  0
VERTEX
  8
0
 62
7
  6
CONTINUOUS
 10
12.264027267
 20
185.943806965
  0
VERTEX
  8
0
 62
7
  6
CONTINUOUS
 10
12.5473818189
 20
186.4444581592
  0
VERTEX
  8
0
 62
7
  6
CONTINUOUS
 10
12.9210738756
 20
186.8818052037
  0
VERTEX
  8
0
 62
7
  6
CONTINUOUS
 10
13.3716990161
 20
187.2399984247
  0
VERTEX
  8
0
 62
7
  6
CONTINUOUS
 10
13.8819097282
 20
187.5053152963
  0
SEQEND
  0
POLYLINE
  8
0
 62
7
  6
CONTINUOUS
 66
1
 70
0
  0
VERTEX
  8
0
 62
7
  6
CONTINUOUS
 10
10.9393570168
 20
138.2416509483
  0
VERTEX
  8
0
 62
7
  6
CONTINUOUS
 10
11.1280438729
 20
137.9194106926
  0
VERTEX
  8
0
 62
7
  6
CONTINUOUS
 10
11.3789286466
 20
137.5959205843
  0
VERTEX
  8
0
 62
7
  6
CONTINUOUS
 10
11.687641748
 20
137.2956020664
  0
VERTEX
  8
0
 62
7
  6
CONTINUOUS
 10
12.0515710294
 20
137.0327676264
  0
VERTEX
  8
0
 62
7
  6
CONTINUOUS
 10
12.4590417117
 20
136.8233418401
  0
SEQEND
  0
POLYLINE
  8
0
 62
7
  6
CONTINUOUS
 66
1
 70
0
  0
VERTEX
  8
0
 62
7
  6
CONTINUOUS
 10
10.8505140235
 20
138.4340071425
  0
VERTEX
  8
0
 62
7
  6
CONTINUOUS
 10
10.9883471658
 20
138.1487307195
  0
VERTEX
  8
0
 62
7
  6
CONTINUOUS
 10
11.1680559587
 20
137.8613478742
  0
VERTEX
  8
0
 62
7
  6
CONTINUOUS
 10
11.3922923583
 20
137.5810165197
  0
VERTEX
  8
0
 62
7
  6
CONTINUOUS
 10
11.6574360069
 20
137.3213898664
  0
SEQEND
  0
POLYLINE
  8
0
 62
7
  6
CONTINUOUS
 66
1
 70
0
  0
VERTEX
  8
0
 62
7
  6
CONTINUOUS
 10
10.6558561667
 20
139.1058903291
  0
VERTEX
  8
0
 62
7
  6
CONTINUOUS
 10
10.6924526302
 20
138.9230474535
  0
VERTEX
  8
0
 62
7
  6
CONTINUOUS
 10
10.7536117523
 20
138.6986764394
  0
VERTEX
  8
0
 62
7
  6
CONTINUOUS
 10
10.8505140235
 20
138.4340071425
  0
SEQEND
  0
POLYLINE
  8
0
 62
7
  6
CONTINUOUS
 66
1
 70
0
  0
VERTEX
  8
0
 62
7
  6
CONTINUOUS
 10
10.6477889772
 20
139.1561482478
  0
VERTEX
  8
0
 62
7
  6
CONTINUOUS
 10
10.676243413
 20
138.9970799679
  0
VERTEX
  8
0
 62
7
  6
CONTINUOUS
 10
10.7255795313
 20
138.7932542475
  0
VERTEX
  8
0
 62
7
  6
CONTINUOUS
 10
10.8097277158
 20
138.536311156
  0
VERTEX
  8
0
 62
7
  6
CONTINUOUS
 10
10.9393570168
 20
138.2416509483
  0
SEQEND
  0
LINE
  8
0
 62
7
  6
CONTINUOUS
 10
10.6358193637
 20
139.2428770212
 11
10.6558561667
 21
139.1058903291
  0
POLYLINE
  8
0
 62
7
  6
CONTINUOUS
 66
1
 70
0
  0
VERTEX
  8
0
 62
7
  6
CONTINUOUS
 10
11.6574360069
 20
137.3213898664
  0
VERTEX
  8
0
 62
7
  6
CONTINUOUS
 10
11.9662404348
 20
137.0871840683
  0
VERTEX
  8
0
 62
7
  6
CONTINUOUS
 10
12.3194797807
 20
136.8863455164
  0
SEQEND
  0
LINE
  8
0
 62
7
  6
CONTINUOUS
 10
13.8819097282
 20
187.5053152963
 11
14.4323463736
 21
187.6682061738
  0
LINE
  8
0
 62
7
  6
CONTINUOUS
 10
12.4590417117
 20
136.8233418401
 11
12.905469442
 21
136.6751736911
  0
LINE
  8
0
 62
7
  6
CONTINUOUS
 10
12.3194797807
 20
136.8863455164
 11
12.7127958199
 21
136.7296476812
  0
POLYLINE
  8
0
 62
7
  6
CONTINUOUS
 66
1
 70
0
  0
VERTEX
  8
0
 62
7
  6
CONTINUOUS
 10
10.7038340933
 20
146.7054429212
  0
VERTEX
  8
0
 62
7
  6
CONTINUOUS
 10
10.599388881
 20
146.6718625246
  0
VERTEX
  8
0
 62
7
  6
CONTINUOUS
 10
10.4087031627
 20
146.6051947896
  0
VERTEX
  8
0
 62
7
  6
CONTINUOUS
 10
10.2197650074
 20
146.5337346144
  0
VERTEX
  8
0
 62
7
  6
CONTINUOUS
 10
10.0326935363
 20
146.4575269745
  0
VERTEX
  8
0
 62
7
  6
CONTINUOUS
 10
9.847607271
 20
146.3766217239
  0
VERTEX
  8
0
 62
7
  6
CONTINUOUS
 10
9.6646214551
 20
146.2910706266
  0
VERTEX
  8
0
 62
7
  6
CONTINUOUS
 10
9.4838519059
 20
146.2009255778
  0
VERTEX
  8
0
 62
7
  6
CONTINUOUS
 10
9.305412753
 20
146.1062418103
  0
VERTEX
  8
0
 62
7
  6
CONTINUOUS
 10
9.1294150487
 20
146.0070804814
  0
VERTEX
  8
0
 62
7
  6
CONTINUOUS
 10
8.9559702392
 20
145.9035035562
  0
VERTEX
  8
0
 62
7
  6
CONTINUOUS
 10
8.7851889285
 20
145.7955727782
  0
VERTEX
  8
0
 62
7
  6
CONTINUOUS
 10
8.6171802854
 20
145.683357309
  0
VERTEX
  8
0
 62
7
  6
CONTINUOUS
 10
8.4520495503
 20
145.566930964
  0
VERTEX
  8
0
 62
7
  6
CONTINUOUS
 10
8.289902461
 20
145.4463681273
  0
VERTEX
  8
0
 62
7
  6
CONTINUOUS
 10
8.1308446258
 20
145.3217431183
  0
VERTEX
  8
0
 62
7
  6
CONTINUOUS
 10
7.974980718
 20
145.193131513
  0
VERTEX
  8
0
 62
7
  6
CONTINUOUS
 10
7.8224084612
 20
145.0606166623
  0
VERTEX
  8
0
 62
7
  6
CONTINUOUS
 10
7.673224412
 20
144.9242866421
  0
VERTEX
  8
0
 62
7
  6
CONTINUOUS
 10
7.5275240815
 20
144.7842287555
  0
VERTEX
  8
0
 62
7
  6
CONTINUOUS
 10
7.3854052413
 20
144.6405327045
  0
VERTEX
  8
0
 62
7
  6
CONTINUOUS
 10
7.2469628278
 20
144.4932897627
  0
VERTEX
  8
0
 62
7
  6
CONTINUOUS
 10
7.1122857941
 20
144.342597501
  0
VERTEX
  8
0
 62
7
  6
CONTINUOUS
 10
6.9814616763
 20
144.1885548837
  0
VERTEX
  8
0
 62
7
  6
CONTINUOUS
 10
6.8545750317
 20
144.0312628696
  0
VERTEX
  8
0
 62
7
  6
CONTINUOUS
 10
6.7317080769
 20
143.8708260228
  0
VERTEX
  8
0
 62
7
  6
CONTINUOUS
 10
6.6129398252
 20
143.7073454345
  0
VERTEX
  8
0
 62
7
  6
CONTINUOUS
 10
6.4983479266
 20
143.5409254417
  0
VERTEX
  8
0
 62
7
  6
CONTINUOUS
 10
6.3880002874
 20
143.3716733354
  0
VERTEX
  8
0
 62
7
  6
CONTINUOUS
 10
6.2819637499
 20
143.1996980472
  0
VERTEX
  8
0
 62
7
  6
CONTINUOUS
 10
6.1803052049
 20
143.0251083736
  0
VERTEX
  8
0
 62
7
  6
CONTINUOUS
 10
6.0830915373
 20
142.8480130334
  0
VERTEX
  8
0
 62
7
  6
CONTINUOUS
 10
5.9903856637
 20
142.6685232332
  0
VERTEX
  8
0
 62
7
  6
CONTINUOUS
 10
5.9022440925
 20
142.4867535261
  0
VERTEX
  8
0
 62
7
  6
CONTINUOUS
 10
5.8187228264
 20
142.3028196903
  0
VERTEX
  8
0
 62
7
  6
CONTINUOUS
 10
5.7398731611
 20
142.1168391523
  0
VERTEX
  8
0
 62
7
  6
CONTINUOUS
 10
5.6657436912
 20
141.9289307086
  0
VERTEX
  8
0
 62
7
  6
CONTINUOUS
 10
5.5963829364
 20
141.7392131095
  0
VERTEX
  8
0
 62
7
  6
CONTINUOUS
 10
5.531836096
 20
141.54780637
  0
VERTEX
  8
0
 62
7
  6
CONTINUOUS
 10
5.4721429044
 20
141.3548326592
  0
VERTEX
  8
0
 62
7
  6
CONTINUOUS
 10
5.4173421187
 20
141.1604142186
  0
VERTEX
  8
0
 62
7
  6
CONTINUOUS
 10
5.3674673351
 20
140.964674835
  0
VERTEX
  8
0
 62
7
  6
CONTINUOUS
 10
5.3225486365
 20
140.7677387471
  0
VERTEX
  8
0
 62
7
  6
CONTINUOUS
 10
5.28261612
 20
140.569730324
  0
VERTEX
  8
0
 62
7
  6
CONTINUOUS
 10
5.2476964272
 20
140.3707746211
  0
VERTEX
  8
0
 62
7
  6
CONTINUOUS
 10
5.2178100674
 20
140.1709980137
  0
VERTEX
  8
0
 62
7
  6
CONTINUOUS
 10
5.1929770056
 20
139.9705270373
  0
VERTEX
  8
0
 62
7
  6
CONTINUOUS
 10
5.1732156507
 20
139.7694883554
  0
VERTEX
  8
0
 62
7
  6
CONTINUOUS
 10
5.1585359505
 20
139.5680095205
  0
VERTEX
  8
0
 62
7
  6
CONTINUOUS
 10
5.1489451488
 20
139.3662183568
  0
VERTEX
  8
0
 62
7
  6
CONTINUOUS
 10
5.1444505654
 20
139.164242632
  0
SEQEND
  0
POLYLINE
  8
0
 62
7
  6
CONTINUOUS
 66
1
 70
0
  0
VERTEX
  8
0
 62
7
  6
CONTINUOUS
 10
12.7127958199
 20
136.7296476812
  0
VERTEX
  8
0
 62
7
  6
CONTINUOUS
 10
13.1403390795
 20
136.6269580511
  0
VERTEX
  8
0
 62
7
  6
CONTINUOUS
 10
13.6280878533
 20
136.5872013413
  0
SEQEND
  0
LINE
  8
0
 62
7
  6
CONTINUOUS
 10
184.5156857404
 20
578.2404479238
 11
184.5156857404
 21
578.8601903494
  0
LINE
  8
0
 62
7
  6
CONTINUOUS
 10
185.0156857404
 20
578.6570074004
 11
185.0156857404
 21
577.9868962773
  0
POLYLINE
  8
0
 62
7
  6
CONTINUOUS
 66
1
 70
0
  0
VERTEX
  8
0
 62
7
  6
CONTINUOUS
 10
13.5882815152
 20
136.587377689
  0
VERTEX
  8
0
 62
7
  6
CONTINUOUS
 10
13.4362465462
 20
136.5857407218
  0
VERTEX
  8
0
 62
7
  6
CONTINUOUS
 10
13.3687222322
 20
136.5839634277
  0
SEQEND
  0
LINE
  8
0
 62
7
  6
CONTINUOUS
 10
13.6277587486
 20
136.587377689
 11
354.9625025372
 21
136.587377689
  0
POLYLINE
  8
0
 62
7
  6
CONTINUOUS
 66
1
 70
0
  0
VERTEX
  8
0
 62
7
  6
CONTINUOUS
 10
355.3825356014
 20
136.5748751109
  0
VERTEX
  8
0
 62
7
  6
CONTINUOUS
 10
355.2976354937
 20
136.5794207844
  0
VERTEX
  8
0
 62
7
  6
CONTINUOUS
 10
354.9625025372
 20
136.587377689
  0
SEQEND
  0
LINE
  8
0
 62
7
  6
CONTINUOUS
 10
14.4323463736
 20
187.6682061738
 11
15.0045204881
 21
187.7232755623
  0
LINE
  8
0
 62
7
  6
CONTINUOUS
 10
15.0045204881
 20
187.7232755623
 11
353.5462635642
 21
187.7232755623
  0
POLYLINE
  8
0
 62
7
  6
CONTINUOUS
 66
1
 70
0
  0
VERTEX
  8
0
 62
7
  6
CONTINUOUS
 10
353.5462635643
 20
187.7232755623
  0
VERTEX
  8
0
 62
7
  6
CONTINUOUS
 10
354.1200623019
 20
187.6678900447
  0
VERTEX
  8
0
 62
7
  6
CONTINUOUS
 10
354.6709680952
 20
187.5044694998
  0
SEQEND
  0
POLYLINE
  8
0
 62
7
  6
CONTINUOUS
 66
1
 70
0
  0
VERTEX
  8
0
 62
7
  6
CONTINUOUS
 10
357.7795995072
 20
148.5422294782
  0
VERTEX
  8
0
 62
7
  6
CONTINUOUS
 10
357.7798827113
 20
148.5425089522
  0
VERTEX
  8
0
 62
7
  6
CONTINUOUS
 10
357.829793815
 20
148.5932032801
  0
VERTEX
  8
0
 62
7
  6
CONTINUOUS
 10
357.8794046486
 20
148.6450699177
  0
VERTEX
  8
0
 62
7
  6
CONTINUOUS
 10
357.9286875137
 20
148.6981229672
  0
VERTEX
  8
0
 62
7
  6
CONTINUOUS
 10
357.9776130258
 20
148.7523729551
  0
VERTEX
  8
0
 62
7
  6
CONTINUOUS
 10
358.0261500839
 20
148.8078270968
  0
VERTEX
  8
0
 62
7
  6
CONTINUOUS
 10
358.0742676038
 20
148.8644945875
  0
VERTEX
  8
0
 62
7
  6
CONTINUOUS
 10
358.1219322861
 20
148.9223801162
  0
VERTEX
  8
0
 62
7
  6
CONTINUOUS
 10
358.1691110921
 20
148.9814908358
  0
VERTEX
  8
0
 62
7
  6
CONTINUOUS
 10
358.2157686855
 20
149.0418286409
  0
VERTEX
  8
0
 62
7
  6
CONTINUOUS
 10
358.2618701197
 20
149.1033982218
  0
VERTEX
  8
0
 62
7
  6
CONTINUOUS
 10
358.3073782438
 20
149.1661984221
  0
VERTEX
  8
0
 62
7
  6
CONTINUOUS
 10
358.3522564118
 20
149.2302311807
  0
VERTEX
  8
0
 62
7
  6
CONTINUOUS
 10
358.3964658583
 20
149.295491963
  0
VERTEX
  8
0
 62
7
  6
CONTINUOUS
 10
358.4399684605
 20
149.3619796288
  0
VERTEX
  8
0
 62
7
  6
CONTINUOUS
 10
358.4827241066
 20
149.4296859736
  0
VERTEX
  8
0
 62
7
  6
CONTINUOUS
 10
358.5246934726
 20
149.498606462
  0
VERTEX
  8
0
 62
7
  6
CONTINUOUS
 10
358.5658354251
 20
149.568728964
  0
VERTEX
  8
0
 62
7
  6
CONTINUOUS
 10
358.6061097698
 20
149.6400452575
  0
VERTEX
  8
0
 62
7
  6
CONTINUOUS
 10
358.6454747298
 20
149.7125390744
  0
VERTEX
  8
0
 62
7
  6
CONTINUOUS
 10
358.6838896266
 20
149.7861982551
  0
VERTEX
  8
0
 62
7
  6
CONTINUOUS
 10
358.7213124571
 20
149.8610022145
  0
VERTEX
  8
0
 62
7
  6
CONTINUOUS
 10
358.7577024845
 20
149.9369346317
  0
VERTEX
  8
0
 62
7
  6
CONTINUOUS
 10
358.7930179421
 20
150.0139704835
  0
VERTEX
  8
0
 62
7
  6
CONTINUOUS
 10
358.8272184976
 20
150.092089101
  0
VERTEX
  8
0
 62
7
  6
CONTINUOUS
 10
358.8602631332
 20
150.1712609944
  0
VERTEX
  8
0
 62
7
  6
CONTINUOUS
 10
358.8921124315
 20
150.2514610474
  0
VERTEX
  8
0
 62
7
  6
CONTINUOUS
 10
358.9227266523
 20
150.33265533
  0
VERTEX
  8
0
 62
7
  6
CONTINUOUS
 10
358.9520678225
 20
150.4148142371
  0
VERTEX
  8
0
 62
7
  6
CONTINUOUS
 10
358.9800980245
 20
150.4978995003
  0
VERTEX
  8
0
 62
7
  6
CONTINUOUS
 10
359.0067812683
 20
150.5818770432
  0
VERTEX
  8
0
 62
7
  6
CONTINUOUS
 10
359.0320820172
 20
150.66670447
  0
VERTEX
  8
0
 62
7
  6
CONTINUOUS
 10
359.055966812
 20
150.7523433552
  0
VERTEX
  8
0
 62
7
  6
CONTINUOUS
 10
359.0784030402
 20
150.8387474604
  0
VERTEX
  8
0
 62
7
  6
CONTINUOUS
 10
359.0993603062
 20
150.9258742183
  0
VERTEX
  8
0
 62
7
  6
CONTINUOUS
 10
359.1188094376
 20
151.0136739039
  0
VERTEX
  8
0
 62
7
  6
CONTINUOUS
 10
359.1367236027
 20
151.1021000787
  0
VERTEX
  8
0
 62
7
  6
CONTINUOUS
 10
359.1530775534
 20
151.1910999981
  0
VERTEX
  8
0
 62
7
  6
CONTINUOUS
 10
359.1678484873
 20
151.2806237403
  0
VERTEX
  8
0
 62
7
  6
CONTINUOUS
 10
359.1810155029
 20
151.3706160501
  0
VERTEX
  8
0
 62
7
  6
CONTINUOUS
 10
359.1925602296
 20
151.4610239613
  0
VERTEX
  8
0
 62
7
  6
CONTINUOUS
 10
359.2024664735
 20
151.5517903131
  0
VERTEX
  8
0
 62
7
  6
CONTINUOUS
 10
359.210720642
 20
151.642859479
  0
VERTEX
  8
0
 62
7
  6
CONTINUOUS
 10
359.2173114962
 20
151.7341734987
  0
VERTEX
  8
0
 62
7
  6
CONTINUOUS
 10
359.2222295003
 20
151.8256460924
  0
VERTEX
  8
0
 62
7
  6
CONTINUOUS
 10
359.2254716179
 20
151.9173061826
  0
SEQEND
  0
POLYLINE
  8
0
 62
7
  6
CONTINUOUS
 66
1
 70
0
  0
VERTEX
  8
0
 62
7
  6
CONTINUOUS
 10
354.6709680952
 20
187.5044694998
  0
VERTEX
  8
0
 62
7
  6
CONTINUOUS
 10
355.1803817808
 20
187.2391566395
  0
VERTEX
  8
0
 62
7
  6
CONTINUOUS
 10
355.6299094545
 20
186.8816128399
  0
VERTEX
  8
0
 62
7
  6
CONTINUOUS
 10
356.0027977367
 20
186.44532081
  0
VERTEX
  8
0
 62
7
  6
CONTINUOUS
 10
356.2859816181
 20
185.9455459847
  0
SEQEND
  0
POLYLINE
  8
0
 62
7
  6
CONTINUOUS
 66
1
 70
0
  0
VERTEX
  8
0
 62
7
  6
CONTINUOUS
 10
184.515685746
 20
578.2404459397
  0
VERTEX
  8
0
 62
7
  6
CONTINUOUS
 10
184.5326973082
 20
578.1954200063
  0
VERTEX
  8
0
 62
7
  6
CONTINUOUS
 10
184.5833921308
 20
578.1497426456
  0
VERTEX
  8
0
 62
7
  6
CONTINUOUS
 10
184.666885144
 20
578.1032263172
  0
VERTEX
  8
0
 62
7
  6
CONTINUOUS
 10
184.7822982977
 20
578.0564336423
  0
VERTEX
  8
0
 62
7
  6
CONTINUOUS
 10
184.9286412421
 20
578.0097365828
  0
SEQEND
  0
LINE
  8
0
 62
7
  6
CONTINUOUS
 10
357.2176793476
 20
165.9767272314
 11
356.5444113887
 21
184.8279740524
  0
POLYLINE
  8
0
 62
7
  6
CONTINUOUS
 66
1
 70
0
  0
VERTEX
  8
0
 62
7
  6
CONTINUOUS
 10
357.7307137126
 20
150.3973978508
  0
VERTEX
  8
0
 62
7
  6
CONTINUOUS
 10
357.7039525654
 20
151.3522282271
  0
VERTEX
  8
0
 62
7
  6
CONTINUOUS
 10
357.6703049922
 20
152.4854436247
  0
VERTEX
  8
0
 62
7
  6
CONTINUOUS
 10
357.6294045224
 20
153.8086530993
  0
VERTEX
  8
0
 62
7
  6
CONTINUOUS
 10
357.5823505673
 20
155.2870294845
  0
VERTEX
  8
0
 62
7
  6
CONTINUOUS
 10
357.5297985979
 20
156.8992289969
  0
VERTEX
  8
0
 62
7
  6
CONTINUOUS
 10
357.4727139638
 20
158.6164105425
  0
VERTEX
  8
0
 62
7
  6
CONTINUOUS
 10
357.4119299847
 20
160.4127882608
  0
VERTEX
  8
0
 62
7
  6
CONTINUOUS
 10
357.3484982217
 20
162.2578526673
  0
VERTEX
  8
0
 62
7
  6
CONTINUOUS
 10
357.2839141762
 20
164.1076108944
  0
VERTEX
  8
0
 62
7
  6
CONTINUOUS
 10
357.2176793476
 20
165.9767272314
  0
SEQEND
  0
POLYLINE
  8
0
 62
7
  6
CONTINUOUS
 66
1
 70
0
  0
VERTEX
  8
0
 62
7
  6
CONTINUOUS
 10
357.7644803815
 20
149.1231001194
  0
VERTEX
  8
0
 62
7
  6
CONTINUOUS
 10
357.7541362932
 20
149.516332604
  0
VERTEX
  8
0
 62
7
  6
CONTINUOUS
 10
357.7434199158
 20
149.9206580891
  0
VERTEX
  8
0
 62
7
  6
CONTINUOUS
 10
357.7323232539
 20
150.3362945235
  0
VERTEX
  8
0
 62
7
  6
CONTINUOUS
 10
357.7309381503
 20
150.3879693359
  0
SEQEND
  0
POLYLINE
  8
0
 62
7
  6
CONTINUOUS
 66
1
 70
0
  0
VERTEX
  8
0
 62
7
  6
CONTINUOUS
 10
368.6811180467
 20
513.0756433764
  0
VERTEX
  8
0
 62
7
  6
CONTINUOUS
 10
368.6783647914
 20
513.2839737157
  0
VERTEX
  8
0
 62
7
  6
CONTINUOUS
 10
368.6694147657
 20
513.492120025
  0
VERTEX
  8
0
 62
7
  6
CONTINUOUS
 10
368.654276682
 20
513.6998999642
  0
VERTEX
  8
0
 62
7
  6
CONTINUOUS
 10
368.6329609511
 20
513.9071306843
  0
VERTEX
  8
0
 62
7
  6
CONTINUOUS
 10
368.6054887291
 20
514.1136302174
  0
VERTEX
  8
0
 62
7
  6
CONTINUOUS
 10
368.5718849813
 20
514.3192168903
  0
VERTEX
  8
0
 62
7
  6
CONTINUOUS
 10
368.5321757478
 20
514.5237092756
  0
VERTEX
  8
0
 62
7
  6
CONTINUOUS
 10
368.4863989882
 20
514.7269284157
  0
VERTEX
  8
0
 62
7
  6
CONTINUOUS
 10
368.4345993736
 20
514.9286966859
  0
VERTEX
  8
0
 62
7
  6
CONTINUOUS
 10
368.3768214063
 20
515.1288367559
  0
VERTEX
  8
0
 62
7
  6
CONTINUOUS
 10
368.3131108156
 20
515.3271703238
  0
VERTEX
  8
0
 62
7
  6
CONTINUOUS
 10
368.2435232831
 20
515.5235236519
  0
VERTEX
  8
0
 62
7
  6
CONTINUOUS
 10
368.1681225779
 20
515.7177198648
  0
VERTEX
  8
0
 62
7
  6
CONTINUOUS
 10
368.0869759995
 20
515.9095853807
  0
VERTEX
  8
0
 62
7
  6
CONTINUOUS
 10
368.0001596862
 20
516.0989489601
  0
VERTEX
  8
0
 62
7
  6
CONTINUOUS
 10
367.9077511877
 20
516.285639888
  0
VERTEX
  8
0
 62
7
  6
CONTINUOUS
 10
367.8098305015
 20
516.4694906505
  0
VERTEX
  8
0
 62
7
  6
CONTINUOUS
 10
367.7064890377
 20
516.6503369463
  0
VERTEX
  8
0
 62
7
  6
CONTINUOUS
 10
367.597817007
 20
516.8280216351
  0
VERTEX
  8
0
 62
7
  6
CONTINUOUS
 10
367.483907483
 20
517.0023869622
  0
VERTEX
  8
0
 62
7
  6
CONTINUOUS
 10
367.3648636002
 20
517.17328387
  0
VERTEX
  8
0
 62
7
  6
CONTINUOUS
 10
367.2407921994
 20
517.3405654047
  0
VERTEX
  8
0
 62
7
  6
CONTINUOUS
 10
367.1118001679
 20
517.504084055
  0
VERTEX
  8
0
 62
7
  6
CONTINUOUS
 10
366.9779955972
 20
517.6636938921
  0
VERTEX
  8
0
 62
7
  6
CONTINUOUS
 10
366.83949747
 20
517.819255703
  0
VERTEX
  8
0
 62
7
  6
CONTINUOUS
 10
366.6964280403
 20
517.9706333807
  0
VERTEX
  8
0
 62
7
  6
CONTINUOUS
 10
366.5489104363
 20
518.1176912987
  0
VERTEX
  8
0
 62
7
  6
CONTINUOUS
 10
366.3970751908
 20
518.2603020223
  0
VERTEX
  8
0
 62
7
  6
CONTINUOUS
 10
366.2410585685
 20
518.3983412404
  0
VERTEX
  8
0
 62
7
  6
CONTINUOUS
 10
366.080995153
 20
518.5316860754
  0
VERTEX
  8
0
 62
7
  6
CONTINUOUS
 10
365.917025978
 20
518.6602100557
  0
VERTEX
  8
0
 62
7
  6
CONTINUOUS
 10
365.749299255
 20
518.7837993168
  0
VERTEX
  8
0
 62
7
  6
CONTINUOUS
 10
365.5779700127
 20
518.9023457101
  0
VERTEX
  8
0
 62
7
  6
CONTINUOUS
 10
365.4031938216
 20
519.0157414924
  0
VERTEX
  8
0
 62
7
  6
CONTINUOUS
 10
365.225124811
 20
519.123881462
  0
VERTEX
  8
0
 62
7
  6
CONTINUOUS
 10
365.043925485
 20
519.2266677179
  0
VERTEX
  8
0
 62
7
  6
CONTINUOUS
 10
364.8597529817
 20
519.3240131095
  0
VERTEX
  8
0
 62
7
  6
CONTINUOUS
 10
364.6727694774
 20
519.4158335832
  0
VERTEX
  8
0
 62
7
  6
CONTINUOUS
 10
364.483137605
 20
519.5020518166
  0
VERTEX
  8
0
 62
7
  6
CONTINUOUS
 10
364.2910202457
 20
519.5825907321
  0
VERTEX
  8
0
 62
7
  6
CONTINUOUS
 10
364.0965851336
 20
519.6573791164
  0
VERTEX
  8
0
 62
7
  6
CONTINUOUS
 10
363.9000001647
 20
519.7263522371
  0
VERTEX
  8
0
 62
7
  6
CONTINUOUS
 10
363.7014418985
 20
519.7894457793
  0
VERTEX
  8
0
 62
7
  6
CONTINUOUS
 10
363.5010877324
 20
519.8466061689
  0
VERTEX
  8
0
 62
7
  6
CONTINUOUS
 10
363.2991176697
 20
519.8977813493
  0
VERTEX
  8
0
 62
7
  6
CONTINUOUS
 10
363.0957118814
 20
519.9429218273
  0
VERTEX
  8
0
 62
7
  6
CONTINUOUS
 10
362.8910532922
 20
519.9819891605
  0
VERTEX
  8
0
 62
7
  6
CONTINUOUS
 10
362.685325737
 20
520.0149485495
  0
VERTEX
  8
0
 62
7
  6
CONTINUOUS
 10
362.4787132666
 20
520.0417669965
  0
VERTEX
  8
0
 62
7
  6
CONTINUOUS
 10
362.2714014869
 20
520.0624243772
  0
VERTEX
  8
0
 62
7
  6
CONTINUOUS
 10
362.0635767888
 20
520.0769070442
  0
SEQEND
  0
POLYLINE
  8
0
 62
7
  6
CONTINUOUS
 66
1
 70
0
  0
VERTEX
  8
0
 62
7
  6
CONTINUOUS
 10
357.9419930999
 20
141.0049434973
  0
VERTEX
  8
0
 62
7
  6
CONTINUOUS
 10
357.9407350002
 20
141.1164085045
  0
VERTEX
  8
0
 62
7
  6
CONTINUOUS
 10
357.9393103282
 20
141.2333806076
  0
VERTEX
  8
0
 62
7
  6
CONTINUOUS
 10
357.9377140308
 20
141.35599675
  0
VERTEX
  8
0
 62
7
  6
CONTINUOUS
 10
357.9359409363
 20
141.4844046204
  0
VERTEX
  8
0
 62
7
  6
CONTINUOUS
 10
357.9339860227
 20
141.6187416784
  0
VERTEX
  8
0
 62
7
  6
CONTINUOUS
 10
357.9318442886
 20
141.7591457408
  0
VERTEX
  8
0
 62
7
  6
CONTINUOUS
 10
357.9295109097
 20
141.9057450098
  0
VERTEX
  8
0
 62
7
  6
CONTINUOUS
 10
357.9269811824
 20
142.05866306
  0
VERTEX
  8
0
 62
7
  6
CONTINUOUS
 10
357.9242504341
 20
142.2180231205
  0
VERTEX
  8
0
 62
7
  6
CONTINUOUS
 10
357.9213146836
 20
142.3839085187
  0
VERTEX
  8
0
 62
7
  6
CONTINUOUS
 10
357.9181685855
 20
142.5564800837
  0
VERTEX
  8
0
 62
7
  6
CONTINUOUS
 10
357.914807142
 20
142.7358753823
  0
VERTEX
  8
0
 62
7
  6
CONTINUOUS
 10
357.911224952
 20
142.922250598
  0
VERTEX
  8
0
 62
7
  6
CONTINUOUS
 10
357.9074165847
 20
143.1157597632
  0
VERTEX
  8
0
 62
7
  6
CONTINUOUS
 10
357.9033765148
 20
143.3165584261
  0
VERTEX
  8
0
 62
7
  6
CONTINUOUS
 10
357.8990991193
 20
143.5248038877
  0
VERTEX
  8
0
 62
7
  6
CONTINUOUS
 10
357.8945786402
 20
143.740656985
  0
VERTEX
  8
0
 62
7
  6
CONTINUOUS
 10
357.8898092302
 20
143.9642798443
  0
VERTEX
  8
0
 62
7
  6
CONTINUOUS
 10
357.8847848861
 20
144.1958389765
  0
VERTEX
  8
0
 62
7
  6
CONTINUOUS
 10
357.8794995169
 20
144.4355020412
  0
VERTEX
  8
0
 62
7
  6
CONTINUOUS
 10
357.8739468537
 20
144.6834419063
  0
VERTEX
  8
0
 62
7
  6
CONTINUOUS
 10
357.8681205398
 20
144.9398324801
  0
VERTEX
  8
0
 62
7
  6
CONTINUOUS
 10
357.8620140169
 20
145.2048537003
  0
VERTEX
  8
0
 62
7
  6
CONTINUOUS
 10
357.8556206195
 20
145.478687262
  0
VERTEX
  8
0
 62
7
  6
CONTINUOUS
 10
357.8489335302
 20
145.7615185184
  0
VERTEX
  8
0
 62
7
  6
CONTINUOUS
 10
357.8419458049
 20
146.0535353541
  0
VERTEX
  8
0
 62
7
  6
CONTINUOUS
 10
357.8346505636
 20
146.354923226
  0
VERTEX
  8
0
 62
7
  6
CONTINUOUS
 10
357.8270418401
 20
146.6658402517
  0
VERTEX
  8
0
 62
7
  6
CONTINUOUS
 10
357.8191135132
 20
146.9864523456
  0
VERTEX
  8
0
 62
7
  6
CONTINUOUS
 10
357.8108595051
 20
147.3169216213
  0
VERTEX
  8
0
 62
7
  6
CONTINUOUS
 10
357.8022735009
 20
147.6574176755
  0
VERTEX
  8
0
 62
7
  6
CONTINUOUS
 10
357.7933491816
 20
148.0081082026
  0
VERTEX
  8
0
 62
7
  6
CONTINUOUS
 10
357.7840799811
 20
148.3691685114
  0
VERTEX
  8
0
 62
7
  6
CONTINUOUS
 10
357.7744593294
 20
148.7407719019
  0
VERTEX
  8
0
 62
7
  6
CONTINUOUS
 10
357.7644803815
 20
149.1231001194
  0
SEQEND
  0
POLYLINE
  8
0
 62
7
  6
CONTINUOUS
 66
1
 70
0
  0
VERTEX
  8
0
 62
7
  6
CONTINUOUS
 10
363.4057250617
 20
138.9622196709
  0
VERTEX
  8
0
 62
7
  6
CONTINUOUS
 10
363.4063333987
 20
139.1642518005
  0
VERTEX
  8
0
 62
7
  6
CONTINUOUS
 10
363.4018385953
 20
139.3662271862
  0
VERTEX
  8
0
 62
7
  6
CONTINUOUS
 10
363.392247591
 20
139.5680180051
  0
VERTEX
  8
0
 62
7
  6
CONTINUOUS
 10
363.3775677056
 20
139.7694964903
  0
VERTEX
  8
0
 62
7
  6
CONTINUOUS
 10
363.3578061825
 20
139.9705348184
  0
VERTEX
  8
0
 62
7
  6
CONTINUOUS
 10
363.3329729699
 20
140.1710054378
  0
VERTEX
  8
0
 62
7
  6
CONTINUOUS
 10
363.3030864769
 20
140.3707816857
  0
VERTEX
  8
0
 62
7
  6
CONTINUOUS
 10
363.2681666684
 20
140.5697370274
  0
VERTEX
  8
0
 62
7
  6
CONTINUOUS
 10
363.2282340534
 20
140.7677450885
  0
VERTEX
  8
0
 62
7
  6
CONTINUOUS
 10
363.1833152737
 20
140.9646808143
  0
VERTEX
  8
0
 62
7
  6
CONTINUOUS
 10
363.1334404264
 20
141.1604198366
  0
VERTEX
  8
0
 62
7
  6
CONTINUOUS
 10
363.0786395939
 20
141.3548379174
  0
VERTEX
  8
0
 62
7
  6
CONTINUOUS
 10
363.0189463724
 20
141.5478112704
  0
VERTEX
  8
0
 62
7
  6
CONTINUOUS
 10
362.954399519
 20
141.7392176549
  0
VERTEX
  8
0
 62
7
  6
CONTINUOUS
 10
362.8850387677
 20
141.928934902
  0
VERTEX
  8
0
 62
7
  6
CONTINUOUS
 10
362.8109093179
 20
142.1168429973
  0
VERTEX
  8
0
 62
7
  6
CONTINUOUS
 10
362.7320596893
 20
142.302823191
  0
VERTEX
  8
0
 62
7
  6
CONTINUOUS
 10
362.6485384761
 20
142.486756687
  0
VERTEX
  8
0
 62
7
  6
CONTINUOUS
 10
362.560396974
 20
142.6685260592
  0
VERTEX
  8
0
 62
7
  6
CONTINUOUS
 10
362.4676911855
 20
142.8480155299
  0
VERTEX
  8
0
 62
7
  6
CONTINUOUS
 10
362.3704776187
 20
143.0251105465
  0
VERTEX
  8
0
 62
7
  6
CONTINUOUS
 10
362.26881919
 20
143.1996999032
  0
VERTEX
  8
0
 62
7
  6
CONTINUOUS
 10
362.1627827841
 20
143.3716748819
  0
VERTEX
  8
0
 62
7
  6
CONTINUOUS
 10
362.0524352911
 20
143.540926687
  0
VERTEX
  8
0
 62
7
  6
CONTINUOUS
 10
361.9378435533
 20
143.7073463871
  0
VERTEX
  8
0
 62
7
  6
CONTINUOUS
 10
361.8190754764
 20
143.8708266918
  0
VERTEX
  8
0
 62
7
  6
CONTINUOUS
 10
361.6962087103
 20
144.0312632645
  0
VERTEX
  8
0
 62
7
  6
CONTINUOUS
 10
361.5693222675
 20
144.188555015
  0
VERTEX
  8
0
 62
7
  6
CONTINUOUS
 10
361.4384983643
 20
144.3425973793
  0
VERTEX
  8
0
 62
7
  6
CONTINUOUS
 10
361.3038215579
 20
144.493289399
  0
VERTEX
  8
0
 62
7
  6
CONTINUOUS
 10
361.1653793838
 20
144.6405321105
  0
VERTEX
  8
0
 62
7
  6
CONTINUOUS
 10
361.0232607949
 20
144.7842279431
  0
VERTEX
  8
0
 62
7
  6
CONTINUOUS
 10
360.877560727
 20
144.9242856236
  0
VERTEX
  8
0
 62
7
  6
CONTINUOUS
 10
360.7283769511
 20
145.0606154507
  0
VERTEX
  8
0
 62
7
  6
CONTINUOUS
 10
360.5758049779
 20
145.1931301215
  0
VERTEX
  8
0
 62
7
  6
CONTINUOUS
 10
360.4199413637
 20
145.3217415607
  0
VERTEX
  8
0
 62
7
  6
CONTINUOUS
 10
360.2608838316
 20
145.4463664175
  0
VERTEX
  8
0
 62
7
  6
CONTINUOUS
 10
360.098737054
 20
145.5669291162
  0
VERTEX
  8
0
 62
7
  6
CONTINUOUS
 10
359.9336066387
 20
145.6833553381
  0
VERTEX
  8
0
 62
7
  6
CONTINUOUS
 10
359.7655983229
 20
145.7955706995
  0
VERTEX
  8
0
 62
7
  6
CONTINUOUS
 10
359.5948173467
 20
145.9035013851
  0
VERTEX
  8
0
 62
7
  6
CONTINUOUS
 10
359.4213728782
 20
146.0070782335
  0
VERTEX
  8
0
 62
7
  6
CONTINUOUS
 10
359.2453755209
 20
146.1062395015
  0
VERTEX
  8
0
 62
7
  6
CONTINUOUS
 10
359.0669367203
 20
146.2009232244
  0
VERTEX
  8
0
 62
7
  6
CONTINUOUS
 10
358.8861675285
 20
146.2910682448
  0
VERTEX
  8
0
 62
7
  6
CONTINUOUS
 10
358.7031820743
 20
146.3766193303
  0
VERTEX
  8
0
 62
7
  6
CONTINUOUS
 10
358.5180961745
 20
146.4575245857
  0
VERTEX
  8
0
 62
7
  6
CONTINUOUS
 10
358.3310250724
 20
146.5337322472
  0
VERTEX
  8
0
 62
7
  6
CONTINUOUS
 10
358.1420872888
 20
146.6051924612
  0
VERTEX
  8
0
 62
7
  6
CONTINUOUS
 10
357.9514019444
 20
146.6718602522
  0
VERTEX
  8
0
 62
7
  6
CONTINUOUS
 10
357.8258951177
 20
146.7122123388
  0
SEQEND
  0
LINE
  8
0
 62
7
  6
CONTINUOUS
 10
368.6787293284
 20
512.9041399821
 11
368.6811180467
 21
513.0756433764
  0
POLYLINE
  8
0
 62
7
  6
CONTINUOUS
 66
1
 70
0
  0
VERTEX
  8
0
 62
7
  6
CONTINUOUS
 10
369.7117554417
 20
553.1290619777
  0
VERTEX
  8
0
 62
7
  6
CONTINUOUS
 10
369.7143551615
 20
553.2902119197
  0
VERTEX
  8
0
 62
7
  6
CONTINUOUS
 10
369.7130446775
 20
553.4920057846
  0
VERTEX
  8
0
 62
7
  6
CONTINUOUS
 10
369.7066598036
 20
553.6936912311
  0
VERTEX
  8
0
 62
7
  6
CONTINUOUS
 10
369.6952034023
 20
553.8951407636
  0
VERTEX
  8
0
 62
7
  6
CONTINUOUS
 10
369.6793158246
 20
554.0895331288
  0
SEQEND
  0
LINE
  8
0
 62
7
  6
CONTINUOUS
 10
359.2254716179
 20
151.9173061826
 11
359.2263438593
 21
151.9564848012
  0
LINE
  8
0
 62
7
  6
CONTINUOUS
 10
369.024998715
 20
526.9042307714
 11
369.7117552145
 21
553.1290589404
  0
LINE
  8
0
 62
7
  6
CONTINUOUS
 10
359.2254716604
 20
151.9173078068
 11
368.6787290177
 21
512.9041350276
  0
POLYLINE
  8
0
 62
7
  6
CONTINUOUS
 66
1
 70
0
  0
VERTEX
  8
0
 62
7
  6
CONTINUOUS
 10
363.3762586673
 20
138.3901080134
  0
VERTEX
  8
0
 62
7
  6
CONTINUOUS
 10
363.3892017605
 20
138.5584969101
  0
VERTEX
  8
0
 62
7
  6
CONTINUOUS
 10
363.4000130323
 20
138.7602588048
  0
VERTEX
  8
0
 62
7
  6
CONTINUOUS
 10
363.4057250617
 20
138.9622196709
  0
SEQEND
  0
LINE
  8
0
 62
7
  6
CONTINUOUS
 10
327.4562504918
 20
-272.1740916732
 11
363.376259013
 21
138.3901079832
  0
POLYLINE
  8
0
 62
7
  6
CONTINUOUS
 66
1
 70
0
  0
VERTEX
  8
0
 62
7
  6
CONTINUOUS
 10
357.7071350403
 20
138.4754904174
  0
VERTEX
  8
0
 62
7
  6
CONTINUOUS
 10
357.7967083605
 20
138.727945883
  0
VERTEX
  8
0
 62
7
  6
CONTINUOUS
 10
357.852163352
 20
138.9349215736
  0
VERTEX
  8
0
 62
7
  6
CONTINUOUS
 10
357.8854628635
 20
139.0991685012
  0
VERTEX
  8
0
 62
7
  6
CONTINUOUS
 10
357.9045773671
 20
139.2222317066
  0
VERTEX
  8
0
 62
7
  6
CONTINUOUS
 10
357.915977524
 20
139.3158059087
  0
VERTEX
  8
0
 62
7
  6
CONTINUOUS
 10
357.9233661777
 20
139.3914900647
  0
VERTEX
  8
0
 62
7
  6
CONTINUOUS
 10
357.928307022
 20
139.453472404
  0
VERTEX
  8
0
 62
7
  6
CONTINUOUS
 10
357.9320183375
 20
139.5097372745
  0
VERTEX
  8
0
 62
7
  6
CONTINUOUS
 10
357.9348336976
 20
139.5609631313
  0
VERTEX
  8
0
 62
7
  6
CONTINUOUS
 10
357.9371068301
 20
139.6103501965
  0
VERTEX
  8
0
 62
7
  6
CONTINUOUS
 10
357.9389619701
 20
139.658414818
  0
VERTEX
  8
0
 62
7
  6
CONTINUOUS
 10
357.9405208917
 20
139.7066162682
  0
VERTEX
  8
0
 62
7
  6
CONTINUOUS
 10
357.9418362154
 20
139.7553380803
  0
VERTEX
  8
0
 62
7
  6
CONTINUOUS
 10
357.942955766
 20
139.8053535155
  0
VERTEX
  8
0
 62
7
  6
CONTINUOUS
 10
357.9439030006
 20
139.8569383913
  0
VERTEX
  8
0
 62
7
  6
CONTINUOUS
 10
357.9446979803
 20
139.9105470646
  0
VERTEX
  8
0
 62
7
  6
CONTINUOUS
 10
357.9453514218
 20
139.9663923157
  0
VERTEX
  8
0
 62
7
  6
CONTINUOUS
 10
357.9458716401
 20
140.0247524227
  0
VERTEX
  8
0
 62
7
  6
CONTINUOUS
 10
357.9462636836
 20
140.0858660073
  0
VERTEX
  8
0
 62
7
  6
CONTINUOUS
 10
357.9465305674
 20
140.150014432
  0
VERTEX
  8
0
 62
7
  6
CONTINUOUS
 10
357.9466730728
 20
140.217393318
  0
SEQEND
  0
LINE
  8
0
 62
7
  6
CONTINUOUS
 10
212.0296688065
 20
570.7639846186
 11
212.6032699383
 21
569.1880284611
  0
POLYLINE
  8
0
 62
7
  6
CONTINUOUS
 66
1
 70
0
  0
VERTEX
  8
0
 62
7
  6
CONTINUOUS
 10
356.2859816181
 20
185.9455459847
  0
VERTEX
  8
0
 62
7
  6
CONTINUOUS
 10
356.4688503573
 20
185.4003891108
  0
VERTEX
  8
0
 62
7
  6
CONTINUOUS
 10
356.5443520754
 20
184.8303516062
  0
SEQEND
  0
LINE
  8
0
 62
7
  6
CONTINUOUS
 10
192.5756472127
 20
573.5329290324
 11
192.9364576977
 21
572.9198319977
  0
POLYLINE
  8
0
 62
7
  6
CONTINUOUS
 66
1
 70
0
  0
VERTEX
  8
0
 62
7
  6
CONTINUOUS
 10
193.1806959995
 20
573.0075047207
  0
VERTEX
  8
0
 62
7
  6
CONTINUOUS
 10
192.8487237896
 20
573.5757108647
  0
VERTEX
  8
0
 62
7
  6
CONTINUOUS
 10
192.5160824147
 20
574.1431391594
  0
VERTEX
  8
0
 62
7
  6
CONTINUOUS
 10
192.1827672151
 20
574.7097974816
  0
VERTEX
  8
0
 62
7
  6
CONTINUOUS
 10
191.8487921701
 20
575.2756622013
  0
VERTEX
  8
0
 62
7
  6
CONTINUOUS
 10
191.5141712591
 20
575.8407096886
  0
VERTEX
  8
0
 62
7
  6
CONTINUOUS
 10
191.1788998224
 20
576.4049478201
  0
SEQEND
  0
POLYLINE
  8
0
 62
7
  6
CONTINUOUS
 66
1
 70
0
  0
VERTEX
  8
0
 62
7
  6
CONTINUOUS
 10
369.6793160799
 20
554.089551305
  0
VERTEX
  8
0
 62
7
  6
CONTINUOUS
 10
369.666924945
 20
554.2200594684
  0
VERTEX
  8
0
 62
7
  6
CONTINUOUS
 10
369.6539956664
 20
554.3534040903
  0
VERTEX
  8
0
 62
7
  6
CONTINUOUS
 10
369.6410882787
 20
554.4836953866
  0
VERTEX
  8
0
 62
7
  6
CONTINUOUS
 10
369.6281955735
 20
554.6110745873
  0
VERTEX
  8
0
 62
7
  6
CONTINUOUS
 10
369.6153124695
 20
554.7356551414
  0
VERTEX
  8
0
 62
7
  6
CONTINUOUS
 10
369.6024333215
 20
554.8575504538
  0
VERTEX
  8
0
 62
7
  6
CONTINUOUS
 10
369.5895523894
 20
554.9768692968
  0
VERTEX
  8
0
 62
7
  6
CONTINUOUS
 10
369.5766632994
 20
555.0937208468
  0
VERTEX
  8
0
 62
7
  6
CONTINUOUS
 10
369.5637596107
 20
555.2082093902
  0
VERTEX
  8
0
 62
7
  6
CONTINUOUS
 10
369.5508340538
 20
555.3204410448
  0
VERTEX
  8
0
 62
7
  6
CONTINUOUS
 10
369.537879298
 20
555.4305168083
  0
VERTEX
  8
0
 62
7
  6
CONTINUOUS
 10
369.5248871329
 20
555.5385395212
  0
VERTEX
  8
0
 62
7
  6
CONTINUOUS
 10
369.5118492872
 20
555.6446067707
  0
VERTEX
  8
0
 62
7
  6
CONTINUOUS
 10
369.4987564029
 20
555.7488192052
  0
VERTEX
  8
0
 62
7
  6
CONTINUOUS
 10
369.4855990881
 20
555.8512717725
  0
VERTEX
  8
0
 62
7
  6
CONTINUOUS
 10
369.4723666377
 20
555.9520636352
  0
VERTEX
  8
0
 62
7
  6
CONTINUOUS
 10
369.4590483345
 20
556.0512877826
  0
VERTEX
  8
0
 62
7
  6
CONTINUOUS
 10
369.4456318782
 20
556.1490426639
  0
VERTEX
  8
0
 62
7
  6
CONTINUOUS
 10
369.4321049704
 20
556.2454200563
  0
VERTEX
  8
0
 62
7
  6
CONTINUOUS
 10
369.4184534296
 20
556.3405183896
  0
VERTEX
  8
0
 62
7
  6
CONTINUOUS
 10
369.404663115
 20
556.4344286724
  0
VERTEX
  8
0
 62
7
  6
CONTINUOUS
 10
369.3907175102
 20
556.5272507895
  0
VERTEX
  8
0
 62
7
  6
CONTINUOUS
 10
369.3766001932
 20
556.619076169
  0
VERTEX
  8
0
 62
7
  6
CONTINUOUS
 10
369.3622918099
 20
556.7100072673
  0
VERTEX
  8
0
 62
7
  6
CONTINUOUS
 10
369.3477730815
 20
556.8001373603
  0
VERTEX
  8
0
 62
7
  6
CONTINUOUS
 10
369.3330213645
 20
556.8895716549
  0
VERTEX
  8
0
 62
7
  6
CONTINUOUS
 10
369.3180125954
 20
556.9784139575
  0
VERTEX
  8
0
 62
7
  6
CONTINUOUS
 10
369.302724426
 20
557.0667482787
  0
VERTEX
  8
0
 62
7
  6
CONTINUOUS
 10
369.2871315829
 20
557.154666391
  0
VERTEX
  8
0
 62
7
  6
CONTINUOUS
 10
369.2712105482
 20
557.2422408909
  0
VERTEX
  8
0
 62
7
  6
CONTINUOUS
 10
369.2549361723
 20
557.3295448742
  0
VERTEX
  8
0
 62
7
  6
CONTINUOUS
 10
369.2382788898
 20
557.4166657495
  0
VERTEX
  8
0
 62
7
  6
CONTINUOUS
 10
369.2212088777
 20
557.5036819589
  0
VERTEX
  8
0
 62
7
  6
CONTINUOUS
 10
369.203690616
 20
557.5906901175
  0
VERTEX
  8
0
 62
7
  6
CONTINUOUS
 10
369.1856883526
 20
557.6777759235
  0
VERTEX
  8
0
 62
7
  6
CONTINUOUS
 10
369.1671593324
 20
557.7650462345
  0
VERTEX
  8
0
 62
7
  6
CONTINUOUS
 10
369.1480605026
 20
557.852595144
  0
VERTEX
  8
0
 62
7
  6
CONTINUOUS
 10
369.1283402461
 20
557.9405410616
  0
VERTEX
  8
0
 62
7
  6
CONTINUOUS
 10
369.1079465797
 20
558.0289873615
  0
VERTEX
  8
0
 62
7
  6
CONTINUOUS
 10
369.086816859
 20
558.1180660437
  0
VERTEX
  8
0
 62
7
  6
CONTINUOUS
 10
369.0648880416
 20
558.2078910668
  0
VERTEX
  8
0
 62
7
  6
CONTINUOUS
 10
369.04208364
 20
558.2986105546
  0
VERTEX
  8
0
 62
7
  6
CONTINUOUS
 10
369.0183266592
 20
558.3903511366
  0
VERTEX
  8
0
 62
7
  6
CONTINUOUS
 10
368.993523426
 20
558.4832789006
  0
VERTEX
  8
0
 62
7
  6
CONTINUOUS
 10
368.9675795738
 20
558.5775344311
  0
VERTEX
  8
0
 62
7
  6
CONTINUOUS
 10
368.9403797948
 20
558.6733045136
  0
VERTEX
  8
0
 62
7
  6
CONTINUOUS
 10
368.9118054922
 20
558.7707533662
  0
VERTEX
  8
0
 62
7
  6
CONTINUOUS
 10
368.8817211644
 20
558.8700674147
  0
VERTEX
  8
0
 62
7
  6
CONTINUOUS
 10
368.8499821592
 20
558.971424348
  0
VERTEX
  8
0
 62
7
  6
CONTINUOUS
 10
368.8164353702
 20
559.0749889464
  0
VERTEX
  8
0
 62
7
  6
CONTINUOUS
 10
368.7809183799
 20
559.1809141641
  0
VERTEX
  8
0
 62
7
  6
CONTINUOUS
 10
368.7432432551
 20
559.2893853531
  0
VERTEX
  8
0
 62
7
  6
CONTINUOUS
 10
368.703214685
 20
559.4005612788
  0
VERTEX
  8
0
 62
7
  6
CONTINUOUS
 10
368.660606773
 20
559.5146352627
  0
VERTEX
  8
0
 62
7
  6
CONTINUOUS
 10
368.6151838762
 20
559.6317714734
  0
VERTEX
  8
0
 62
7
  6
CONTINUOUS
 10
368.5666775209
 20
559.7521609316
  0
VERTEX
  8
0
 62
7
  6
CONTINUOUS
 10
368.514805431
 20
559.8759661401
  0
VERTEX
  8
0
 62
7
  6
CONTINUOUS
 10
368.4592529298
 20
560.0033616687
  0
VERTEX
  8
0
 62
7
  6
CONTINUOUS
 10
368.399685369
 20
560.1344979801
  0
VERTEX
  8
0
 62
7
  6
CONTINUOUS
 10
368.3357423642
 20
560.2695102727
  0
VERTEX
  8
0
 62
7
  6
CONTINUOUS
 10
368.2670269134
 20
560.408534824
  0
VERTEX
  8
0
 62
7
  6
CONTINUOUS
 10
368.1931627743
 20
560.5515909176
  0
VERTEX
  8
0
 62
7
  6
CONTINUOUS
 10
368.1137165082
 20
560.6987374057
  0
VERTEX
  8
0
 62
7
  6
CONTINUOUS
 10
368.0283201265
 20
560.8498432051
  0
VERTEX
  8
0
 62
7
  6
CONTINUOUS
 10
367.9365410888
 20
561.0048344487
  0
VERTEX
  8
0
 62
7
  6
CONTINUOUS
 10
367.8380323322
 20
561.1634383604
  0
VERTEX
  8
0
 62
7
  6
CONTINUOUS
 10
367.7323917737
 20
561.3254312539
  0
VERTEX
  8
0
 62
7
  6
CONTINUOUS
 10
367.6192981744
 20
561.4904280287
  0
VERTEX
  8
0
 62
7
  6
CONTINUOUS
 10
367.4984029399
 20
561.6580607061
  0
VERTEX
  8
0
 62
7
  6
CONTINUOUS
 10
367.3693916034
 20
561.8278911959
  0
VERTEX
  8
0
 62
7
  6
CONTINUOUS
 10
367.2319175016
 20
561.9995043598
  0
VERTEX
  8
0
 62
7
  6
CONTINUOUS
 10
367.0857781275
 20
562.1722944122
  0
VERTEX
  8
0
 62
7
  6
CONTINUOUS
 10
366.9307222356
 20
562.3457199376
  0
VERTEX
  8
0
 62
7
  6
CONTINUOUS
 10
366.7666840906
 20
562.5190451703
  0
VERTEX
  8
0
 62
7
  6
CONTINUOUS
 10
366.5935948872
 20
562.691574505
  0
VERTEX
  8
0
 62
7
  6
CONTINUOUS
 10
366.4114410801
 20
562.8625922168
  0
VERTEX
  8
0
 62
7
  6
CONTINUOUS
 10
366.2202664379
 20
563.031369925
  0
VERTEX
  8
0
 62
7
  6
CONTINUOUS
 10
366.0200939656
 20
563.1972378353
  0
VERTEX
  8
0
 62
7
  6
CONTINUOUS
 10
365.8110068705
 20
563.3595113811
  0
VERTEX
  8
0
 62
7
  6
CONTINUOUS
 10
365.5931316947
 20
563.517511782
  0
VERTEX
  8
0
 62
7
  6
CONTINUOUS
 10
365.3666868151
 20
563.6705382417
  0
VERTEX
  8
0
 62
7
  6
CONTINUOUS
 10
365.1317543968
 20
563.8180207371
  0
VERTEX
  8
0
 62
7
  6
CONTINUOUS
 10
364.8885395237
 20
563.9593366347
  0
VERTEX
  8
0
 62
7
  6
CONTINUOUS
 10
364.6371238259
 20
564.0939597057
  0
VERTEX
  8
0
 62
7
  6
CONTINUOUS
 10
364.3776824429
 20
564.2213251592
  0
VERTEX
  8
0
 62
7
  6
CONTINUOUS
 10
364.1103409365
 20
564.3409063469
  0
VERTEX
  8
0
 62
7
  6
CONTINUOUS
 10
363.8353084689
 20
564.4521481604
  0
VERTEX
  8
0
 62
7
  6
CONTINUOUS
 10
363.5527039573
 20
564.5545394245
  0
VERTEX
  8
0
 62
7
  6
CONTINUOUS
 10
363.2627311565
 20
564.6475367998
  0
VERTEX
  8
0
 62
7
  6
CONTINUOUS
 10
362.9655331634
 20
564.7306154434
  0
VERTEX
  8
0
 62
7
  6
CONTINUOUS
 10
362.6613038015
 20
564.8032274541
  0
VERTEX
  8
0
 62
7
  6
CONTINUOUS
 10
362.3502926578
 20
564.8648063507
  0
VERTEX
  8
0
 62
7
  6
CONTINUOUS
 10
362.0327380188
 20
564.9147822468
  0
VERTEX
  8
0
 62
7
  6
CONTINUOUS
 10
361.7398562755
 20
564.9495280244
  0
SEQEND
  0
POLYLINE
  8
0
 62
7
  6
CONTINUOUS
 66
1
 70
0
  0
VERTEX
  8
0
 62
7
  6
CONTINUOUS
 10
190.7581452552
 20
576.5823956525
  0
VERTEX
  8
0
 62
7
  6
CONTINUOUS
 10
191.1234299266
 20
575.974653178
  0
VERTEX
  8
0
 62
7
  6
CONTINUOUS
 10
191.4878236141
 20
575.3658333447
  0
VERTEX
  8
0
 62
7
  6
CONTINUOUS
 10
191.8513282442
 20
574.7559329292
  0
VERTEX
  8
0
 62
7
  6
CONTINUOUS
 10
192.213938037
 20
574.1449616018
  0
VERTEX
  8
0
 62
7
  6
CONTINUOUS
 10
192.5756472127
 20
573.5329290324
  0
SEQEND
  0
LINE
  8
0
 62
7
  6
CONTINUOUS
 10
202.7840930361
 20
576.4049806084
 11
205.4174088921
 21
573.0074727554
  0
POLYLINE
  8
0
 62
7
  6
CONTINUOUS
 66
1
 70
0
  0
VERTEX
  8
0
 62
7
  6
CONTINUOUS
 10
185.0518691239
 20
577.9774018284
  0
VERTEX
  8
0
 62
7
  6
CONTINUOUS
 10
185.0302778339
 20
577.9969034114
  0
VERTEX
  8
0
 62
7
  6
CONTINUOUS
 10
185.0156857404
 20
578.0355917389
  0
SEQEND
  0
LINE
  8
0
 62
7
  6
CONTINUOUS
 10
6.695325403
 20
520.0852008474
 11
6.4871766413
 21
520.0769053693
  0
POLYLINE
  8
0
 62
7
  6
CONTINUOUS
 66
1
 70
0
  0
VERTEX
  8
0
 62
7
  6
CONTINUOUS
 10
362.02729254
 20
520.0873771978
  0
VERTEX
  8
0
 62
7
  6
CONTINUOUS
 10
362.2133550573
 20
520.0898506824
  0
VERTEX
  8
0
 62
7
  6
CONTINUOUS
 10
362.4399558663
 20
520.0995511752
  0
VERTEX
  8
0
 62
7
  6
CONTINUOUS
 10
362.6661470299
 20
520.1165917035
  0
VERTEX
  8
0
 62
7
  6
CONTINUOUS
 10
362.8916874493
 20
520.1409555172
  0
VERTEX
  8
0
 62
7
  6
CONTINUOUS
 10
363.1163382154
 20
520.1726133509
  0
VERTEX
  8
0
 62
7
  6
CONTINUOUS
 10
363.3398604012
 20
520.2115349731
  0
VERTEX
  8
0
 62
7
  6
CONTINUOUS
 10
363.5620154592
 20
520.2576875864
  0
VERTEX
  8
0
 62
7
  6
CONTINUOUS
 10
363.7825685618
 20
520.3110196288
  0
VERTEX
  8
0
 62
7
  6
CONTINUOUS
 10
364.0012866728
 20
520.3714701502
  0
VERTEX
  8
0
 62
7
  6
CONTINUOUS
 10
364.2179367784
 20
520.438977823
  0
VERTEX
  8
0
 62
7
  6
CONTINUOUS
 10
364.4322873588
 20
520.513476471
  0
VERTEX
  8
0
 62
7
  6
CONTINUOUS
 10
364.6441114071
 20
520.594885147
  0
VERTEX
  8
0
 62
7
  6
CONTINUOUS
 10
364.8531839957
 20
520.6831172594
  0
VERTEX
  8
0
 62
7
  6
CONTINUOUS
 10
365.0592844363
 20
520.7780763019
  0
VERTEX
  8
0
 62
7
  6
CONTINUOUS
 10
365.262192859
 20
520.8796627769
  0
VERTEX
  8
0
 62
7
  6
CONTINUOUS
 10
365.461695022
 20
520.9877700182
  0
VERTEX
  8
0
 62
7
  6
CONTINUOUS
 10
365.6575801018
 20
521.1022796376
  0
VERTEX
  8
0
 62
7
  6
CONTINUOUS
 10
365.8496439119
 20
521.22307551
  0
VERTEX
  8
0
 62
7
  6
CONTINUOUS
 10
366.0376867561
 20
521.3500306114
  0
VERTEX
  8
0
 62
7
  6
CONTINUOUS
 10
366.2215168241
 20
521.4830085177
  0
VERTEX
  8
0
 62
7
  6
CONTINUOUS
 10
366.4009420879
 20
521.6218724041
  0
VERTEX
  8
0
 62
7
  6
CONTINUOUS
 10
366.5757718914
 20
521.7664837724
  0
VERTEX
  8
0
 62
7
  6
CONTINUOUS
 10
366.7458276289
 20
521.9166900165
  0
VERTEX
  8
0
 62
7
  6
CONTINUOUS
 10
366.910934511
 20
522.0723308497
  0
VERTEX
  8
0
 62
7
  6
CONTINUOUS
 10
367.0709193034
 20
522.2332477853
  0
VERTEX
  8
0
 62
7
  6
CONTINUOUS
 10
367.2256068962
 20
522.399273112
  0
VERTEX
  8
0
 62
7
  6
CONTINUOUS
 10
367.3748351492
 20
522.5702297645
  0
VERTEX
  8
0
 62
7
  6
CONTINUOUS
 10
367.5184447109
 20
522.7459352594
  0
VERTEX
  8
0
 62
7
  6
CONTINUOUS
 10
367.6562837873
 20
522.9262013575
  0
VERTEX
  8
0
 62
7
  6
CONTINUOUS
 10
367.7882026998
 20
523.1108380886
  0
VERTEX
  8
0
 62
7
  6
CONTINUOUS
 10
367.9140613345
 20
523.2996484378
  0
VERTEX
  8
0
 62
7
  6
CONTINUOUS
 10
368.0337325937
 20
523.4924282089
  0
VERTEX
  8
0
 62
7
  6
CONTINUOUS
 10
368.1470895407
 20
523.6889710452
  0
VERTEX
  8
0
 62
7
  6
CONTINUOUS
 10
368.2540095625
 20
523.8890746447
  0
VERTEX
  8
0
 62
7
  6
CONTINUOUS
 10
368.3543815031
 20
524.0925282112
  0
VERTEX
  8
0
 62
7
  6
CONTINUOUS
 10
368.4481023341
 20
524.2991180111
  0
VERTEX
  8
0
 62
7
  6
CONTINUOUS
 10
368.5350771931
 20
524.5086265981
  0
VERTEX
  8
0
 62
7
  6
CONTINUOUS
 10
368.6152166627
 20
524.7208343124
  0
VERTEX
  8
0
 62
7
  6
CONTINUOUS
 10
368.688434476
 20
524.9355203328
  0
VERTEX
  8
0
 62
7
  6
CONTINUOUS
 10
368.7546559016
 20
525.1524594791
  0
VERTEX
  8
0
 62
7
  6
CONTINUOUS
 10
368.8138112957
 20
525.3714249465
  0
VERTEX
  8
0
 62
7
  6
CONTINUOUS
 10
368.8658422427
 20
525.5921869761
  0
VERTEX
  8
0
 62
7
  6
CONTINUOUS
 10
368.9106935194
 20
525.8145150035
  0
VERTEX
  8
0
 62
7
  6
CONTINUOUS
 10
368.9483168861
 20
526.0381769747
  0
VERTEX
  8
0
 62
7
  6
CONTINUOUS
 10
368.9786750657
 20
526.2629385257
  0
VERTEX
  8
0
 62
7
  6
CONTINUOUS
 10
369.0017329986
 20
526.4885649877
  0
VERTEX
  8
0
 62
7
  6
CONTINUOUS
 10
369.0174696935
 20
526.7148208946
  0
VERTEX
  8
0
 62
7
  6
CONTINUOUS
 10
369.0249962139
 20
526.9042308368
  0
SEQEND
  0
LINE
  8
0
 62
7
  6
CONTINUOUS
 10
6.8698612007
 20
520.08737818
 11
6.695325403
 21
520.0852008474
  0
LINE
  8
0
 62
7
  6
CONTINUOUS
 10
362.02729254
 20
520.087377689
 11
6.5234915124
 21
520.087377689
  0
POLYLINE
  8
0
 62
7
  6
CONTINUOUS
 66
1
 70
0
  0
VERTEX
  8
0
 62
7
  6
CONTINUOUS
 10
362.0635767888
 20
520.0769070442
  0
VERTEX
  8
0
 62
7
  6
CONTINUOUS
 10
361.8554266992
 20
520.0852016444
  0
VERTEX
  8
0
 62
7
  6
CONTINUOUS
 10
361.6809228518
 20
520.0873781802
  0
SEQEND
  0
POLYLINE
  8
0
 62
7
  6
CONTINUOUS
 66
1
 70
0
  0
VERTEX
  8
0
 62
7
  6
CONTINUOUS
 10
6.4871766413
 20
520.0769053693
  0
VERTEX
  8
0
 62
7
  6
CONTINUOUS
 10
6.2793532927
 20
520.0624219018
  0
VERTEX
  8
0
 62
7
  6
CONTINUOUS
 10
6.0720428809
 20
520.0417637972
  0
VERTEX
  8
0
 62
7
  6
CONTINUOUS
 10
5.8654317933
 20
520.0149447043
  0
VERTEX
  8
0
 62
7
  6
CONTINUOUS
 10
5.659705632
 20
519.9819847502
  0
VERTEX
  8
0
 62
7
  6
CONTINUOUS
 10
5.455048445
 20
519.9429169313
  0
VERTEX
  8
0
 62
7
  6
CONTINUOUS
 10
5.251644064
 20
519.8977760464
  0
VERTEX
  8
0
 62
7
  6
CONTINUOUS
 10
5.0496754096
 20
519.8466005388
  0
VERTEX
  8
0
 62
7
  6
CONTINUOUS
 10
4.8493226507
 20
519.7894399007
  0
VERTEX
  8
0
 62
7
  6
CONTINUOUS
 10
4.6507657876
 20
519.7263461876
  0
VERTEX
  8
0
 62
7
  6
CONTINUOUS
 10
4.4541822133
 20
519.6573729744
  0
VERTEX
  8
0
 62
7
  6
CONTINUOUS
 10
4.2597484843
 20
519.5825845751
  0
VERTEX
  8
0
 62
7
  6
CONTINUOUS
 10
4.067632493
 20
519.5020457211
  0
VERTEX
  8
0
 62
7
  6
CONTINUOUS
 10
3.8780019699
 20
519.4158276248
  0
VERTEX
  8
0
 62
7
  6
CONTINUOUS
 10
3.6910197938
 20
519.3240073623
  0
VERTEX
  8
0
 62
7
  6
CONTINUOUS
 10
3.5068485936
 20
519.2266622546
  0
VERTEX
  8
0
 62
7
  6
CONTINUOUS
 10
3.3256505415
 20
519.1238763542
  0
VERTEX
  8
0
 62
7
  6
CONTINUOUS
 10
3.147582772
 20
519.0157368095
  0
VERTEX
  8
0
 62
7
  6
CONTINUOUS
 10
2.9728077865
 20
518.9023415207
  0
VERTEX
  8
0
 62
7
  6
CONTINUOUS
 10
2.8014797142
 20
518.7837956881
  0
VERTEX
  8
0
 62
7
  6
CONTINUOUS
 10
2.6337541237
 20
518.6602070537
  0
VERTEX
  8
0
 62
7
  6
CONTINUOUS
 10
2.4697860395
 20
518.531683764
  0
VERTEX
  8
0
 62
7
  6
CONTINUOUS
 10
2.3097236687
 20
518.3983396817
  0
VERTEX
  8
0
 62
7
  6
CONTINUOUS
 10
2.1537080447
 20
518.2603012777
  0
VERTEX
  8
0
 62
7
  6
CONTINUOUS
 10
2.001873749
 20
518.1176914274
  0
VERTEX
  8
0
 62
7
  6
CONTINUOUS
 10
1.8543570421
 20
517.9706344384
  0
VERTEX
  8
0
 62
7
  6
CONTINUOUS
 10
1.7112884532
 20
517.8192577425
  0
VERTEX
  8
0
 62
7
  6
CONTINUOUS
 10
1.5727911097
 20
517.6636969647
  0
VERTEX
  8
0
 62
7
  6
CONTINUOUS
 10
1.4389872623
 20
517.5040882083
  0
VERTEX
  8
0
 62
7
  6
CONTINUOUS
 10
1.3099958909
 20
517.3405706822
  0
VERTEX
  8
0
 62
7
  6
CONTINUOUS
 10
1.1859250856
 20
517.1732903142
  0
VERTEX
  8
0
 62
7
  6
CONTINUOUS
 10
1.0668817317
 20
517.0023946128
  0
VERTEX
  8
0
 62
7
  6
CONTINUOUS
 10
0.9529726678
 20
516.828030528
  0
VERTEX
  8
0
 62
7
  6
CONTINUOUS
 10
0.8443010264
 20
516.6503471122
  0
VERTEX
  8
0
 62
7
  6
CONTINUOUS
 10
0.7409598799
 20
516.4695021187
  0
VERTEX
  8
0
 62
7
  6
CONTINUOUS
 10
0.6430394375
 20
516.2856526844
  0
VERTEX
  8
0
 62
7
  6
CONTINUOUS
 10
0.5506311088
 20
516.0989631068
  0
VERTEX
  8
0
 62
7
  6
CONTINUOUS
 10
0.4638148901
 20
515.9096008978
  0
VERTEX
  8
0
 62
7
  6
CONTINUOUS
 10
0.3826683298
 20
515.7177367702
  0
VERTEX
  8
0
 62
7
  6
CONTINUOUS
 10
0.3072675655
 20
515.5235419592
  0
VERTEX
  8
0
 62
7
  6
CONTINUOUS
 10
0.2376798965
 20
515.3271900434
  0
VERTEX
  8
0
 62
7
  6
CONTINUOUS
 10
0.1739690913
 20
515.128857895
  0
VERTEX
  8
0
 62
7
  6
CONTINUOUS
 10
0.1161908318
 20
514.9287192477
  0
VERTEX
  8
0
 62
7
  6
CONTINUOUS
 10
0.0643908453
 20
514.7269524016
  0
VERTEX
  8
0
 62
7
  6
CONTINUOUS
 10
0.0186136331
 20
514.5237346839
  0
VERTEX
  8
0
 62
7
  6
CONTINUOUS
 10
-0.0210961335
 20
514.3192437146
  0
VERTEX
  8
0
 62
7
  6
CONTINUOUS
 10
-0.0547004927
 20
514.1136584463
  0
VERTEX
  8
0
 62
7
  6
CONTINUOUS
 10
-0.0821734057
 20
513.9071603037
  0
VERTEX
  8
0
 62
7
  6
CONTINUOUS
 10
-0.1034899073
 20
513.6999309565
  0
VERTEX
  8
0
 62
7
  6
CONTINUOUS
 10
-0.1186288395
 20
513.4921523689
  0
VERTEX
  8
0
 62
7
  6
CONTINUOUS
 10
-0.127579792
 20
513.2840073864
  0
SEQEND
  0
LINE
  8
0
 62
7
  6
CONTINUOUS
 10
191.1788998224
 20
576.4049478201
 11
190.7922151879
 21
576.5257117925
  0
LINE
  8
0
 62
7
  6
CONTINUOUS
 10
162.8124066592
 20
572.9198319977
 11
157.1973998335
 21
571.3866489874
  0
POLYLINE
  8
0
 62
7
  6
CONTINUOUS
 66
1
 70
0
  0
VERTEX
  8
0
 62
7
  6
CONTINUOUS
 10
6.8109280459
 20
564.9495280518
  0
VERTEX
  8
0
 62
7
  6
CONTINUOUS
 10
6.5197597733
 20
564.9150170532
  0
VERTEX
  8
0
 62
7
  6
CONTINUOUS
 10
6.2021622652
 20
564.8651031807
  0
VERTEX
  8
0
 62
7
  6
CONTINUOUS
 10
5.8911022427
 20
564.8035815064
  0
VERTEX
  8
0
 62
7
  6
CONTINUOUS
 10
5.5868193281
 20
564.7310217318
  0
VERTEX
  8
0
 62
7
  6
CONTINUOUS
 10
5.28956413
 20
564.6479902344
  0
VERTEX
  8
0
 62
7
  6
CONTINUOUS
 10
4.9995313758
 20
564.5550349111
  0
VERTEX
  8
0
 62
7
  6
CONTINUOUS
 10
4.7168650901
 20
564.4526807293
  0
VERTEX
  8
0
 62
7
  6
CONTINUOUS
 10
4.441769815
 20
564.3414711972
  0
VERTEX
  8
0
 62
7
  6
CONTINUOUS
 10
4.1743652835
 20
564.2219177873
  0
VERTEX
  8
0
 62
7
  6
CONTINUOUS
 10
3.9148612681
 20
564.0945758883
  0
VERTEX
  8
0
 62
7
  6
CONTINUOUS
 10
3.6633839854
 20
563.9599725488
  0
VERTEX
  8
0
 62
7
  6
CONTINUOUS
 10
3.4201090003
 20
563.8186729035
  0
VERTEX
  8
0
 62
7
  6
CONTINUOUS
 10
3.1851184391
 20
563.671203647
  0
VERTEX
  8
0
 62
7
  6
CONTINUOUS
 10
2.958617578
 20
563.5181877167
  0
VERTEX
  8
0
 62
7
  6
CONTINUOUS
 10
2.7406889772
 20
563.3601956409
  0
VERTEX
  8
0
 62
7
  6
CONTINUOUS
 10
2.531550707
 20
563.1979281986
  0
VERTEX
  8
0
 62
7
  6
CONTINUOUS
 10
2.3313292052
 20
563.0320642723
  0
VERTEX
  8
0
 62
7
  6
CONTINUOUS
 10
2.1401074767
 20
562.8632884185
  0
VERTEX
  8
0
 62
7
  6
CONTINUOUS
 10
1.9579085204
 20
562.6922705701
  0
VERTEX
  8
0
 62
7
  6
CONTINUOUS
 10
1.784775471
 20
562.5197385857
  0
VERTEX
  8
0
 62
7
  6
CONTINUOUS
 10
1.620694316
 20
562.346407699
  0
VERTEX
  8
0
 62
7
  6
CONTINUOUS
 10
1.4655960299
 20
562.1729731899
  0
VERTEX
  8
0
 62
7
  6
CONTINUOUS
 10
1.3194145278
 20
562.0001702639
  0
VERTEX
  8
0
 62
7
  6
CONTINUOUS
 10
1.1818986848
 20
561.8285403137
  0
VERTEX
  8
0
 62
7
  6
CONTINUOUS
 10
1.0528458821
 20
561.6586887896
  0
VERTEX
  8
0
 62
7
  6
CONTINUOUS
 10
0.9319098058
 20
561.4910311413
  0
VERTEX
  8
0
 62
7
  6
CONTINUOUS
 10
0.8187759153
 20
561.3260052205
  0
VERTEX
  8
0
 62
7
  6
CONTINUOUS
 10
0.7130965798
 20
561.1639803794
  0
VERTEX
  8
0
 62
7
  6
CONTINUOUS
 10
0.6145511643
 20
561.0053427909
  0
VERTEX
  8
0
 62
7
  6
CONTINUOUS
 10
0.5227380111
 20
560.8503171348
  0
VERTEX
  8
0
 62
7
  6
CONTINUOUS
 10
0.4373105425
 20
560.699177441
  0
VERTEX
  8
0
 62
7
  6
CONTINUOUS
 10
0.3578361912
 20
560.5519980779
  0
VERTEX
  8
0
 62
7
  6
CONTINUOUS
 10
0.2839471819
 20
560.4089111217
  0
VERTEX
  8
0
 62
7
  6
CONTINUOUS
 10
0.2152096572
 20
560.2698575384
  0
VERTEX
  8
0
 62
7
  6
CONTINUOUS
 10
0.1512471606
 20
560.1348181838
  0
VERTEX
  8
0
 62
7
  6
CONTINUOUS
 10
0.0916623859
 20
560.0036566817
  0
VERTEX
  8
0
 62
7
  6
CONTINUOUS
 10
0.0360946901
 20
559.8762377557
  0
VERTEX
  8
0
 62
7
  6
CONTINUOUS
 10
-0.0157907916
 20
559.7524108956
  0
VERTEX
  8
0
 62
7
  6
CONTINUOUS
 10
-0.0643089416
 20
559.6320014508
  0
VERTEX
  8
0
 62
7
  6
CONTINUOUS
 10
-0.1097422123
 20
559.5148468527
  0
VERTEX
  8
0
 62
7
  6
CONTINUOUS
 10
-0.1523592441
 20
559.4007559903
  0
VERTEX
  8
0
 62
7
  6
CONTINUOUS
 10
-0.1923958183
 20
559.2895646298
  0
VERTEX
  8
0
 62
7
  6
CONTINUOUS
 10
-0.2300779633
 20
559.1810793616
  0
VERTEX
  8
0
 62
7
  6
CONTINUOUS
 10
-0.2656010975
 20
559.0751413615
  0
VERTEX
  8
0
 62
7
  6
CONTINUOUS
 10
-0.2991532504
 20
558.9715652183
  0
VERTEX
  8
0
 62
7
  6
CONTINUOUS
 10
-0.3308969411
 20
558.8701978697
  0
VERTEX
  8
0
 62
7
  6
CONTINUOUS
 10
-0.3609853534
 20
558.7708744703
  0
VERTEX
  8
0
 62
7
  6
CONTINUOUS
 10
-0.3895632523
 20
558.673417119
  0
VERTEX
  8
0
 62
7
  6
CONTINUOUS
 10
-0.4167662497
 20
558.5776391413
  0
VERTEX
  8
0
 62
7
  6
CONTINUOUS
 10
-0.4427129725
 20
558.4833763201
  0
VERTEX
  8
0
 62
7
  6
CONTINUOUS
 10
-0.4675187756
 20
558.3904417969
  0
VERTEX
  8
0
 62
7
  6
CONTINUOUS
 10
-0.491278059
 20
558.2986949479
  0
VERTEX
  8
0
 62
7
  6
CONTINUOUS
 10
-0.5140845299
 20
558.2079696309
  0
VERTEX
  8
0
 62
7
  6
CONTINUOUS
 10
-0.5360152088
 20
558.1181391832
  0
VERTEX
  8
0
 62
7
  6
CONTINUOUS
 10
-0.5571466099
 20
558.0290554324
  0
VERTEX
  8
0
 62
7
  6
CONTINUOUS
 10
-0.5775417912
 20
557.9406044085
  0
VERTEX
  8
0
 62
7
  6
CONTINUOUS
 10
-0.5972634141
 20
557.8526540882
  0
VERTEX
  8
0
 62
7
  6
CONTINUOUS
 10
-0.6163634755
 20
557.7651010826
  0
VERTEX
  8
0
 62
7
  6
CONTINUOUS
 10
-0.6348936052
 20
557.6778269666
  0
VERTEX
  8
0
 62
7
  6
CONTINUOUS
 10
-0.6528968687
 20
557.5907376257
  0
VERTEX
  8
0
 62
7
  6
CONTINUOUS
 10
-0.6704160331
 20
557.5037261803
  0
VERTEX
  8
0
 62
7
  6
CONTINUOUS
 10
-0.6874868595
 20
557.4167069193
  0
VERTEX
  8
0
 62
7
  6
CONTINUOUS
 10
-0.7041448771
 20
557.3295832105
  0
VERTEX
  8
0
 62
7
  6
CONTINUOUS
 10
-0.7204199157
 20
557.242276602
  0
VERTEX
  8
0
 62
7
  6
CONTINUOUS
 10
-0.7363415474
 20
557.1546996762
  0
VERTEX
  8
0
 62
7
  6
CONTINUOUS
 10
-0.7519349289
 20
557.0667793197
  0
VERTEX
  8
0
 62
7
  6
CONTINUOUS
 10
-0.7672235817
 20
556.9784429377
  0
VERTEX
  8
0
 62
7
  6
CONTINUOUS
 10
-0.7822327937
 20
556.8895986902
  0
VERTEX
  8
0
 62
7
  6
CONTINUOUS
 10
-0.796984928
 20
556.8001624914
  0
VERTEX
  8
0
 62
7
  6
CONTINUOUS
 10
-0.8115040477
 20
556.7100305453
  0
VERTEX
  8
0
 62
7
  6
CONTINUOUS
 10
-0.8258128004
 20
556.6190976283
  0
VERTEX
  8
0
 62
7
  6
CONTINUOUS
 10
-0.8399304656
 20
556.5272704672
  0
VERTEX
  8
0
 62
7
  6
CONTINUOUS
 10
-0.8538763993
 20
556.4344465988
  0
VERTEX
  8
0
 62
7
  6
CONTINUOUS
 10
-0.8676670227
 20
556.3405346057
  0
VERTEX
  8
0
 62
7
  6
CONTINUOUS
 10
-0.881318853
 20
556.245434605
  0
VERTEX
  8
0
 62
7
  6
CONTINUOUS
 10
-0.8948460289
 20
556.1490556089
  0
VERTEX
  8
0
 62
7
  6
CONTINUOUS
 10
-0.90826273
 20
556.0512992125
  0
VERTEX
  8
0
 62
7
  6
CONTINUOUS
 10
-0.9215812569
 20
555.9520736309
  0
VERTEX
  8
0
 62
7
  6
CONTINUOUS
 10
-0.9348139115
 20
555.8512804148
  0
VERTEX
  8
0
 62
7
  6
CONTINUOUS
 10
-0.9479714116
 20
555.7488265763
  0
VERTEX
  8
0
 62
7
  6
CONTINUOUS
 10
-0.9610644638
 20
555.6446129528
  0
VERTEX
  8
0
 62
7
  6
CONTINUOUS
 10
-0.9741024604
 20
555.5385445994
  0
VERTEX
  8
0
 62
7
  6
CONTINUOUS
 10
-0.9870947602
 20
555.430520869
  0
VERTEX
  8
0
 62
7
  6
CONTINUOUS
 10
-1.0000496349
 20
555.320444178
  0
VERTEX
  8
0
 62
7
  6
CONTINUOUS
 10
-1.0129752956
 20
555.2082116875
  0
VERTEX
  8
0
 62
7
  6
CONTINUOUS
 10
-1.0258790727
 20
555.0937224061
  0
VERTEX
  8
0
 62
7
  6
CONTINUOUS
 10
-1.038768237
 20
554.9768702133
  0
VERTEX
  8
0
 62
7
  6
CONTINUOUS
 10
-1.0516492267
 20
554.8575508502
  0
VERTEX
  8
0
 62
7
  6
CONTINUOUS
 10
-1.064528414
 20
554.7356551637
  0
VERTEX
  8
0
 62
7
  6
CONTINUOUS
 10
-1.0774115401
 20
554.6110743846
  0
VERTEX
  8
0
 62
7
  6
CONTINUOUS
 10
-1.0903042504
 20
554.4836951176
  0
VERTEX
  8
0
 62
7
  6
CONTINUOUS
 10
-1.1032116273
 20
554.3534039166
  0
VERTEX
  8
0
 62
7
  6
CONTINUOUS
 10
-1.1161408791
 20
554.220059561
  0
VERTEX
  8
0
 62
7
  6
CONTINUOUS
 10
-1.1285319737
 20
554.0895518245
  0
SEQEND
  0
POLYLINE
  8
0
 62
7
  6
CONTINUOUS
 66
1
 70
0
  0
VERTEX
  8
0
 62
7
  6
CONTINUOUS
 10
271.7039658358
 20
569.1880285385
  0
VERTEX
  8
0
 62
7
  6
CONTINUOUS
 10
96.8468184578
 20
569.1880285383
  0
VERTEX
  8
0
 62
7
  6
CONTINUOUS
 10
90.0460200308
 20
569.1865997568
  0
VERTEX
  8
0
 62
7
  6
CONTINUOUS
 10
83.7388011272
 20
569.1516427512
  0
VERTEX
  8
0
 62
7
  6
CONTINUOUS
 10
77.9441596408
 20
569.0782855528
  0
VERTEX
  8
0
 62
7
  6
CONTINUOUS
 10
72.4044651179
 20
568.9712201986
  0
VERTEX
  8
0
 62
7
  6
CONTINUOUS
 10
66.8616121366
 20
568.8279440988
  0
VERTEX
  8
0
 62
7
  6
CONTINUOUS
 10
61.337181973
 20
568.6491465146
  0
VERTEX
  8
0
 62
7
  6
CONTINUOUS
 10
55.7479302361
 20
568.4316540561
  0
VERTEX
  8
0
 62
7
  6
CONTINUOUS
 10
50.150424577
 20
568.1769203542
  0
VERTEX
  8
0
 62
7
  6
CONTINUOUS
 10
44.580698542
 20
567.8867469201
  0
VERTEX
  8
0
 62
7
  6
CONTINUOUS
 10
39.0169821091
 20
567.5602959352
  0
VERTEX
  8
0
 62
7
  6
CONTINUOUS
 10
33.4470223884
 20
567.1968025461
  0
VERTEX
  8
0
 62
7
  6
CONTINUOUS
 10
27.8783611884
 20
566.7966600511
  0
VERTEX
  8
0
 62
7
  6
CONTINUOUS
 10
22.3151460261
 20
566.3601769815
  0
VERTEX
  8
0
 62
7
  6
CONTINUOUS
 10
16.7552829396
 20
565.8872189192
  0
VERTEX
  8
0
 62
7
  6
CONTINUOUS
 10
11.1978542661
 20
565.3777073984
  0
VERTEX
  8
0
 62
7
  6
CONTINUOUS
 10
6.8108640406
 20
564.9495042552
  0
SEQEND
  0
LINE
  8
0
 62
7
  6
CONTINUOUS
 10
192.9364576977
 20
572.9198319977
 11
162.8124066592
 21
572.9198319977
  0
LINE
  8
0
 62
7
  6
CONTINUOUS
 10
205.4174088921
 20
573.0074727554
 11
192.8848807001
 21
573.0074727554
  0
LINE
  8
0
 62
7
  6
CONTINUOUS
 10
191.1788199277
 20
576.4049806084
 11
202.7840930361
 21
576.4049806084
  0
LINE
  8
0
 62
7
  6
CONTINUOUS
 10
165.6511590502
 20
576.5823943596
 11
190.7581455711
 21
576.5823943596
  0
POLYLINE
  8
0
 62
7
  6
CONTINUOUS
 66
1
 70
0
  0
VERTEX
  8
0
 62
7
  6
CONTINUOUS
 10
361.7399202016
 20
564.9495042364
  0
VERTEX
  8
0
 62
7
  6
CONTINUOUS
 10
357.352930262
 20
565.3777073535
  0
VERTEX
  8
0
 62
7
  6
CONTINUOUS
 10
351.7955015734
 20
565.8872188787
  0
VERTEX
  8
0
 62
7
  6
CONTINUOUS
 10
346.2356384718
 20
566.3601769453
  0
VERTEX
  8
0
 62
7
  6
CONTINUOUS
 10
340.6724232945
 20
566.796660019
  0
VERTEX
  8
0
 62
7
  6
CONTINUOUS
 10
335.1037620793
 20
567.1968025179
  0
VERTEX
  8
0
 62
7
  6
CONTINUOUS
 10
329.5338023434
 20
567.5602959106
  0
VERTEX
  8
0
 62
7
  6
CONTINUOUS
 10
323.9700858953
 20
567.886746899
  0
VERTEX
  8
0
 62
7
  6
CONTINUOUS
 10
318.4003598451
 20
568.1769203364
  0
VERTEX
  8
0
 62
7
  6
CONTINUOUS
 10
312.8028541707
 20
568.4316540413
  0
VERTEX
  8
0
 62
7
  6
CONTINUOUS
 10
307.2136024184
 20
568.6491465027
  0
VERTEX
  8
0
 62
7
  6
CONTINUOUS
 10
301.6891722396
 20
568.8279440895
  0
VERTEX
  8
0
 62
7
  6
CONTINUOUS
 10
296.1463192431
 20
568.9712201919
  0
VERTEX
  8
0
 62
7
  6
CONTINUOUS
 10
290.606624705
 20
569.0782855483
  0
VERTEX
  8
0
 62
7
  6
CONTINUOUS
 10
284.8119832026
 20
569.1516427489
  0
VERTEX
  8
0
 62
7
  6
CONTINUOUS
 10
278.5047642816
 20
569.1865997565
  0
VERTEX
  8
0
 62
7
  6
CONTINUOUS
 10
271.7039658358
 20
569.1880285385
  0
SEQEND
  0
LINE
  8
0
 62
7
  6
CONTINUOUS
 10
185.5412279047
 20
577.8740520829
 11
185.8794192269
 21
577.8127901968
  0
POLYLINE
  8
0
 62
7
  6
CONTINUOUS
 66
1
 70
0
  0
VERTEX
  8
0
 62
7
  6
CONTINUOUS
 10
185.8794192269
 20
577.8127901968
  0
VERTEX
  8
0
 62
7
  6
CONTINUOUS
 10
186.2284774626
 20
577.7460379425
  0
VERTEX
  8
0
 62
7
  6
CONTINUOUS
 10
186.5869942481
 20
577.6742935616
  0
VERTEX
  8
0
 62
7
  6
CONTINUOUS
 10
186.9591946746
 20
577.5960623294
  0
VERTEX
  8
0
 62
7
  6
CONTINUOUS
 10
187.3479367242
 20
577.5104796574
  0
VERTEX
  8
0
 62
7
  6
CONTINUOUS
 10
187.7559133598
 20
577.4161533789
  0
VERTEX
  8
0
 62
7
  6
CONTINUOUS
 10
188.185892867
 20
577.3119854611
  0
VERTEX
  8
0
 62
7
  6
CONTINUOUS
 10
188.6405072596
 20
577.196228913
  0
VERTEX
  8
0
 62
7
  6
CONTINUOUS
 10
189.1224532489
 20
577.0675005915
  0
VERTEX
  8
0
 62
7
  6
CONTINUOUS
 10
189.634305029
 20
576.9236109199
  0
VERTEX
  8
0
 62
7
  6
CONTINUOUS
 10
190.179969835
 20
576.7615779455
  0
VERTEX
  8
0
 62
7
  6
CONTINUOUS
 10
190.7581452552
 20
576.5823956525
  0
SEQEND
  0
POLYLINE
  8
0
 62
7
  6
CONTINUOUS
 66
1
 70
0
  0
VERTEX
  8
0
 62
7
  6
CONTINUOUS
 10
185.1047744489
 20
577.9635195749
  0
VERTEX
  8
0
 62
7
  6
CONTINUOUS
 10
185.3095919924
 20
577.9183545948
  0
VERTEX
  8
0
 62
7
  6
CONTINUOUS
 10
185.5412279396
 20
577.8740509838
  0
SEQEND
  0
LINE
  8
0
 62
7
  6
CONTINUOUS
 10
184.9286412421
 20
578.0097365828
 11
185.1047744489
 21
577.9635195749
  0
LINE
  8
0
 62
7
  6
CONTINUOUS
 10
205.4174088921
 20
573.0074727554
 11
211.3533842189
 21
571.3866489874
  0
ARC
  8
0
 62
7
  6
CONTINUOUS
 10
184.2753920262
 20
501.597421936
 40
77.2632392753
 50
89.8218061009
 51
103.9484663514
  0
ARC
  8
0
 62
7
  6
CONTINUOUS
 10
184.2753920262
 20
501.597421936
 40
77.0632392753
 50
76.1031020349
 51
89.4495902558
  0
ARC
  8
0
 62
7
  6
CONTINUOUS
 10
44.0831174681
 20
-271.912622311
 40
3.0
 50
185.0000409113
 51
269.999999937
  0
ARC
  8
0
 62
7
  6
CONTINUOUS
 10
324.4676665842
 20
-271.912622311
 40
3.0
 50
270.0000000394
 51
354.9999590887
  0
ARC
  8
0
 62
7
  6
CONTINUOUS
 10
211.0899761857
 20
570.4219644752
 40
1.0
 50
20.0000000001
 51
74.7276206909
  0
ARC
  8
0
 62
7
  6
CONTINUOUS
 10
157.4608078667
 20
570.4219644752
 40
1.0
 50
105.2723793091
 51
159.9999999999
  0
ENDSEC
  0
EOF
