999
DXF file: K:\Client\125_Heirloom\001\00\Final_Data\Drawings\TOILETS\veloso-373112s_4.dxf
999
Pro/ENGINEER 2017110 by Parametric Technology Corporation
  0
SECTION
  2
HEADER
  9
$EXTMAX
 10
420.0
 20
297.0
 30
0.0
  9
$EXTMIN
 10
0.0
 20
0.0
 30
0.0
  9
$LIMMIN
 10
0.0
 20
0.0
  9
$LIMMAX
 10
420.0
 20
297.0
  9
$VIEWCTR
 10
210.0
 20
148.5
  9
$VIEWSIZE
 40
297.0
  9
$CLAYER
  8
0
  9
$LTSCALE
 40
23.1
  9
$CELTYPE
  6
BYLAYER
  9
$DIMSCALE
 40
1.0
  9
$DIMASZ
 40
3.0
  9
$DIMEXO
 40
1.0
  9
$DIMDLI
 40
15.96
  9
$DIMEXE
 40
1.0
  9
$DIMCEN
 40
3.78
  9
$DIMLFAC
 40
1.0
  9
$DIMBLK
  1
_FILLED
  9
$DIMALT
 70
0
  9
$DIMALTF
 40
0.0393700787
  9
$DIMTXT
 40
3.0
  9
$AUNITS
 70
0
  9
$PDMODE
 70
3
  9
$PDSIZE
 40
5.0
  9
$TILEMODE
 70
1
  0
ENDSEC
  0
SECTION
  2
TABLES
  0
TABLE
  2
LTYPE
 70
6
  0
LTYPE
  2
BYBLOCK
 70
0
  3

 72
65
 73
0
 40
0.0
  0
LTYPE
  2
BYLAYER
 70
0
  3

 72
65
 73
0
 40
0.0
  0
LTYPE
  2
CONTINUOUS
 70
64
  3
Solid line
 72
65
 73
0
 40
0.0
  0
LTYPE
  2
CENTER
 70
64
  3
____ _ ____ _ ____ _ ____ _ ____ _ ____ _ ____
 72
65
 73
4
 40
0.6
 49
0.375
 49
-0.075
 49
0.075
 49
-0.075
  0
LTYPE
  2
HIDDEN
 70
64
  3
- - - - - - - - - - - - - - - - - - - -
 72
65
 73
2
 40
0.2
 49
0.1
 49
-0.1
  0
LTYPE
  2
PHANTOM
 70
64
  3
_____ _ _ _____ _ _ _____ _ _ _____
 72
65
 73
6
 40
0.8
 49
0.45
 49
-0.05
 49
0.1
 49
-0.05
 49
0.1
 49
-0.05
  0
LTYPE
  2
DOT
 70
64
  3
. . . . . . . . . . . . . . . . . . . .
 72
65
 73
2
 40
0.2
 49
0.1
 49
-0.1
  0
LTYPE
  2
DASHED
 70
64
  3
- - - - - - - - - - - - - - - - - - - -
 72
65
 73
2
 40
0.2
 49
0.1
 49
-0.1
  0
ENDTAB
  0
TABLE
  2
LAYER
 70
36
  0
LAYER
  2
0
 70
0
 62
7
  6
CONTINUOUS
  0
LAYER
  2
DEFAULT_1
 70
0
 62
7
  6
CENTER
  0
LAYER
  2
DEFAULT_2
 70
0
 62
8
  6
HIDDEN
  0
LAYER
  2
DEFAULT_3
 70
0
 62
7
  6
PHANTOM
  0
LAYER
  2
0000_BOM
 70
0
 62
7
  6
CONTINUOUS
  0
LAYER
  2
0000_REV_TABLE
 70
0
 62
7
  6
CONTINUOUS
  0
LAYER
  2
0000_STEVENS_NOTE
 70
0
 62
7
  6
CONTINUOUS
  0
LAYER
  2
01_DATUM_PLANES
 70
0
 62
7
  6
CONTINUOUS
  0
LAYER
  2
01_DEF_PLANES
 70
0
 62
7
  6
CONTINUOUS
  0
LAYER
  2
02_DATUM_COS
 70
0
 62
7
  6
CONTINUOUS
  0
LAYER
  2
90_IMP_FEAT
 70
0
 62
7
  6
CONTINUOUS
  0
LAYER
  2
95_STL
 70
0
 62
7
  6
CONTINUOUS
  0
LAYER
  2
99_SOLID
 70
0
 62
7
  6
CONTINUOUS
  0
LAYER
  2
CAD-MASTER_ZINC-PL
 70
0
 62
7
  6
CONTINUOUS
  0
LAYER
  2
CURVE
 70
0
 62
7
  6
CONTINUOUS
  0
LAYER
  2
SHELL
 70
0
 62
7
  6
CONTINUOUS
  0
LAYER
  2
SKEL
 70
0
 62
7
  6
CONTINUOUS
  0
LAYER
  2
SKETCH
 70
0
 62
7
  6
CONTINUOUS
  0
LAYER
  2
SURFACE
 70
0
 62
7
  6
CONTINUOUS
  0
ENDTAB
  0
TABLE
  2
STYLE
 70
1
  0
STYLE
  2
STANDARD
 70
0
 40
0.0
 41
0.75
 50
0.0
 71
0
 42
0.2
  3
txt
  4

  0
STYLE
  2
TEXTSTYLE_1
 70
0
 40
0.0
 41
0.8
 50
0.0
 71
0
 42
0.2
  3
gdt
  4

  0
ENDTAB
  0
ENDSEC
  0
SECTION
  2
BLOCKS
  0
BLOCK
  8
0
 62
5
  6
CONTINUOUS
  2
PLUMBING_BL1
 70
64
 10
182.8150685089
 20
-269.4059054467
  0
CIRCLE
  8
0
 62
5
  6
CONTINUOUS
 10
182.8150685089
 20
-269.4059054467
 40
12.5
  0
LINE
  8
0
 62
5
  6
CONTINUOUS
 10
195.3150685089
 20
-256.9059054467
 11
170.3150685089
 21
-281.9059054467
  0
LINE
  8
0
 62
5
  6
CONTINUOUS
 10
182.8150685089
 20
-269.4059054467
 11
170.3150685089
 21
-256.9059054467
  0
LINE
  8
0
 62
5
  6
CONTINUOUS
 10
182.8150685089
 20
-269.4059054467
 11
195.3150685089
 21
-281.9059054467
  0
ENDBLK
  8
0
  6
BYBLOCK
 62
0
  0
BLOCK
  8
0
 62
1
  6
CONTINUOUS
  2
PLUMBING_BL0
 70
64
 10
182.8150685089
 20
-89.4059054467
  0
CIRCLE
  8
0
 62
1
  6
CONTINUOUS
 10
182.8150685089
 20
-89.4059054467
 40
12.5
  0
LINE
  8
0
 62
1
  6
CONTINUOUS
 10
195.3150685089
 20
-76.9059054467
 11
170.3150685089
 21
-101.9059054467
  0
LINE
  8
0
 62
1
  6
CONTINUOUS
 10
182.8150685089
 20
-89.4059054467
 11
170.3150685089
 21
-76.9059054467
  0
LINE
  8
0
 62
1
  6
CONTINUOUS
 10
182.8150685089
 20
-89.4059054467
 11
195.3150685089
 21
-101.9059054467
  0
ENDBLK
  8
0
  6
BYBLOCK
 62
0
  0
ENDSEC
  0
SECTION
  2
ENTITIES
  0
INSERT
  8
0
 62
1
  6
CONTINUOUS
  2
PLUMBING_BL0
 10
182.8150685089
 20
-89.4059054467
  0
INSERT
  8
0
 62
5
  6
CONTINUOUS
  2
PLUMBING_BL1
 10
182.8150685089
 20
-269.4059054467
  0
LINE
  8
0
 62
7
  6
CONTINUOUS
 10
176.2981968957
 20
582.0323480445
 11
175.9117003037
 21
581.9117073658
  0
POLYLINE
  8
0
 62
7
  6
CONTINUOUS
 66
1
 70
0
  0
VERTEX
  8
0
 62
7
  6
CONTINUOUS
 10
176.3323149771
 20
582.089112012
  0
VERTEX
  8
0
 62
7
  6
CONTINUOUS
 10
176.912491752
 20
582.2689121439
  0
VERTEX
  8
0
 62
7
  6
CONTINUOUS
 10
177.4608312131
 20
582.4316741278
  0
VERTEX
  8
0
 62
7
  6
CONTINUOUS
 10
177.9762415644
 20
582.5764630903
  0
VERTEX
  8
0
 62
7
  6
CONTINUOUS
 10
178.4619981934
 20
582.7060836513
  0
VERTEX
  8
0
 62
7
  6
CONTINUOUS
 10
178.9202549217
 20
582.8225873035
  0
VERTEX
  8
0
 62
7
  6
CONTINUOUS
 10
179.3532846517
 20
582.9272985547
  0
VERTEX
  8
0
 62
7
  6
CONTINUOUS
 10
179.7632975389
 20
583.0218711995
  0
VERTEX
  8
0
 62
7
  6
CONTINUOUS
 10
180.1526356465
 20
583.1073688705
  0
VERTEX
  8
0
 62
7
  6
CONTINUOUS
 10
180.5235939028
 20
583.1851273972
  0
VERTEX
  8
0
 62
7
  6
CONTINUOUS
 10
180.8785238675
 20
583.2559839833
  0
SEQEND
  0
LINE
  8
0
 62
7
  6
CONTINUOUS
 10
42.6227939509
 20
-269.4059054467
 11
323.007343067
 21
-269.4059054467
  0
LINE
  8
0
 62
7
  6
CONTINUOUS
 10
164.306367499
 20
581.9116974727
 11
161.673051643
 21
578.5141896197
  0
POLYLINE
  8
0
 62
7
  6
CONTINUOUS
 66
1
 70
0
  0
VERTEX
  8
0
 62
7
  6
CONTINUOUS
 10
-2.5888552895
 20
559.5962499931
  0
VERTEX
  8
0
 62
7
  6
CONTINUOUS
 10
-2.6047428672
 20
559.4018576279
  0
VERTEX
  8
0
 62
7
  6
CONTINUOUS
 10
-2.6161992685
 20
559.2004080954
  0
VERTEX
  8
0
 62
7
  6
CONTINUOUS
 10
-2.6225841424
 20
558.9987226489
  0
VERTEX
  8
0
 62
7
  6
CONTINUOUS
 10
-2.6238946264
 20
558.796928784
  0
VERTEX
  8
0
 62
7
  6
CONTINUOUS
 10
-2.6212949066
 20
558.635778842
  0
SEQEND
  0
POLYLINE
  8
0
 62
7
  6
CONTINUOUS
 66
1
 70
0
  0
VERTEX
  8
0
 62
7
  6
CONTINUOUS
 10
174.1540028374
 20
578.426548862
  0
VERTEX
  8
0
 62
7
  6
CONTINUOUS
 10
174.5148133224
 20
579.0396458967
  0
VERTEX
  8
0
 62
7
  6
CONTINUOUS
 10
174.876522498
 20
579.651678466
  0
VERTEX
  8
0
 62
7
  6
CONTINUOUS
 10
175.2391323098
 20
580.262649825
  0
VERTEX
  8
0
 62
7
  6
CONTINUOUS
 10
175.602636921
 20
580.8725502089
  0
VERTEX
  8
0
 62
7
  6
CONTINUOUS
 10
175.9670304949
 20
581.4813698529
  0
SEQEND
  0
POLYLINE
  8
0
 62
7
  6
CONTINUOUS
 66
1
 70
0
  0
VERTEX
  8
0
 62
7
  6
CONTINUOUS
 10
175.9117003037
 20
581.9117073658
  0
VERTEX
  8
0
 62
7
  6
CONTINUOUS
 10
175.5763005586
 20
581.3474910318
  0
VERTEX
  8
0
 62
7
  6
CONTINUOUS
 10
175.2416024845
 20
580.7824567959
  0
VERTEX
  8
0
 62
7
  6
CONTINUOUS
 10
174.9076099792
 20
580.2166113015
  0
VERTEX
  8
0
 62
7
  6
CONTINUOUS
 10
174.5743113495
 20
579.6499346183
  0
VERTEX
  8
0
 62
7
  6
CONTINUOUS
 10
174.2416949024
 20
579.0824068161
  0
VERTEX
  8
0
 62
7
  6
CONTINUOUS
 10
173.9097645356
 20
578.5140345383
  0
SEQEND
  0
LINE
  8
0
 62
7
  6
CONTINUOUS
 10
175.9670304949
 20
581.4813698529
 11
176.3323149771
 21
582.089112012
  0
LINE
  8
0
 62
7
  6
CONTINUOUS
 10
39.6342100433
 20
-266.6673748089
 11
3.7142015222
 21
143.8968248475
  0
POLYLINE
  8
0
 62
7
  6
CONTINUOUS
 66
1
 70
0
  0
VERTEX
  8
0
 62
7
  6
CONTINUOUS
 10
-1.9345356788
 20
532.4109477011
  0
VERTEX
  8
0
 62
7
  6
CONTINUOUS
 10
-1.9270091584
 20
532.2215377589
  0
VERTEX
  8
0
 62
7
  6
CONTINUOUS
 10
-1.9112724635
 20
531.995281852
  0
VERTEX
  8
0
 62
7
  6
CONTINUOUS
 10
-1.8882145306
 20
531.76965539
  0
VERTEX
  8
0
 62
7
  6
CONTINUOUS
 10
-1.857856351
 20
531.544893839
  0
VERTEX
  8
0
 62
7
  6
CONTINUOUS
 10
-1.8202329843
 20
531.3212318678
  0
VERTEX
  8
0
 62
7
  6
CONTINUOUS
 10
-1.7753817076
 20
531.0989038404
  0
VERTEX
  8
0
 62
7
  6
CONTINUOUS
 10
-1.7233507606
 20
530.8781418108
  0
VERTEX
  8
0
 62
7
  6
CONTINUOUS
 10
-1.6641953665
 20
530.6591763434
  0
VERTEX
  8
0
 62
7
  6
CONTINUOUS
 10
-1.5979739409
 20
530.4422371971
  0
VERTEX
  8
0
 62
7
  6
CONTINUOUS
 10
-1.5247561276
 20
530.2275511767
  0
VERTEX
  8
0
 62
7
  6
CONTINUOUS
 10
-1.444616658
 20
530.0153434624
  0
VERTEX
  8
0
 62
7
  6
CONTINUOUS
 10
-1.357641799
 20
529.8058348754
  0
VERTEX
  8
0
 62
7
  6
CONTINUOUS
 10
-1.263920968
 20
529.5992450755
  0
VERTEX
  8
0
 62
7
  6
CONTINUOUS
 10
-1.1635490274
 20
529.395791509
  0
VERTEX
  8
0
 62
7
  6
CONTINUOUS
 10
-1.0566290056
 20
529.1956879095
  0
VERTEX
  8
0
 62
7
  6
CONTINUOUS
 10
-0.9432720586
 20
528.9991450732
  0
VERTEX
  8
0
 62
7
  6
CONTINUOUS
 10
-0.8236007994
 20
528.8063653021
  0
VERTEX
  8
0
 62
7
  6
CONTINUOUS
 10
-0.6977421647
 20
528.6175549529
  0
VERTEX
  8
0
 62
7
  6
CONTINUOUS
 10
-0.5658232522
 20
528.4329182218
  0
VERTEX
  8
0
 62
7
  6
CONTINUOUS
 10
-0.4279841758
 20
528.2526521237
  0
VERTEX
  8
0
 62
7
  6
CONTINUOUS
 10
-0.2843746141
 20
528.0769466288
  0
VERTEX
  8
0
 62
7
  6
CONTINUOUS
 10
-0.1351463611
 20
527.9059899763
  0
VERTEX
  8
0
 62
7
  6
CONTINUOUS
 10
0.0195412317
 20
527.7399646496
  0
VERTEX
  8
0
 62
7
  6
CONTINUOUS
 10
0.1795260241
 20
527.579047714
  0
VERTEX
  8
0
 62
7
  6
CONTINUOUS
 10
0.3446329062
 20
527.4234068807
  0
VERTEX
  8
0
 62
7
  6
CONTINUOUS
 10
0.5146886437
 20
527.2732006367
  0
VERTEX
  8
0
 62
7
  6
CONTINUOUS
 10
0.6895184472
 20
527.1285892684
  0
VERTEX
  8
0
 62
7
  6
CONTINUOUS
 10
0.868943711
 20
526.989725382
  0
VERTEX
  8
0
 62
7
  6
CONTINUOUS
 10
1.052773779
 20
526.8567474756
  0
VERTEX
  8
0
 62
7
  6
CONTINUOUS
 10
1.2408166233
 20
526.7297923743
  0
VERTEX
  8
0
 62
7
  6
CONTINUOUS
 10
1.4328804333
 20
526.6089965019
  0
VERTEX
  8
0
 62
7
  6
CONTINUOUS
 10
1.6287655131
 20
526.4944868825
  0
VERTEX
  8
0
 62
7
  6
CONTINUOUS
 10
1.8282676761
 20
526.3863796412
  0
VERTEX
  8
0
 62
7
  6
CONTINUOUS
 10
2.0311760988
 20
526.2847931662
  0
VERTEX
  8
0
 62
7
  6
CONTINUOUS
 10
2.2372765394
 20
526.1898341237
  0
VERTEX
  8
0
 62
7
  6
CONTINUOUS
 10
2.446349128
 20
526.1016020113
  0
VERTEX
  8
0
 62
7
  6
CONTINUOUS
 10
2.6581731763
 20
526.0201933353
  0
VERTEX
  8
0
 62
7
  6
CONTINUOUS
 10
2.8725237567
 20
525.9456946873
  0
VERTEX
  8
0
 62
7
  6
CONTINUOUS
 10
3.0891738623
 20
525.8781870145
  0
VERTEX
  8
0
 62
7
  6
CONTINUOUS
 10
3.3078919733
 20
525.8177364931
  0
VERTEX
  8
0
 62
7
  6
CONTINUOUS
 10
3.5284450759
 20
525.7644044507
  0
VERTEX
  8
0
 62
7
  6
CONTINUOUS
 10
3.7506001339
 20
525.7182518374
  0
VERTEX
  8
0
 62
7
  6
CONTINUOUS
 10
3.9741223197
 20
525.6793302152
  0
VERTEX
  8
0
 62
7
  6
CONTINUOUS
 10
4.1987730858
 20
525.6476723815
  0
VERTEX
  8
0
 62
7
  6
CONTINUOUS
 10
4.4243135052
 20
525.6233085678
  0
VERTEX
  8
0
 62
7
  6
CONTINUOUS
 10
4.6505046689
 20
525.6062680395
  0
VERTEX
  8
0
 62
7
  6
CONTINUOUS
 10
4.8771054778
 20
525.5965675467
  0
VERTEX
  8
0
 62
7
  6
CONTINUOUS
 10
5.0631679951
 20
525.5940940621
  0
SEQEND
  0
LINE
  8
0
 62
7
  6
CONTINUOUS
 10
7.8649888747
 20
157.4240246711
 11
-1.5882684826
 21
518.4108518919
  0
LINE
  8
0
 62
7
  6
CONTINUOUS
 10
-1.9345381799
 20
532.4109476356
 11
-2.6212946794
 21
558.6357758047
  0
LINE
  8
0
 62
7
  6
CONTINUOUS
 10
11.6832619292
 20
152.6001458967
 11
11.6832190992
 21
152.602807318
  0
POLYLINE
  8
0
 62
7
  6
CONTINUOUS
 66
1
 70
0
  0
VERTEX
  8
0
 62
7
  6
CONTINUOUS
 10
11.6832190992
 20
152.602807318
  0
VERTEX
  8
0
 62
7
  6
CONTINUOUS
 10
11.6834300441
 20
152.6104383905
  0
VERTEX
  8
0
 62
7
  6
CONTINUOUS
 10
11.6840621278
 20
152.6204346884
  0
VERTEX
  8
0
 62
7
  6
CONTINUOUS
 10
11.685115869
 20
152.6328020104
  0
VERTEX
  8
0
 62
7
  6
CONTINUOUS
 10
11.6865897119
 20
152.6475229604
  0
VERTEX
  8
0
 62
7
  6
CONTINUOUS
 10
11.6884827909
 20
152.6645862666
  0
VERTEX
  8
0
 62
7
  6
CONTINUOUS
 10
11.6907935539
 20
152.6839793558
  0
VERTEX
  8
0
 62
7
  6
CONTINUOUS
 10
11.69351993
 20
152.7056838565
  0
VERTEX
  8
0
 62
7
  6
CONTINUOUS
 10
11.6966626096
 20
152.7297058925
  0
SEQEND
  0
POLYLINE
  8
0
 62
7
  6
CONTINUOUS
 66
1
 70
0
  0
VERTEX
  8
0
 62
7
  6
CONTINUOUS
 10
182.0747747947
 20
583.5423086032
  0
VERTEX
  8
0
 62
7
  6
CONTINUOUS
 10
182.0601827433
 20
583.5036203223
  0
VERTEX
  8
0
 62
7
  6
CONTINUOUS
 10
182.0385836884
 20
583.4841117184
  0
SEQEND
  0
LINE
  8
0
 62
7
  6
CONTINUOUS
 10
10.9561056348
 20
152.9657166768
 11
11.0575057261
 21
152.8691697699
  0
POLYLINE
  8
0
 62
7
  6
CONTINUOUS
 66
1
 70
0
  0
VERTEX
  8
0
 62
7
  6
CONTINUOUS
 10
9.3607571173
 20
153.9997074173
  0
VERTEX
  8
0
 62
7
  6
CONTINUOUS
 10
9.3105778238
 20
154.0492258165
  0
VERTEX
  8
0
 62
7
  6
CONTINUOUS
 10
9.2606667201
 20
154.0999201444
  0
VERTEX
  8
0
 62
7
  6
CONTINUOUS
 10
9.2110558865
 20
154.151786782
  0
VERTEX
  8
0
 62
7
  6
CONTINUOUS
 10
9.1617730214
 20
154.2048398315
  0
VERTEX
  8
0
 62
7
  6
CONTINUOUS
 10
9.1128475093
 20
154.2590898194
  0
VERTEX
  8
0
 62
7
  6
CONTINUOUS
 10
9.0643104512
 20
154.3145439611
  0
VERTEX
  8
0
 62
7
  6
CONTINUOUS
 10
9.0161929313
 20
154.3712114518
  0
VERTEX
  8
0
 62
7
  6
CONTINUOUS
 10
8.968528249
 20
154.4290969805
  0
VERTEX
  8
0
 62
7
  6
CONTINUOUS
 10
8.921349443
 20
154.4882077001
  0
VERTEX
  8
0
 62
7
  6
CONTINUOUS
 10
8.8746918496
 20
154.5485455052
  0
VERTEX
  8
0
 62
7
  6
CONTINUOUS
 10
8.8285904154
 20
154.6101150861
  0
VERTEX
  8
0
 62
7
  6
CONTINUOUS
 10
8.7830822913
 20
154.6729152864
  0
VERTEX
  8
0
 62
7
  6
CONTINUOUS
 10
8.7382041233
 20
154.736948045
  0
VERTEX
  8
0
 62
7
  6
CONTINUOUS
 10
8.6939946768
 20
154.8022088273
  0
VERTEX
  8
0
 62
7
  6
CONTINUOUS
 10
8.6504920746
 20
154.8686964931
  0
VERTEX
  8
0
 62
7
  6
CONTINUOUS
 10
8.6077364285
 20
154.9364028379
  0
VERTEX
  8
0
 62
7
  6
CONTINUOUS
 10
8.5657670625
 20
155.0053233263
  0
VERTEX
  8
0
 62
7
  6
CONTINUOUS
 10
8.52462511
 20
155.0754458283
  0
VERTEX
  8
0
 62
7
  6
CONTINUOUS
 10
8.4843507653
 20
155.1467621217
  0
VERTEX
  8
0
 62
7
  6
CONTINUOUS
 10
8.4449858053
 20
155.2192559387
  0
VERTEX
  8
0
 62
7
  6
CONTINUOUS
 10
8.4065709085
 20
155.2929151194
  0
VERTEX
  8
0
 62
7
  6
CONTINUOUS
 10
8.369148078
 20
155.3677190788
  0
VERTEX
  8
0
 62
7
  6
CONTINUOUS
 10
8.3327580506
 20
155.443651496
  0
VERTEX
  8
0
 62
7
  6
CONTINUOUS
 10
8.297442593
 20
155.5206873478
  0
VERTEX
  8
0
 62
7
  6
CONTINUOUS
 10
8.2632420375
 20
155.5988059653
  0
VERTEX
  8
0
 62
7
  6
CONTINUOUS
 10
8.2301974019
 20
155.6779778587
  0
VERTEX
  8
0
 62
7
  6
CONTINUOUS
 10
8.1983481036
 20
155.7581779117
  0
VERTEX
  8
0
 62
7
  6
CONTINUOUS
 10
8.1677338828
 20
155.8393721943
  0
VERTEX
  8
0
 62
7
  6
CONTINUOUS
 10
8.1383927126
 20
155.9215311014
  0
VERTEX
  8
0
 62
7
  6
CONTINUOUS
 10
8.1103625106
 20
156.0046163646
  0
VERTEX
  8
0
 62
7
  6
CONTINUOUS
 10
8.0836792668
 20
156.0885939075
  0
VERTEX
  8
0
 62
7
  6
CONTINUOUS
 10
8.0583785179
 20
156.1734213343
  0
VERTEX
  8
0
 62
7
  6
CONTINUOUS
 10
8.0344937231
 20
156.2590602195
  0
VERTEX
  8
0
 62
7
  6
CONTINUOUS
 10
8.0120574949
 20
156.3454643247
  0
VERTEX
  8
0
 62
7
  6
CONTINUOUS
 10
7.9911002289
 20
156.4325910825
  0
VERTEX
  8
0
 62
7
  6
CONTINUOUS
 10
7.9716510975
 20
156.5203907682
  0
VERTEX
  8
0
 62
7
  6
CONTINUOUS
 10
7.9537369324
 20
156.608816943
  0
VERTEX
  8
0
 62
7
  6
CONTINUOUS
 10
7.9373829817
 20
156.6978168624
  0
VERTEX
  8
0
 62
7
  6
CONTINUOUS
 10
7.9226120478
 20
156.7873406046
  0
VERTEX
  8
0
 62
7
  6
CONTINUOUS
 10
7.9094450322
 20
156.8773329144
  0
VERTEX
  8
0
 62
7
  6
CONTINUOUS
 10
7.8979003055
 20
156.9677408256
  0
VERTEX
  8
0
 62
7
  6
CONTINUOUS
 10
7.8879940616
 20
157.0585071774
  0
VERTEX
  8
0
 62
7
  6
CONTINUOUS
 10
7.8797398931
 20
157.1495763433
  0
VERTEX
  8
0
 62
7
  6
CONTINUOUS
 10
7.8731490389
 20
157.240890363
  0
VERTEX
  8
0
 62
7
  6
CONTINUOUS
 10
7.8682310348
 20
157.3323629567
  0
VERTEX
  8
0
 62
7
  6
CONTINUOUS
 10
7.8649889172
 20
157.4240230469
  0
SEQEND
  0
POLYLINE
  8
0
 62
7
  6
CONTINUOUS
 66
1
 70
0
  0
VERTEX
  8
0
 62
7
  6
CONTINUOUS
 10
11.2935954943
 20
152.6791197758
  0
VERTEX
  8
0
 62
7
  6
CONTINUOUS
 10
11.412688098
 20
152.5998115375
  0
VERTEX
  8
0
 62
7
  6
CONTINUOUS
 10
11.4303761057
 20
152.5895971573
  0
SEQEND
  0
LINE
  8
0
 62
7
  6
CONTINUOUS
 10
11.1033715098
 20
152.867701242
 11
11.0095498028
 21
152.9445325093
  0
POLYLINE
  8
0
 62
7
  6
CONTINUOUS
 66
1
 70
0
  0
VERTEX
  8
0
 62
7
  6
CONTINUOUS
 10
11.0575057261
 20
152.8691697699
  0
VERTEX
  8
0
 62
7
  6
CONTINUOUS
 10
11.1751964575
 20
152.7688008814
  0
VERTEX
  8
0
 62
7
  6
CONTINUOUS
 10
11.2935954943
 20
152.6791197758
  0
SEQEND
  0
POLYLINE
  8
0
 62
7
  6
CONTINUOUS
 66
1
 70
0
  0
VERTEX
  8
0
 62
7
  6
CONTINUOUS
 10
11.5690364488
 20
152.5926406432
  0
VERTEX
  8
0
 62
7
  6
CONTINUOUS
 10
11.5155436243
 20
152.6154770294
  0
VERTEX
  8
0
 62
7
  6
CONTINUOUS
 10
11.376680405
 20
152.6871801893
  0
VERTEX
  8
0
 62
7
  6
CONTINUOUS
 10
11.2391164349
 20
152.7711429192
  0
VERTEX
  8
0
 62
7
  6
CONTINUOUS
 10
11.1033715098
 20
152.867701242
  0
SEQEND
  0
POLYLINE
  8
0
 62
7
  6
CONTINUOUS
 66
1
 70
0
  0
VERTEX
  8
0
 62
7
  6
CONTINUOUS
 10
11.6847600092
 20
152.5940945533
  0
VERTEX
  8
0
 62
7
  6
CONTINUOUS
 10
11.6842892908
 20
152.5943367855
  0
VERTEX
  8
0
 62
7
  6
CONTINUOUS
 10
11.6839041122
 20
152.5950631132
  0
VERTEX
  8
0
 62
7
  6
CONTINUOUS
 10
11.6836044546
 20
152.5962736654
  0
VERTEX
  8
0
 62
7
  6
CONTINUOUS
 10
11.6833903747
 20
152.5979680555
  0
VERTEX
  8
0
 62
7
  6
CONTINUOUS
 10
11.6832619292
 20
152.6001458967
  0
SEQEND
  0
POLYLINE
  8
0
 62
7
  6
CONTINUOUS
 66
1
 70
0
  0
VERTEX
  8
0
 62
7
  6
CONTINUOUS
 10
11.6966626096
 20
152.7297058925
  0
VERTEX
  8
0
 62
7
  6
CONTINUOUS
 10
11.611559796
 20
152.7505591922
  0
VERTEX
  8
0
 62
7
  6
CONTINUOUS
 10
11.5272143674
 20
152.7727816139
  0
VERTEX
  8
0
 62
7
  6
CONTINUOUS
 10
11.443607354
 20
152.7963493161
  0
VERTEX
  8
0
 62
7
  6
CONTINUOUS
 10
11.3607956646
 20
152.8212292021
  0
VERTEX
  8
0
 62
7
  6
CONTINUOUS
 10
11.2788191449
 20
152.8473885212
  0
VERTEX
  8
0
 62
7
  6
CONTINUOUS
 10
11.1977100131
 20
152.8747939943
  0
VERTEX
  8
0
 62
7
  6
CONTINUOUS
 10
11.117504388
 20
152.9034107239
  0
VERTEX
  8
0
 62
7
  6
CONTINUOUS
 10
11.0382304129
 20
152.9332036461
  0
VERTEX
  8
0
 62
7
  6
CONTINUOUS
 10
10.9599202478
 20
152.964136222
  0
VERTEX
  8
0
 62
7
  6
CONTINUOUS
 10
10.8825979614
 20
152.9961720737
  0
VERTEX
  8
0
 62
7
  6
CONTINUOUS
 10
10.8062916709
 20
153.0292734966
  0
VERTEX
  8
0
 62
7
  6
CONTINUOUS
 10
10.7310213898
 20
153.0634032721
  0
VERTEX
  8
0
 62
7
  6
CONTINUOUS
 10
10.6568111497
 20
153.0985230031
  0
VERTEX
  8
0
 62
7
  6
CONTINUOUS
 10
10.5836770131
 20
153.1345950723
  0
VERTEX
  8
0
 62
7
  6
CONTINUOUS
 10
10.5116389664
 20
153.1715808319
  0
VERTEX
  8
0
 62
7
  6
CONTINUOUS
 10
10.440709269
 20
153.2094426802
  0
VERTEX
  8
0
 62
7
  6
CONTINUOUS
 10
10.3709039643
 20
153.2481421262
  0
VERTEX
  8
0
 62
7
  6
CONTINUOUS
 10
10.3022316863
 20
153.2876419702
  0
VERTEX
  8
0
 62
7
  6
CONTINUOUS
 10
10.2347046686
 20
153.3279042596
  0
VERTEX
  8
0
 62
7
  6
CONTINUOUS
 10
10.1683281551
 20
153.3688925315
  0
VERTEX
  8
0
 62
7
  6
CONTINUOUS
 10
10.1031107664
 20
153.4105697012
  0
VERTEX
  8
0
 62
7
  6
CONTINUOUS
 10
10.0390546057
 20
153.4529003406
  0
VERTEX
  8
0
 62
7
  6
CONTINUOUS
 10
9.9761649069
 20
153.4958485201
  0
VERTEX
  8
0
 62
7
  6
CONTINUOUS
 10
9.9144408984
 20
153.5393801024
  0
VERTEX
  8
0
 62
7
  6
CONTINUOUS
 10
9.8538846679
 20
153.5834605648
  0
VERTEX
  8
0
 62
7
  6
CONTINUOUS
 10
9.7944928726
 20
153.628057254
  0
VERTEX
  8
0
 62
7
  6
CONTINUOUS
 10
9.7362647702
 20
153.6731372165
  0
VERTEX
  8
0
 62
7
  6
CONTINUOUS
 10
9.6791946468
 20
153.7186695151
  0
VERTEX
  8
0
 62
7
  6
CONTINUOUS
 10
9.6232790349
 20
153.7646230682
  0
VERTEX
  8
0
 62
7
  6
CONTINUOUS
 10
9.5685104528
 20
153.8109685187
  0
VERTEX
  8
0
 62
7
  6
CONTINUOUS
 10
9.5148836826
 20
153.8576761917
  0
VERTEX
  8
0
 62
7
  6
CONTINUOUS
 10
9.4623884649
 20
153.9047194415
  0
VERTEX
  8
0
 62
7
  6
CONTINUOUS
 10
9.4110113016
 20
153.9520730325
  0
VERTEX
  8
0
 62
7
  6
CONTINUOUS
 10
9.360756692
 20
153.9997069818
  0
SEQEND
  0
LINE
  8
0
 62
7
  6
CONTINUOUS
 10
182.0747747947
 20
583.4936118823
 11
182.0747747947
 21
584.1637242647
  0
LINE
  8
0
 62
7
  6
CONTINUOUS
 10
182.5747747947
 20
584.3669072137
 11
182.5747747947
 21
583.7471425757
  0
LINE
  8
0
 62
7
  6
CONTINUOUS
 10
353.9463390268
 20
152.5940945533
 11
11.683797991
 21
152.5940945533
  0
POLYLINE
  8
0
 62
7
  6
CONTINUOUS
 66
1
 70
0
  0
VERTEX
  8
0
 62
7
  6
CONTINUOUS
 10
353.9463390268
 20
152.5940945533
  0
VERTEX
  8
0
 62
7
  6
CONTINUOUS
 10
354.1489645929
 20
152.5915280822
  0
VERTEX
  8
0
 62
7
  6
CONTINUOUS
 10
354.3514743278
 20
152.5838295966
  0
VERTEX
  8
0
 62
7
  6
CONTINUOUS
 10
354.5537421024
 20
152.5710026649
  0
VERTEX
  8
0
 62
7
  6
CONTINUOUS
 10
354.7556264494
 20
152.5530553247
  0
VERTEX
  8
0
 62
7
  6
CONTINUOUS
 10
354.9569932745
 20
152.5299991767
  0
VERTEX
  8
0
 62
7
  6
CONTINUOUS
 10
355.0162364391
 20
152.5222295316
  0
SEQEND
  0
POLYLINE
  8
0
 62
7
  6
CONTINUOUS
 66
1
 70
0
  0
VERTEX
  8
0
 62
7
  6
CONTINUOUS
 10
10.6138994257
 20
152.5222244652
  0
VERTEX
  8
0
 62
7
  6
CONTINUOUS
 10
10.5123560421
 20
152.5078585855
  0
VERTEX
  8
0
 62
7
  6
CONTINUOUS
 10
10.3129258953
 20
152.4757629963
  0
VERTEX
  8
0
 62
7
  6
CONTINUOUS
 10
10.1143658984
 20
152.4386409402
  0
VERTEX
  8
0
 62
7
  6
CONTINUOUS
 10
9.9168043789
 20
152.3965125069
  0
VERTEX
  8
0
 62
7
  6
CONTINUOUS
 10
9.7203673347
 20
152.349408567
  0
VERTEX
  8
0
 62
7
  6
CONTINUOUS
 10
9.5251803587
 20
152.2973624105
  0
VERTEX
  8
0
 62
7
  6
CONTINUOUS
 10
9.331368937
 20
152.2404074086
  0
VERTEX
  8
0
 62
7
  6
CONTINUOUS
 10
9.1390585907
 20
152.1785771165
  0
VERTEX
  8
0
 62
7
  6
CONTINUOUS
 10
8.9483732463
 20
152.1119093255
  0
VERTEX
  8
0
 62
7
  6
CONTINUOUS
 10
8.7594354627
 20
152.0404491115
  0
VERTEX
  8
0
 62
7
  6
CONTINUOUS
 10
8.5723643606
 20
151.96424145
  0
VERTEX
  8
0
 62
7
  6
CONTINUOUS
 10
8.3872784608
 20
151.8833361946
  0
VERTEX
  8
0
 62
7
  6
CONTINUOUS
 10
8.2042930066
 20
151.7977851091
  0
VERTEX
  8
0
 62
7
  6
CONTINUOUS
 10
8.0235238148
 20
151.7076400887
  0
VERTEX
  8
0
 62
7
  6
CONTINUOUS
 10
7.8450850142
 20
151.6129563658
  0
VERTEX
  8
0
 62
7
  6
CONTINUOUS
 10
7.6690876569
 20
151.5137950978
  0
VERTEX
  8
0
 62
7
  6
CONTINUOUS
 10
7.4956431884
 20
151.4102182494
  0
VERTEX
  8
0
 62
7
  6
CONTINUOUS
 10
7.3248622122
 20
151.3022875638
  0
VERTEX
  8
0
 62
7
  6
CONTINUOUS
 10
7.1568538964
 20
151.1900722024
  0
VERTEX
  8
0
 62
7
  6
CONTINUOUS
 10
6.9917234811
 20
151.0736459805
  0
VERTEX
  8
0
 62
7
  6
CONTINUOUS
 10
6.8295767035
 20
150.9530832818
  0
VERTEX
  8
0
 62
7
  6
CONTINUOUS
 10
6.6705191714
 20
150.828458425
  0
VERTEX
  8
0
 62
7
  6
CONTINUOUS
 10
6.5146555572
 20
150.6998469858
  0
VERTEX
  8
0
 62
7
  6
CONTINUOUS
 10
6.362083584
 20
150.567332315
  0
VERTEX
  8
0
 62
7
  6
CONTINUOUS
 10
6.2128998081
 20
150.4310024879
  0
VERTEX
  8
0
 62
7
  6
CONTINUOUS
 10
6.0671997402
 20
150.2909448074
  0
VERTEX
  8
0
 62
7
  6
CONTINUOUS
 10
5.9250811513
 20
150.1472489748
  0
VERTEX
  8
0
 62
7
  6
CONTINUOUS
 10
5.7866389772
 20
150.0000062633
  0
VERTEX
  8
0
 62
7
  6
CONTINUOUS
 10
5.6519621708
 20
149.8493142436
  0
VERTEX
  8
0
 62
7
  6
CONTINUOUS
 10
5.5211382676
 20
149.6952718793
  0
VERTEX
  8
0
 62
7
  6
CONTINUOUS
 10
5.3942518248
 20
149.5379801288
  0
VERTEX
  8
0
 62
7
  6
CONTINUOUS
 10
5.2713850587
 20
149.3775435561
  0
VERTEX
  8
0
 62
7
  6
CONTINUOUS
 10
5.1526169818
 20
149.2140632514
  0
VERTEX
  8
0
 62
7
  6
CONTINUOUS
 10
5.038025244
 20
149.0476435513
  0
VERTEX
  8
0
 62
7
  6
CONTINUOUS
 10
4.927677751
 20
148.8783917462
  0
VERTEX
  8
0
 62
7
  6
CONTINUOUS
 10
4.8216413451
 20
148.7064167674
  0
VERTEX
  8
0
 62
7
  6
CONTINUOUS
 10
4.7199829164
 20
148.5318274108
  0
VERTEX
  8
0
 62
7
  6
CONTINUOUS
 10
4.6227693496
 20
148.3547323942
  0
VERTEX
  8
0
 62
7
  6
CONTINUOUS
 10
4.5300635611
 20
148.1752429235
  0
VERTEX
  8
0
 62
7
  6
CONTINUOUS
 10
4.441922059
 20
147.9934735513
  0
VERTEX
  8
0
 62
7
  6
CONTINUOUS
 10
4.3584008458
 20
147.8095400553
  0
VERTEX
  8
0
 62
7
  6
CONTINUOUS
 10
4.2795512172
 20
147.6235598616
  0
VERTEX
  8
0
 62
7
  6
CONTINUOUS
 10
4.2054217674
 20
147.4356517663
  0
VERTEX
  8
0
 62
7
  6
CONTINUOUS
 10
4.1360610161
 20
147.2459345192
  0
VERTEX
  8
0
 62
7
  6
CONTINUOUS
 10
4.0715141627
 20
147.0545281347
  0
VERTEX
  8
0
 62
7
  6
CONTINUOUS
 10
4.0118209412
 20
146.8615547817
  0
VERTEX
  8
0
 62
7
  6
CONTINUOUS
 10
3.9570201087
 20
146.6671367009
  0
VERTEX
  8
0
 62
7
  6
CONTINUOUS
 10
3.9071452614
 20
146.4713976786
  0
VERTEX
  8
0
 62
7
  6
CONTINUOUS
 10
3.8622264817
 20
146.2744619528
  0
VERTEX
  8
0
 62
7
  6
CONTINUOUS
 10
3.8222938667
 20
146.0764538917
  0
VERTEX
  8
0
 62
7
  6
CONTINUOUS
 10
3.7873740582
 20
145.87749855
  0
VERTEX
  8
0
 62
7
  6
CONTINUOUS
 10
3.7574875652
 20
145.6777223021
  0
VERTEX
  8
0
 62
7
  6
CONTINUOUS
 10
3.7326543526
 20
145.4772516827
  0
VERTEX
  8
0
 62
7
  6
CONTINUOUS
 10
3.7128928296
 20
145.2762133546
  0
VERTEX
  8
0
 62
7
  6
CONTINUOUS
 10
3.6982129441
 20
145.0747348694
  0
VERTEX
  8
0
 62
7
  6
CONTINUOUS
 10
3.6886219398
 20
144.8729440505
  0
VERTEX
  8
0
 62
7
  6
CONTINUOUS
 10
3.6841271364
 20
144.6709686648
  0
VERTEX
  8
0
 62
7
  6
CONTINUOUS
 10
3.6847354734
 20
144.4689365352
  0
VERTEX
  8
0
 62
7
  6
CONTINUOUS
 10
3.6904475028
 20
144.2669756691
  0
VERTEX
  8
0
 62
7
  6
CONTINUOUS
 10
3.7012587746
 20
144.0652137744
  0
VERTEX
  8
0
 62
7
  6
CONTINUOUS
 10
3.7142018678
 20
143.8968248777
  0
SEQEND
  0
POLYLINE
  8
0
 62
7
  6
CONTINUOUS
 66
1
 70
0
  0
VERTEX
  8
0
 62
7
  6
CONTINUOUS
 10
10.6139012045
 20
152.522229616
  0
VERTEX
  8
0
 62
7
  6
CONTINUOUS
 10
10.6728410502
 20
152.5299606224
  0
VERTEX
  8
0
 62
7
  6
CONTINUOUS
 10
10.8742732069
 20
152.5530311857
  0
VERTEX
  8
0
 62
7
  6
CONTINUOUS
 10
11.0762268081
 20
152.5709898626
  0
VERTEX
  8
0
 62
7
  6
CONTINUOUS
 10
11.2785614399
 20
152.5838244619
  0
VERTEX
  8
0
 62
7
  6
CONTINUOUS
 10
11.4811262278
 20
152.5915269116
  0
VERTEX
  8
0
 62
7
  6
CONTINUOUS
 10
11.683797991
 20
152.5940945533
  0
SEQEND
  0
POLYLINE
  8
0
 62
7
  6
CONTINUOUS
 66
1
 70
0
  0
VERTEX
  8
0
 62
7
  6
CONTINUOUS
 10
356.2693796068
 20
153.9997067588
  0
VERTEX
  8
0
 62
7
  6
CONTINUOUS
 10
356.219121481
 20
153.9520723041
  0
VERTEX
  8
0
 62
7
  6
CONTINUOUS
 10
356.1677480856
 20
153.9047190167
  0
VERTEX
  8
0
 62
7
  6
CONTINUOUS
 10
356.1152530439
 20
153.8576757564
  0
VERTEX
  8
0
 62
7
  6
CONTINUOUS
 10
356.0616261011
 20
153.8109681204
  0
VERTEX
  8
0
 62
7
  6
CONTINUOUS
 10
356.006857725
 20
153.7646226687
  0
VERTEX
  8
0
 62
7
  6
CONTINUOUS
 10
355.9509419113
 20
153.7186691428
  0
VERTEX
  8
0
 62
7
  6
CONTINUOUS
 10
355.8938720217
 20
153.6731368377
  0
VERTEX
  8
0
 62
7
  6
CONTINUOUS
 10
355.8356436843
 20
153.6280569025
  0
VERTEX
  8
0
 62
7
  6
CONTINUOUS
 10
355.7762521668
 20
153.5834602113
  0
VERTEX
  8
0
 62
7
  6
CONTINUOUS
 10
355.7156956748
 20
153.5393797838
  0
VERTEX
  8
0
 62
7
  6
CONTINUOUS
 10
355.6539719757
 20
153.4958481953
  0
VERTEX
  8
0
 62
7
  6
CONTINUOUS
 10
355.5910819755
 20
153.4529000473
  0
VERTEX
  8
0
 62
7
  6
CONTINUOUS
 10
355.527026151
 20
153.4105693961
  0
VERTEX
  8
0
 62
7
  6
CONTINUOUS
 10
355.4618084245
 20
153.3688922562
  0
VERTEX
  8
0
 62
7
  6
CONTINUOUS
 10
355.3954322836
 20
153.3279039751
  0
VERTEX
  8
0
 62
7
  6
CONTINUOUS
 10
355.3279049042
 20
153.2876417199
  0
VERTEX
  8
0
 62
7
  6
CONTINUOUS
 10
355.2592330272
 20
153.2481418664
  0
VERTEX
  8
0
 62
7
  6
CONTINUOUS
 10
355.1894273331
 20
153.209442454
  0
VERTEX
  8
0
 62
7
  6
CONTINUOUS
 10
355.1184980642
 20
153.1715805978
  0
VERTEX
  8
0
 62
7
  6
CONTINUOUS
 10
355.0464596101
 20
153.1345948737
  0
VERTEX
  8
0
 62
7
  6
CONTINUOUS
 10
354.9733259289
 20
153.0985228003
  0
VERTEX
  8
0
 62
7
  6
CONTINUOUS
 10
354.8991152721
 20
153.0634031072
  0
VERTEX
  8
0
 62
7
  6
CONTINUOUS
 10
354.8238454694
 20
153.0292733315
  0
VERTEX
  8
0
 62
7
  6
CONTINUOUS
 10
354.7475387589
 20
152.9961719475
  0
VERTEX
  8
0
 62
7
  6
CONTINUOUS
 10
354.6702169639
 20
152.9641360978
  0
VERTEX
  8
0
 62
7
  6
CONTINUOUS
 10
354.5919063778
 20
152.9332035586
  0
VERTEX
  8
0
 62
7
  6
CONTINUOUS
 10
354.5126328936
 20
152.9034106378
  0
VERTEX
  8
0
 62
7
  6
CONTINUOUS
 10
354.4324268482
 20
152.8747939399
  0
VERTEX
  8
0
 62
7
  6
CONTINUOUS
 10
354.3513181947
 20
152.8473884667
  0
VERTEX
  8
0
 62
7
  6
CONTINUOUS
 10
354.2693412609
 20
152.8212291735
  0
VERTEX
  8
0
 62
7
  6
CONTINUOUS
 10
354.1865300259
 20
152.7963492856
  0
VERTEX
  8
0
 62
7
  6
CONTINUOUS
 10
354.1029226117
 20
152.7727816033
  0
VERTEX
  8
0
 62
7
  6
CONTINUOUS
 10
354.0185671891
 20
152.7505596811
  0
VERTEX
  8
0
 62
7
  6
CONTINUOUS
 10
353.9334744083
 20
152.7297058925
  0
SEQEND
  0
POLYLINE
  8
0
 62
7
  6
CONTINUOUS
 66
1
 70
0
  0
VERTEX
  8
0
 62
7
  6
CONTINUOUS
 10
354.528138618
 20
152.8014210543
  0
VERTEX
  8
0
 62
7
  6
CONTINUOUS
 10
354.6604851285
 20
152.9224920677
  0
VERTEX
  8
0
 62
7
  6
CONTINUOUS
 10
354.7215796636
 20
152.9854166142
  0
SEQEND
  0
LINE
  8
0
 62
7
  6
CONTINUOUS
 10
354.6184419573
 20
152.9436850643
 11
354.5477585401
 21
152.8838843913
  0
LINE
  8
0
 62
7
  6
CONTINUOUS
 10
354.3929691939
 20
152.6926645172
 11
354.528138618
 21
152.8014210543
  0
POLYLINE
  8
0
 62
7
  6
CONTINUOUS
 66
1
 70
0
  0
VERTEX
  8
0
 62
7
  6
CONTINUOUS
 10
354.5477585401
 20
152.8838843913
  0
VERTEX
  8
0
 62
7
  6
CONTINUOUS
 10
354.3927994908
 20
152.7723233872
  0
VERTEX
  8
0
 62
7
  6
CONTINUOUS
 10
354.2354000106
 20
152.6771142447
  0
VERTEX
  8
0
 62
7
  6
CONTINUOUS
 10
354.0759421009
 20
152.5978290099
  0
VERTEX
  8
0
 62
7
  6
CONTINUOUS
 10
354.0628402703
 20
152.5926189395
  0
SEQEND
  0
LINE
  8
0
 62
7
  6
CONTINUOUS
 10
354.2550899176
 20
152.5965606762
 11
354.3929691939
 21
152.6926645172
  0
LINE
  8
0
 62
7
  6
CONTINUOUS
 10
353.9463554412
 20
152.5954615395
 11
353.9453770086
 21
152.5940945533
  0
POLYLINE
  8
0
 62
7
  6
CONTINUOUS
 66
1
 70
0
  0
VERTEX
  8
0
 62
7
  6
CONTINUOUS
 10
368.2514313049
 20
558.6357523101
  0
VERTEX
  8
0
 62
7
  6
CONTINUOUS
 10
368.2541797047
 20
558.8478121853
  0
VERTEX
  8
0
 62
7
  6
CONTINUOUS
 10
368.2501749779
 20
559.0992012312
  0
VERTEX
  8
0
 62
7
  6
CONTINUOUS
 10
368.2382928922
 20
559.3503566724
  0
VERTEX
  8
0
 62
7
  6
CONTINUOUS
 10
368.2189908326
 20
559.5962673081
  0
SEQEND
  0
POLYLINE
  8
0
 62
7
  6
CONTINUOUS
 66
1
 70
0
  0
VERTEX
  8
0
 62
7
  6
CONTINUOUS
 10
367.2184058113
 20
518.4108568487
  0
VERTEX
  8
0
 62
7
  6
CONTINUOUS
 10
367.2207945878
 20
518.5823952097
  0
VERTEX
  8
0
 62
7
  6
CONTINUOUS
 10
367.2180403271
 20
518.7907242507
  0
VERTEX
  8
0
 62
7
  6
CONTINUOUS
 10
367.2090893746
 20
518.9988692332
  0
VERTEX
  8
0
 62
7
  6
CONTINUOUS
 10
367.1939504424
 20
519.2066478208
  0
VERTEX
  8
0
 62
7
  6
CONTINUOUS
 10
367.1726339408
 20
519.413877168
  0
VERTEX
  8
0
 62
7
  6
CONTINUOUS
 10
367.1451610278
 20
519.6203753106
  0
VERTEX
  8
0
 62
7
  6
CONTINUOUS
 10
367.1115566686
 20
519.8259605789
  0
VERTEX
  8
0
 62
7
  6
CONTINUOUS
 10
367.071846902
 20
520.0304515482
  0
VERTEX
  8
0
 62
7
  6
CONTINUOUS
 10
367.0260696898
 20
520.2336692659
  0
VERTEX
  8
0
 62
7
  6
CONTINUOUS
 10
366.9742697033
 20
520.435436112
  0
VERTEX
  8
0
 62
7
  6
CONTINUOUS
 10
366.9164914438
 20
520.6355747593
  0
VERTEX
  8
0
 62
7
  6
CONTINUOUS
 10
366.8527806386
 20
520.8339069077
  0
VERTEX
  8
0
 62
7
  6
CONTINUOUS
 10
366.7831929696
 20
521.0302588235
  0
VERTEX
  8
0
 62
7
  6
CONTINUOUS
 10
366.7077922053
 20
521.2244536345
  0
VERTEX
  8
0
 62
7
  6
CONTINUOUS
 10
366.626645645
 20
521.4163177621
  0
VERTEX
  8
0
 62
7
  6
CONTINUOUS
 10
366.5398294263
 20
521.6056799711
  0
VERTEX
  8
0
 62
7
  6
CONTINUOUS
 10
366.4474210976
 20
521.7923695487
  0
VERTEX
  8
0
 62
7
  6
CONTINUOUS
 10
366.3495006552
 20
521.976218983
  0
VERTEX
  8
0
 62
7
  6
CONTINUOUS
 10
366.2461595087
 20
522.1570639765
  0
VERTEX
  8
0
 62
7
  6
CONTINUOUS
 10
366.1374878673
 20
522.3347473923
  0
VERTEX
  8
0
 62
7
  6
CONTINUOUS
 10
366.0235788034
 20
522.5091114771
  0
VERTEX
  8
0
 62
7
  6
CONTINUOUS
 10
365.9045354495
 20
522.6800071785
  0
VERTEX
  8
0
 62
7
  6
CONTINUOUS
 10
365.7804646442
 20
522.8472875465
  0
VERTEX
  8
0
 62
7
  6
CONTINUOUS
 10
365.6514732728
 20
523.0108050726
  0
VERTEX
  8
0
 62
7
  6
CONTINUOUS
 10
365.5176694254
 20
523.170413829
  0
VERTEX
  8
0
 62
7
  6
CONTINUOUS
 10
365.3791720819
 20
523.3259746068
  0
VERTEX
  8
0
 62
7
  6
CONTINUOUS
 10
365.236103493
 20
523.4773513027
  0
VERTEX
  8
0
 62
7
  6
CONTINUOUS
 10
365.0885867861
 20
523.6244082917
  0
VERTEX
  8
0
 62
7
  6
CONTINUOUS
 10
364.9367524904
 20
523.767018142
  0
VERTEX
  8
0
 62
7
  6
CONTINUOUS
 10
364.7807368664
 20
523.905056546
  0
VERTEX
  8
0
 62
7
  6
CONTINUOUS
 10
364.6206744956
 20
524.0384006283
  0
VERTEX
  8
0
 62
7
  6
CONTINUOUS
 10
364.4567064114
 20
524.166923918
  0
VERTEX
  8
0
 62
7
  6
CONTINUOUS
 10
364.2889808209
 20
524.2905125524
  0
VERTEX
  8
0
 62
7
  6
CONTINUOUS
 10
364.1176527486
 20
524.4090583849
  0
VERTEX
  8
0
 62
7
  6
CONTINUOUS
 10
363.9428777631
 20
524.5224536738
  0
VERTEX
  8
0
 62
7
  6
CONTINUOUS
 10
363.7648099936
 20
524.6305932185
  0
VERTEX
  8
0
 62
7
  6
CONTINUOUS
 10
363.5836119415
 20
524.7333791189
  0
VERTEX
  8
0
 62
7
  6
CONTINUOUS
 10
363.3994407413
 20
524.8307242266
  0
VERTEX
  8
0
 62
7
  6
CONTINUOUS
 10
363.2124585652
 20
524.9225444891
  0
VERTEX
  8
0
 62
7
  6
CONTINUOUS
 10
363.0228280421
 20
525.0087625854
  0
VERTEX
  8
0
 62
7
  6
CONTINUOUS
 10
362.8307120508
 20
525.0893014394
  0
VERTEX
  8
0
 62
7
  6
CONTINUOUS
 10
362.6362783218
 20
525.1640898387
  0
VERTEX
  8
0
 62
7
  6
CONTINUOUS
 10
362.4396947475
 20
525.2330630519
  0
VERTEX
  8
0
 62
7
  6
CONTINUOUS
 10
362.2411378844
 20
525.296156765
  0
VERTEX
  8
0
 62
7
  6
CONTINUOUS
 10
362.0407851255
 20
525.3533174031
  0
VERTEX
  8
0
 62
7
  6
CONTINUOUS
 10
361.8388164711
 20
525.4044929107
  0
VERTEX
  8
0
 62
7
  6
CONTINUOUS
 10
361.6354120901
 20
525.4496337956
  0
VERTEX
  8
0
 62
7
  6
CONTINUOUS
 10
361.4307549031
 20
525.4887016145
  0
VERTEX
  8
0
 62
7
  6
CONTINUOUS
 10
361.2250287418
 20
525.5216615686
  0
VERTEX
  8
0
 62
7
  6
CONTINUOUS
 10
361.0184176542
 20
525.5484806615
  0
VERTEX
  8
0
 62
7
  6
CONTINUOUS
 10
360.8111072424
 20
525.5691387661
  0
VERTEX
  8
0
 62
7
  6
CONTINUOUS
 10
360.6032838938
 20
525.5836222336
  0
VERTEX
  8
0
 62
7
  6
CONTINUOUS
 10
360.3951351321
 20
525.5919177117
  0
VERTEX
  8
0
 62
7
  6
CONTINUOUS
 10
360.2205993344
 20
525.5940950443
  0
SEQEND
  0
LINE
  8
0
 62
7
  6
CONTINUOUS
 10
367.5646751994
 20
532.4109477004
 11
368.2514310821
 21
558.6357523159
  0
LINE
  8
0
 62
7
  6
CONTINUOUS
 10
357.7651481432
 20
157.4240246711
 11
367.2184055004
 21
518.4108518919
  0
POLYLINE
  8
0
 62
7
  6
CONTINUOUS
 66
1
 70
0
  0
VERTEX
  8
0
 62
7
  6
CONTINUOUS
 10
357.7651479426
 20
157.4240204136
  0
VERTEX
  8
0
 62
7
  6
CONTINUOUS
 10
357.7619071497
 20
157.332392203
  0
VERTEX
  8
0
 62
7
  6
CONTINUOUS
 10
357.7569891244
 20
157.2409085568
  0
VERTEX
  8
0
 62
7
  6
CONTINUOUS
 10
357.7503986032
 20
157.1495946325
  0
VERTEX
  8
0
 62
7
  6
CONTINUOUS
 10
357.7421446617
 20
157.0585242517
  0
VERTEX
  8
0
 62
7
  6
CONTINUOUS
 10
357.7322386714
 20
156.9677572132
  0
VERTEX
  8
0
 62
7
  6
CONTINUOUS
 10
357.7206941949
 20
156.8773490404
  0
VERTEX
  8
0
 62
7
  6
CONTINUOUS
 10
357.707527394
 20
156.7873559471
  0
VERTEX
  8
0
 62
7
  6
CONTINUOUS
 10
357.692756669
 20
156.6978319618
  0
VERTEX
  8
0
 62
7
  6
CONTINUOUS
 10
357.6764028957
 20
156.6088311931
  0
VERTEX
  8
0
 62
7
  6
CONTINUOUS
 10
357.6584889042
 20
156.5204048399
  0
VERTEX
  8
0
 62
7
  6
CONTINUOUS
 10
357.6390399128
 20
156.432604246
  0
VERTEX
  8
0
 62
7
  6
CONTINUOUS
 10
357.6180827822
 20
156.3454773567
  0
VERTEX
  8
0
 62
7
  6
CONTINUOUS
 10
357.5956466576
 20
156.259072299
  0
VERTEX
  8
0
 62
7
  6
CONTINUOUS
 10
357.5717619609
 20
156.1734333273
  0
VERTEX
  8
0
 62
7
  6
CONTINUOUS
 10
357.5464612803
 20
156.088604917
  0
VERTEX
  8
0
 62
7
  6
CONTINUOUS
 10
357.5197780974
 20
156.0046273252
  0
VERTEX
  8
0
 62
7
  6
CONTINUOUS
 10
357.49174793
 20
155.9215410613
  0
VERTEX
  8
0
 62
7
  6
CONTINUOUS
 10
357.4624067844
 20
155.8393821362
  0
VERTEX
  8
0
 62
7
  6
CONTINUOUS
 10
357.4317925663
 20
155.7581868491
  0
VERTEX
  8
0
 62
7
  6
CONTINUOUS
 10
357.399943258
 20
155.6779868018
  0
VERTEX
  8
0
 62
7
  6
CONTINUOUS
 10
357.3668985947
 20
155.5988139127
  0
VERTEX
  8
0
 62
7
  6
CONTINUOUS
 10
357.3326979962
 20
155.5206953178
  0
VERTEX
  8
0
 62
7
  6
CONTINUOUS
 10
357.2973824829
 20
155.4436584908
  0
VERTEX
  8
0
 62
7
  6
CONTINUOUS
 10
357.2609923816
 20
155.3677261064
  0
VERTEX
  8
0
 62
7
  6
CONTINUOUS
 10
357.2235694693
 20
155.2929212027
  0
VERTEX
  8
0
 62
7
  6
CONTINUOUS
 10
357.1851544701
 20
155.219262059
  0
VERTEX
  8
0
 62
7
  6
CONTINUOUS
 10
357.1457894043
 20
155.1467673374
  0
VERTEX
  8
0
 62
7
  6
CONTINUOUS
 10
357.1055149313
 20
155.0754510799
  0
VERTEX
  8
0
 62
7
  6
CONTINUOUS
 10
357.0643728512
 20
155.0053277204
  0
VERTEX
  8
0
 62
7
  6
CONTINUOUS
 10
357.0224033335
 20
154.9364072624
  0
VERTEX
  8
0
 62
7
  6
CONTINUOUS
 10
356.9796475401
 20
154.8687001132
  0
VERTEX
  8
0
 62
7
  6
CONTINUOUS
 10
356.9361447656
 20
154.8022124685
  0
VERTEX
  8
0
 62
7
  6
CONTINUOUS
 10
356.8919351541
 20
154.7369509394
  0
VERTEX
  8
0
 62
7
  6
CONTINUOUS
 10
356.847056796
 20
154.6729181898
  0
VERTEX
  8
0
 62
7
  6
CONTINUOUS
 10
356.8015484911
 20
154.6101173031
  0
VERTEX
  8
0
 62
7
  6
CONTINUOUS
 10
356.7554468517
 20
154.5485477174
  0
VERTEX
  8
0
 62
7
  6
CONTINUOUS
 10
356.7087890636
 20
154.4882092877
  0
VERTEX
  8
0
 62
7
  6
CONTINUOUS
 10
356.66161004
 20
154.4290985483
  0
VERTEX
  8
0
 62
7
  6
CONTINUOUS
 10
356.6139451507
 20
154.3712124579
  0
VERTEX
  8
0
 62
7
  6
CONTINUOUS
 10
356.5658274033
 20
154.3145449315
  0
VERTEX
  8
0
 62
7
  6
CONTINUOUS
 10
356.5172901276
 20
154.2590902892
  0
VERTEX
  8
0
 62
7
  6
CONTINUOUS
 10
356.4683643803
 20
154.2048402509
  0
VERTEX
  8
0
 62
7
  6
CONTINUOUS
 10
356.4190812733
 20
154.1517867618
  0
VERTEX
  8
0
 62
7
  6
CONTINUOUS
 10
356.3694702148
 20
154.0999200589
  0
VERTEX
  8
0
 62
7
  6
CONTINUOUS
 10
356.3195595271
 20
154.0492294777
  0
VERTEX
  8
0
 62
7
  6
CONTINUOUS
 10
356.2693796068
 20
153.9997067588
  0
SEQEND
  0
POLYLINE
  8
0
 62
7
  6
CONTINUOUS
 66
1
 70
0
  0
VERTEX
  8
0
 62
7
  6
CONTINUOUS
 10
361.9159351501
 20
143.8968248789
  0
VERTEX
  8
0
 62
7
  6
CONTINUOUS
 10
361.9288775711
 20
144.0652036306
  0
VERTEX
  8
0
 62
7
  6
CONTINUOUS
 10
361.9396891129
 20
144.2669658425
  0
VERTEX
  8
0
 62
7
  6
CONTINUOUS
 10
361.9454013957
 20
144.468927034
  0
VERTEX
  8
0
 62
7
  6
CONTINUOUS
 10
361.9460099697
 20
144.6709594963
  0
VERTEX
  8
0
 62
7
  6
CONTINUOUS
 10
361.9415153863
 20
144.8729352211
  0
VERTEX
  8
0
 62
7
  6
CONTINUOUS
 10
361.9319245846
 20
145.0747263848
  0
VERTEX
  8
0
 62
7
  6
CONTINUOUS
 10
361.9172448844
 20
145.2762052197
  0
VERTEX
  8
0
 62
7
  6
CONTINUOUS
 10
361.8974835295
 20
145.4772439016
  0
VERTEX
  8
0
 62
7
  6
CONTINUOUS
 10
361.8726504677
 20
145.677714878
  0
VERTEX
  8
0
 62
7
  6
CONTINUOUS
 10
361.8427641079
 20
145.8774914854
  0
VERTEX
  8
0
 62
7
  6
CONTINUOUS
 10
361.8078444151
 20
146.0764471883
  0
VERTEX
  8
0
 62
7
  6
CONTINUOUS
 10
361.7679118986
 20
146.2744556114
  0
VERTEX
  8
0
 62
7
  6
CONTINUOUS
 10
361.7229932
 20
146.4713916993
  0
VERTEX
  8
0
 62
7
  6
CONTINUOUS
 10
361.6731184164
 20
146.6671310829
  0
VERTEX
  8
0
 62
7
  6
CONTINUOUS
 10
361.6183176307
 20
146.8615495235
  0
VERTEX
  8
0
 62
7
  6
CONTINUOUS
 10
361.5586244391
 20
147.0545232343
  0
VERTEX
  8
0
 62
7
  6
CONTINUOUS
 10
361.4940775987
 20
147.2459299738
  0
VERTEX
  8
0
 62
7
  6
CONTINUOUS
 10
361.4247168439
 20
147.4356475729
  0
VERTEX
  8
0
 62
7
  6
CONTINUOUS
 10
361.350587374
 20
147.6235560166
  0
VERTEX
  8
0
 62
7
  6
CONTINUOUS
 10
361.2717377087
 20
147.8095365546
  0
VERTEX
  8
0
 62
7
  6
CONTINUOUS
 10
361.1882164426
 20
147.9934703904
  0
VERTEX
  8
0
 62
7
  6
CONTINUOUS
 10
361.1000748715
 20
148.1752400975
  0
VERTEX
  8
0
 62
7
  6
CONTINUOUS
 10
361.0073689978
 20
148.3547298977
  0
VERTEX
  8
0
 62
7
  6
CONTINUOUS
 10
360.9101553302
 20
148.5318252379
  0
VERTEX
  8
0
 62
7
  6
CONTINUOUS
 10
360.8084967852
 20
148.7064149115
  0
VERTEX
  8
0
 62
7
  6
CONTINUOUS
 10
360.7024602477
 20
148.8783901997
  0
VERTEX
  8
0
 62
7
  6
CONTINUOUS
 10
360.5921126085
 20
149.047642306
  0
VERTEX
  8
0
 62
7
  6
CONTINUOUS
 10
360.4775207099
 20
149.2140622988
  0
VERTEX
  8
0
 62
7
  6
CONTINUOUS
 10
360.3587524582
 20
149.3775428871
  0
VERTEX
  8
0
 62
7
  6
CONTINUOUS
 10
360.2358855034
 20
149.5379797339
  0
VERTEX
  8
0
 62
7
  6
CONTINUOUS
 10
360.1089988588
 20
149.695271748
  0
VERTEX
  8
0
 62
7
  6
CONTINUOUS
 10
359.978174741
 20
149.8493143653
  0
VERTEX
  8
0
 62
7
  6
CONTINUOUS
 10
359.8434977073
 20
150.000006627
  0
VERTEX
  8
0
 62
7
  6
CONTINUOUS
 10
359.7050552938
 20
150.1472495688
  0
VERTEX
  8
0
 62
7
  6
CONTINUOUS
 10
359.5629364536
 20
150.2909456198
  0
VERTEX
  8
0
 62
7
  6
CONTINUOUS
 10
359.4172361231
 20
150.4310035064
  0
VERTEX
  8
0
 62
7
  6
CONTINUOUS
 10
359.2680520739
 20
150.5673335266
  0
VERTEX
  8
0
 62
7
  6
CONTINUOUS
 10
359.1154798171
 20
150.6998483773
  0
VERTEX
  8
0
 62
7
  6
CONTINUOUS
 10
358.9596159093
 20
150.8284599826
  0
VERTEX
  8
0
 62
7
  6
CONTINUOUS
 10
358.8005580741
 20
150.9530849916
  0
VERTEX
  8
0
 62
7
  6
CONTINUOUS
 10
358.6384109848
 20
151.0736478283
  0
VERTEX
  8
0
 62
7
  6
CONTINUOUS
 10
358.4732802497
 20
151.1900741733
  0
VERTEX
  8
0
 62
7
  6
CONTINUOUS
 10
358.3052716066
 20
151.3022896425
  0
VERTEX
  8
0
 62
7
  6
CONTINUOUS
 10
358.1344902959
 20
151.4102204205
  0
VERTEX
  8
0
 62
7
  6
CONTINUOUS
 10
357.9610454864
 20
151.5137973457
  0
VERTEX
  8
0
 62
7
  6
CONTINUOUS
 10
357.7850477821
 20
151.6129586746
  0
VERTEX
  8
0
 62
7
  6
CONTINUOUS
 10
357.6066086292
 20
151.7076424421
  0
VERTEX
  8
0
 62
7
  6
CONTINUOUS
 10
357.42583908
 20
151.7977874909
  0
VERTEX
  8
0
 62
7
  6
CONTINUOUS
 10
357.2428532641
 20
151.8833385882
  0
VERTEX
  8
0
 62
7
  6
CONTINUOUS
 10
357.0577669988
 20
151.9642438388
  0
VERTEX
  8
0
 62
7
  6
CONTINUOUS
 10
356.8706955277
 20
152.0404514787
  0
VERTEX
  8
0
 62
7
  6
CONTINUOUS
 10
356.6817573724
 20
152.1119116539
  0
VERTEX
  8
0
 62
7
  6
CONTINUOUS
 10
356.4910716541
 20
152.1785793889
  0
VERTEX
  8
0
 62
7
  6
CONTINUOUS
 10
356.2987609325
 20
152.2404096075
  0
VERTEX
  8
0
 62
7
  6
CONTINUOUS
 10
356.1049491351
 20
152.2973645185
  0
VERTEX
  8
0
 62
7
  6
CONTINUOUS
 10
355.9097617839
 20
152.3494105666
  0
VERTEX
  8
0
 62
7
  6
CONTINUOUS
 10
355.7133243659
 20
152.3965143805
  0
VERTEX
  8
0
 62
7
  6
CONTINUOUS
 10
355.5157624746
 20
152.4386426697
  0
VERTEX
  8
0
 62
7
  6
CONTINUOUS
 10
355.3172021087
 20
152.4757645638
  0
VERTEX
  8
0
 62
7
  6
CONTINUOUS
 10
355.1177715967
 20
152.5078599734
  0
VERTEX
  8
0
 62
7
  6
CONTINUOUS
 10
355.0162382179
 20
152.5222243804
  0
SEQEND
  0
LINE
  8
0
 62
7
  6
CONTINUOUS
 10
325.9959269745
 20
-266.6673748089
 11
361.9159354958
 21
143.8968248486
  0
POLYLINE
  8
0
 62
7
  6
CONTINUOUS
 66
1
 70
0
  0
VERTEX
  8
0
 62
7
  6
CONTINUOUS
 10
353.9334744083
 20
152.7297058925
  0
VERTEX
  8
0
 62
7
  6
CONTINUOUS
 10
353.936822643
 20
152.7040799816
  0
VERTEX
  8
0
 62
7
  6
CONTINUOUS
 10
353.9396937829
 20
152.6811104362
  0
VERTEX
  8
0
 62
7
  6
CONTINUOUS
 10
353.9420887103
 20
152.660789312
  0
VERTEX
  8
0
 62
7
  6
CONTINUOUS
 10
353.9440047785
 20
152.6431404422
  0
VERTEX
  8
0
 62
7
  6
CONTINUOUS
 10
353.9454398611
 20
152.6281815906
  0
VERTEX
  8
0
 62
7
  6
CONTINUOUS
 10
353.9463932798
 20
152.6159230206
  0
VERTEX
  8
0
 62
7
  6
CONTINUOUS
 10
353.9468635254
 20
152.6063793565
  0
VERTEX
  8
0
 62
7
  6
CONTINUOUS
 10
353.946850964
 20
152.5995552794
  0
VERTEX
  8
0
 62
7
  6
CONTINUOUS
 10
353.9463554412
 20
152.5954615395
  0
SEQEND
  0
POLYLINE
  8
0
 62
7
  6
CONTINUOUS
 66
1
 70
0
  0
VERTEX
  8
0
 62
7
  6
CONTINUOUS
 10
368.2189925088
 20
559.5962686888
  0
VERTEX
  8
0
 62
7
  6
CONTINUOUS
 10
368.2066014142
 20
559.7267764253
  0
VERTEX
  8
0
 62
7
  6
CONTINUOUS
 10
368.1936721624
 20
559.8601207809
  0
VERTEX
  8
0
 62
7
  6
CONTINUOUS
 10
368.1807647855
 20
559.9904119819
  0
VERTEX
  8
0
 62
7
  6
CONTINUOUS
 10
368.1678720752
 20
560.1177912489
  0
VERTEX
  8
0
 62
7
  6
CONTINUOUS
 10
368.1549889491
 20
560.242372028
  0
VERTEX
  8
0
 62
7
  6
CONTINUOUS
 10
368.1421097618
 20
560.3642677145
  0
VERTEX
  8
0
 62
7
  6
CONTINUOUS
 10
368.1292287721
 20
560.4835870776
  0
VERTEX
  8
0
 62
7
  6
CONTINUOUS
 10
368.1163396078
 20
560.6004392704
  0
VERTEX
  8
0
 62
7
  6
CONTINUOUS
 10
368.1034358307
 20
560.7149285518
  0
VERTEX
  8
0
 62
7
  6
CONTINUOUS
 10
368.09051017
 20
560.8271610423
  0
VERTEX
  8
0
 62
7
  6
CONTINUOUS
 10
368.0775552953
 20
560.9372377333
  0
VERTEX
  8
0
 62
7
  6
CONTINUOUS
 10
368.0645629955
 20
561.0452614637
  0
VERTEX
  8
0
 62
7
  6
CONTINUOUS
 10
368.0515249989
 20
561.1513298171
  0
VERTEX
  8
0
 62
7
  6
CONTINUOUS
 10
368.0384319467
 20
561.2555434406
  0
VERTEX
  8
0
 62
7
  6
CONTINUOUS
 10
368.0252744466
 20
561.3579972791
  0
VERTEX
  8
0
 62
7
  6
CONTINUOUS
 10
368.012041792
 20
561.4587904952
  0
VERTEX
  8
0
 62
7
  6
CONTINUOUS
 10
367.9987232651
 20
561.5580160768
  0
VERTEX
  8
0
 62
7
  6
CONTINUOUS
 10
367.985306564
 20
561.6557724732
  0
VERTEX
  8
0
 62
7
  6
CONTINUOUS
 10
367.9717793881
 20
561.7521514693
  0
VERTEX
  8
0
 62
7
  6
CONTINUOUS
 10
367.9581275578
 20
561.84725147
  0
VERTEX
  8
0
 62
7
  6
CONTINUOUS
 10
367.9443369344
 20
561.9411634631
  0
VERTEX
  8
0
 62
7
  6
CONTINUOUS
 10
367.9303910007
 20
562.0339873315
  0
VERTEX
  8
0
 62
7
  6
CONTINUOUS
 10
367.9162733356
 20
562.1258144926
  0
VERTEX
  8
0
 62
7
  6
CONTINUOUS
 10
367.9019645828
 20
562.2167474096
  0
VERTEX
  8
0
 62
7
  6
CONTINUOUS
 10
367.8874454631
 20
562.3068793557
  0
VERTEX
  8
0
 62
7
  6
CONTINUOUS
 10
367.8726933288
 20
562.3963155545
  0
VERTEX
  8
0
 62
7
  6
CONTINUOUS
 10
367.8576841168
 20
562.4851598019
  0
VERTEX
  8
0
 62
7
  6
CONTINUOUS
 10
367.842395464
 20
562.573496184
  0
VERTEX
  8
0
 62
7
  6
CONTINUOUS
 10
367.8268020825
 20
562.6614165405
  0
VERTEX
  8
0
 62
7
  6
CONTINUOUS
 10
367.8108804508
 20
562.7489934663
  0
VERTEX
  8
0
 62
7
  6
CONTINUOUS
 10
367.7946054122
 20
562.8363000748
  0
VERTEX
  8
0
 62
7
  6
CONTINUOUS
 10
367.7779473946
 20
562.9234237836
  0
VERTEX
  8
0
 62
7
  6
CONTINUOUS
 10
367.7608765682
 20
563.0104430446
  0
VERTEX
  8
0
 62
7
  6
CONTINUOUS
 10
367.7433574038
 20
563.09745449
  0
VERTEX
  8
0
 62
7
  6
CONTINUOUS
 10
367.7253541403
 20
563.1845438309
  0
VERTEX
  8
0
 62
7
  6
CONTINUOUS
 10
367.7068240106
 20
563.2718179469
  0
VERTEX
  8
0
 62
7
  6
CONTINUOUS
 10
367.6877239492
 20
563.3593709525
  0
VERTEX
  8
0
 62
7
  6
CONTINUOUS
 10
367.6680023263
 20
563.4473212728
  0
VERTEX
  8
0
 62
7
  6
CONTINUOUS
 10
367.647607145
 20
563.5357722967
  0
VERTEX
  8
0
 62
7
  6
CONTINUOUS
 10
367.6264757439
 20
563.6248560475
  0
VERTEX
  8
0
 62
7
  6
CONTINUOUS
 10
367.604545065
 20
563.7146864952
  0
VERTEX
  8
0
 62
7
  6
CONTINUOUS
 10
367.5817385941
 20
563.8054118122
  0
VERTEX
  8
0
 62
7
  6
CONTINUOUS
 10
367.5579793107
 20
563.8971586612
  0
VERTEX
  8
0
 62
7
  6
CONTINUOUS
 10
367.5331735076
 20
563.9900931844
  0
VERTEX
  8
0
 62
7
  6
CONTINUOUS
 10
367.5072267848
 20
564.0843560056
  0
VERTEX
  8
0
 62
7
  6
CONTINUOUS
 10
367.4800237874
 20
564.1801339833
  0
VERTEX
  8
0
 62
7
  6
CONTINUOUS
 10
367.4514458885
 20
564.2775913346
  0
VERTEX
  8
0
 62
7
  6
CONTINUOUS
 10
367.4213574762
 20
564.376914734
  0
VERTEX
  8
0
 62
7
  6
CONTINUOUS
 10
367.3896137855
 20
564.4782820826
  0
VERTEX
  8
0
 62
7
  6
CONTINUOUS
 10
367.3560616326
 20
564.5818582258
  0
VERTEX
  8
0
 62
7
  6
CONTINUOUS
 10
367.3205384984
 20
564.6877962259
  0
VERTEX
  8
0
 62
7
  6
CONTINUOUS
 10
367.2828563534
 20
564.7962814941
  0
VERTEX
  8
0
 62
7
  6
CONTINUOUS
 10
367.2428197792
 20
564.9074728546
  0
VERTEX
  8
0
 62
7
  6
CONTINUOUS
 10
367.2002027475
 20
565.021563717
  0
VERTEX
  8
0
 62
7
  6
CONTINUOUS
 10
367.1547694767
 20
565.138718315
  0
VERTEX
  8
0
 62
7
  6
CONTINUOUS
 10
367.1062513267
 20
565.2591277599
  0
VERTEX
  8
0
 62
7
  6
CONTINUOUS
 10
367.0543658451
 20
565.38295462
  0
VERTEX
  8
0
 62
7
  6
CONTINUOUS
 10
366.9987981492
 20
565.510373546
  0
VERTEX
  8
0
 62
7
  6
CONTINUOUS
 10
366.9392133745
 20
565.6415350481
  0
VERTEX
  8
0
 62
7
  6
CONTINUOUS
 10
366.8752508779
 20
565.7765744027
  0
VERTEX
  8
0
 62
7
  6
CONTINUOUS
 10
366.8065133532
 20
565.915627986
  0
VERTEX
  8
0
 62
7
  6
CONTINUOUS
 10
366.7326243439
 20
566.0587149422
  0
VERTEX
  8
0
 62
7
  6
CONTINUOUS
 10
366.6531499926
 20
566.2058943053
  0
VERTEX
  8
0
 62
7
  6
CONTINUOUS
 10
366.567722524
 20
566.3570339991
  0
VERTEX
  8
0
 62
7
  6
CONTINUOUS
 10
366.4759093708
 20
566.5120596552
  0
VERTEX
  8
0
 62
7
  6
CONTINUOUS
 10
366.3773639553
 20
566.6706972437
  0
VERTEX
  8
0
 62
7
  6
CONTINUOUS
 10
366.2716846198
 20
566.8327220848
  0
VERTEX
  8
0
 62
7
  6
CONTINUOUS
 10
366.1585507293
 20
566.9977480056
  0
VERTEX
  8
0
 62
7
  6
CONTINUOUS
 10
366.037614653
 20
567.1654056539
  0
VERTEX
  8
0
 62
7
  6
CONTINUOUS
 10
365.9085618503
 20
567.335257178
  0
VERTEX
  8
0
 62
7
  6
CONTINUOUS
 10
365.7710460073
 20
567.5068871282
  0
VERTEX
  8
0
 62
7
  6
CONTINUOUS
 10
365.6248645052
 20
567.6796900542
  0
VERTEX
  8
0
 62
7
  6
CONTINUOUS
 10
365.4697662191
 20
567.8531245633
  0
VERTEX
  8
0
 62
7
  6
CONTINUOUS
 10
365.3056850641
 20
568.02645545
  0
VERTEX
  8
0
 62
7
  6
CONTINUOUS
 10
365.1325520147
 20
568.1989874344
  0
VERTEX
  8
0
 62
7
  6
CONTINUOUS
 10
364.9503530584
 20
568.3700052828
  0
VERTEX
  8
0
 62
7
  6
CONTINUOUS
 10
364.7591313299
 20
568.5387811366
  0
VERTEX
  8
0
 62
7
  6
CONTINUOUS
 10
364.5589098281
 20
568.7046450629
  0
VERTEX
  8
0
 62
7
  6
CONTINUOUS
 10
364.3497715579
 20
568.8669125052
  0
VERTEX
  8
0
 62
7
  6
CONTINUOUS
 10
364.1318429571
 20
569.024904581
  0
VERTEX
  8
0
 62
7
  6
CONTINUOUS
 10
363.905342096
 20
569.1779205113
  0
VERTEX
  8
0
 62
7
  6
CONTINUOUS
 10
363.6703515348
 20
569.3253897678
  0
VERTEX
  8
0
 62
7
  6
CONTINUOUS
 10
363.4270765497
 20
569.4666894131
  0
VERTEX
  8
0
 62
7
  6
CONTINUOUS
 10
363.175599267
 20
569.6012927526
  0
VERTEX
  8
0
 62
7
  6
CONTINUOUS
 10
362.9160952516
 20
569.7286346516
  0
VERTEX
  8
0
 62
7
  6
CONTINUOUS
 10
362.6486907201
 20
569.8481880615
  0
VERTEX
  8
0
 62
7
  6
CONTINUOUS
 10
362.373595445
 20
569.9593975936
  0
VERTEX
  8
0
 62
7
  6
CONTINUOUS
 10
362.0909291593
 20
570.0617517754
  0
VERTEX
  8
0
 62
7
  6
CONTINUOUS
 10
361.8008964051
 20
570.1547070987
  0
VERTEX
  8
0
 62
7
  6
CONTINUOUS
 10
361.503641207
 20
570.2377385961
  0
VERTEX
  8
0
 62
7
  6
CONTINUOUS
 10
361.1993582924
 20
570.3102983707
  0
VERTEX
  8
0
 62
7
  6
CONTINUOUS
 10
360.8882982699
 20
570.371820045
  0
VERTEX
  8
0
 62
7
  6
CONTINUOUS
 10
360.5707007618
 20
570.4217339175
  0
VERTEX
  8
0
 62
7
  6
CONTINUOUS
 10
360.2795324892
 20
570.4562449161
  0
SEQEND
  0
LINE
  8
0
 62
7
  6
CONTINUOUS
 10
201.4393014849
 20
582.0891112239
 11
204.2780538759
 21
578.426548862
  0
POLYLINE
  8
0
 62
7
  6
CONTINUOUS
 66
1
 70
0
  0
VERTEX
  8
0
 62
7
  6
CONTINUOUS
 10
360.5669690229
 20
525.5940940625
  0
VERTEX
  8
0
 62
7
  6
CONTINUOUS
 10
360.7531065658
 20
525.5965695421
  0
VERTEX
  8
0
 62
7
  6
CONTINUOUS
 10
360.9797042328
 20
525.606272285
  0
VERTEX
  8
0
 62
7
  6
CONTINUOUS
 10
361.2058921689
 20
525.6233148602
  0
VERTEX
  8
0
 62
7
  6
CONTINUOUS
 10
361.4314292876
 20
525.6476805113
  0
VERTEX
  8
0
 62
7
  6
CONTINUOUS
 10
361.6560766906
 20
525.6793399752
  0
VERTEX
  8
0
 62
7
  6
CONTINUOUS
 10
361.8795954636
 20
525.7182630192
  0
VERTEX
  8
0
 62
7
  6
CONTINUOUS
 10
362.1017470735
 20
525.7644168393
  0
VERTEX
  8
0
 62
7
  6
CONTINUOUS
 10
362.3222967041
 20
525.8177498715
  0
VERTEX
  8
0
 62
7
  6
CONTINUOUS
 10
362.5410113289
 20
525.8782011708
  0
VERTEX
  8
0
 62
7
  6
CONTINUOUS
 10
362.7576579468
 20
525.9457094106
  0
VERTEX
  8
0
 62
7
  6
CONTINUOUS
 10
362.972005053
 20
526.0202084122
  0
VERTEX
  8
0
 62
7
  6
CONTINUOUS
 10
363.1838256513
 20
526.1016172311
  0
VERTEX
  8
0
 62
7
  6
CONTINUOUS
 10
363.3928948253
 20
526.1898492782
  0
VERTEX
  8
0
 62
7
  6
CONTINUOUS
 10
363.5989918968
 20
526.2848080518
  0
VERTEX
  8
0
 62
7
  6
CONTINUOUS
 10
363.8018970087
 20
526.3863940585
  0
VERTEX
  8
0
 62
7
  6
CONTINUOUS
 10
364.0013959312
 20
526.4945006352
  0
VERTEX
  8
0
 62
7
  6
CONTINUOUS
 10
364.1972778503
 20
526.6090094003
  0
VERTEX
  8
0
 62
7
  6
CONTINUOUS
 10
364.3893385894
 20
526.7298042333
  0
VERTEX
  8
0
 62
7
  6
CONTINUOUS
 10
364.5773784608
 20
526.856758114
  0
VERTEX
  8
0
 62
7
  6
CONTINUOUS
 10
364.7612056583
 20
526.9897346234
  0
VERTEX
  8
0
 62
7
  6
CONTINUOUS
 10
364.9406281619
 20
527.128596943
  0
VERTEX
  8
0
 62
7
  6
CONTINUOUS
 10
365.1154553295
 20
527.2732065827
  0
VERTEX
  8
0
 62
7
  6
CONTINUOUS
 10
365.2855085609
 20
527.4234109408
  0
VERTEX
  8
0
 62
7
  6
CONTINUOUS
 10
365.4506130701
 20
527.5790497355
  0
VERTEX
  8
0
 62
7
  6
CONTINUOUS
 10
365.6105956313
 20
527.7399644888
  0
VERTEX
  8
0
 62
7
  6
CONTINUOUS
 10
365.7652811428
 20
527.9059874972
  0
VERTEX
  8
0
 62
7
  6
CONTINUOUS
 10
365.9145074682
 20
528.0769416997
  0
VERTEX
  8
0
 62
7
  6
CONTINUOUS
 10
366.0581152617
 20
528.2526446208
  0
VERTEX
  8
0
 62
7
  6
CONTINUOUS
 10
366.1959527341
 20
528.4329080274
  0
VERTEX
  8
0
 62
7
  6
CONTINUOUS
 10
366.3278702134
 20
528.61754196
  0
VERTEX
  8
0
 62
7
  6
CONTINUOUS
 10
366.4537275913
 20
528.8063494126
  0
VERTEX
  8
0
 62
7
  6
CONTINUOUS
 10
366.5733977738
 20
528.9991261928
  0
VERTEX
  8
0
 62
7
  6
CONTINUOUS
 10
366.6867538292
 20
529.1956659526
  0
VERTEX
  8
0
 62
7
  6
CONTINUOUS
 10
366.7936731492
 20
529.3957664024
  0
VERTEX
  8
0
 62
7
  6
CONTINUOUS
 10
366.89404458
 20
529.5992167541
  0
VERTEX
  8
0
 62
7
  6
CONTINUOUS
 10
366.987765097
 20
529.8058032831
  0
VERTEX
  8
0
 62
7
  6
CONTINUOUS
 10
367.0747398406
 20
530.0153085511
  0
VERTEX
  8
0
 62
7
  6
CONTINUOUS
 10
367.1548793976
 20
530.2275129078
  0
VERTEX
  8
0
 62
7
  6
CONTINUOUS
 10
367.2280975026
 20
530.4421955449
  0
VERTEX
  8
0
 62
7
  6
CONTINUOUS
 10
367.2943194263
 20
530.6591312917
  0
VERTEX
  8
0
 62
7
  6
CONTINUOUS
 10
367.3534755253
 20
530.8780933546
  0
VERTEX
  8
0
 62
7
  6
CONTINUOUS
 10
367.4055073859
 20
531.0988519832
  0
VERTEX
  8
0
 62
7
  6
CONTINUOUS
 10
367.450359786
 20
531.3211766232
  0
VERTEX
  8
0
 62
7
  6
CONTINUOUS
 10
367.4879844835
 20
531.5448352323
  0
VERTEX
  8
0
 62
7
  6
CONTINUOUS
 10
367.5183442027
 20
531.7695934555
  0
VERTEX
  8
0
 62
7
  6
CONTINUOUS
 10
367.5414038811
 20
531.995216635
  0
VERTEX
  8
0
 62
7
  6
CONTINUOUS
 10
367.5571425253
 20
532.2214693157
  0
VERTEX
  8
0
 62
7
  6
CONTINUOUS
 10
367.5646726967
 20
532.4109477659
  0
SEQEND
  0
POLYLINE
  8
0
 62
7
  6
CONTINUOUS
 66
1
 70
0
  0
VERTEX
  8
0
 62
7
  6
CONTINUOUS
 10
5.4095376833
 20
525.5940950445
  0
VERTEX
  8
0
 62
7
  6
CONTINUOUS
 10
5.2350338359
 20
525.5919185087
  0
VERTEX
  8
0
 62
7
  6
CONTINUOUS
 10
5.0268837463
 20
525.5836239085
  0
VERTEX
  8
0
 62
7
  6
CONTINUOUS
 10
4.8190590482
 20
525.5691412415
  0
VERTEX
  8
0
 62
7
  6
CONTINUOUS
 10
4.6117472685
 20
525.5484838608
  0
VERTEX
  8
0
 62
7
  6
CONTINUOUS
 10
4.4051347981
 20
525.5216654138
  0
VERTEX
  8
0
 62
7
  6
CONTINUOUS
 10
4.1994072429
 20
525.4887060248
  0
VERTEX
  8
0
 62
7
  6
CONTINUOUS
 10
3.9947486537
 20
525.4496386916
  0
VERTEX
  8
0
 62
7
  6
CONTINUOUS
 10
3.7913428654
 20
525.4044982136
  0
VERTEX
  8
0
 62
7
  6
CONTINUOUS
 10
3.5893728027
 20
525.3533230332
  0
VERTEX
  8
0
 62
7
  6
CONTINUOUS
 10
3.3890186366
 20
525.2961626436
  0
VERTEX
  8
0
 62
7
  6
CONTINUOUS
 10
3.1904603704
 20
525.2330691014
  0
VERTEX
  8
0
 62
7
  6
CONTINUOUS
 10
2.9938754015
 20
525.1640959807
  0
VERTEX
  8
0
 62
7
  6
CONTINUOUS
 10
2.7994402894
 20
525.0893075964
  0
VERTEX
  8
0
 62
7
  6
CONTINUOUS
 10
2.6073229301
 20
525.0087686809
  0
VERTEX
  8
0
 62
7
  6
CONTINUOUS
 10
2.4176910577
 20
524.9225504474
  0
VERTEX
  8
0
 62
7
  6
CONTINUOUS
 10
2.2307075534
 20
524.8307299738
  0
VERTEX
  8
0
 62
7
  6
CONTINUOUS
 10
2.0465350501
 20
524.7333845822
  0
VERTEX
  8
0
 62
7
  6
CONTINUOUS
 10
1.8653357241
 20
524.6305983263
  0
VERTEX
  8
0
 62
7
  6
CONTINUOUS
 10
1.6872667135
 20
524.5224583567
  0
VERTEX
  8
0
 62
7
  6
CONTINUOUS
 10
1.5124905224
 20
524.4090625744
  0
VERTEX
  8
0
 62
7
  6
CONTINUOUS
 10
1.3411612801
 20
524.2905161811
  0
VERTEX
  8
0
 62
7
  6
CONTINUOUS
 10
1.1734345571
 20
524.16692692
  0
VERTEX
  8
0
 62
7
  6
CONTINUOUS
 10
1.0094653821
 20
524.0384029397
  0
VERTEX
  8
0
 62
7
  6
CONTINUOUS
 10
0.8494019666
 20
523.9050581047
  0
VERTEX
  8
0
 62
7
  6
CONTINUOUS
 10
0.6933853443
 20
523.7670188866
  0
VERTEX
  8
0
 62
7
  6
CONTINUOUS
 10
0.5415500988
 20
523.624408163
  0
VERTEX
  8
0
 62
7
  6
CONTINUOUS
 10
0.3940324948
 20
523.477350245
  0
VERTEX
  8
0
 62
7
  6
CONTINUOUS
 10
0.2509630651
 20
523.3259725673
  0
VERTEX
  8
0
 62
7
  6
CONTINUOUS
 10
0.1124649379
 20
523.1704107564
  0
VERTEX
  8
0
 62
7
  6
CONTINUOUS
 10
-0.0213396328
 20
523.0108009193
  0
VERTEX
  8
0
 62
7
  6
CONTINUOUS
 10
-0.1503316643
 20
522.847282269
  0
VERTEX
  8
0
 62
7
  6
CONTINUOUS
 10
-0.2744030651
 20
522.6800007343
  0
VERTEX
  8
0
 62
7
  6
CONTINUOUS
 10
-0.3934469479
 20
522.5091038265
  0
VERTEX
  8
0
 62
7
  6
CONTINUOUS
 10
-0.5073564719
 20
522.3347384994
  0
VERTEX
  8
0
 62
7
  6
CONTINUOUS
 10
-0.6160285026
 20
522.1570538106
  0
VERTEX
  8
0
 62
7
  6
CONTINUOUS
 10
-0.7193699664
 20
521.9762075148
  0
VERTEX
  8
0
 62
7
  6
CONTINUOUS
 10
-0.8172906526
 20
521.7923567523
  0
VERTEX
  8
0
 62
7
  6
CONTINUOUS
 10
-0.9096991511
 20
521.6056658244
  0
VERTEX
  8
0
 62
7
  6
CONTINUOUS
 10
-0.9965154644
 20
521.416302245
  0
VERTEX
  8
0
 62
7
  6
CONTINUOUS
 10
-1.0776620428
 20
521.2244367291
  0
VERTEX
  8
0
 62
7
  6
CONTINUOUS
 10
-1.153062748
 20
521.0302405162
  0
VERTEX
  8
0
 62
7
  6
CONTINUOUS
 10
-1.2226502805
 20
520.8338871881
  0
VERTEX
  8
0
 62
7
  6
CONTINUOUS
 10
-1.2863608712
 20
520.6355536202
  0
VERTEX
  8
0
 62
7
  6
CONTINUOUS
 10
-1.3441388385
 20
520.4354135502
  0
VERTEX
  8
0
 62
7
  6
CONTINUOUS
 10
-1.3959384531
 20
520.23364528
  0
VERTEX
  8
0
 62
7
  6
CONTINUOUS
 10
-1.4417152127
 20
520.0304261399
  0
VERTEX
  8
0
 62
7
  6
CONTINUOUS
 10
-1.4814244462
 20
519.8259337546
  0
VERTEX
  8
0
 62
7
  6
CONTINUOUS
 10
-1.515028194
 20
519.6203470817
  0
VERTEX
  8
0
 62
7
  6
CONTINUOUS
 10
-1.542500416
 20
519.4138475486
  0
VERTEX
  8
0
 62
7
  6
CONTINUOUS
 10
-1.5638161469
 20
519.2066168285
  0
VERTEX
  8
0
 62
7
  6
CONTINUOUS
 10
-1.5789542306
 20
518.9988368893
  0
VERTEX
  8
0
 62
7
  6
CONTINUOUS
 10
-1.5879042563
 20
518.79069058
  0
VERTEX
  8
0
 62
7
  6
CONTINUOUS
 10
-1.5906575116
 20
518.5823602407
  0
VERTEX
  8
0
 62
7
  6
CONTINUOUS
 10
-1.5882687933
 20
518.4108568464
  0
SEQEND
  0
LINE
  8
0
 62
7
  6
CONTINUOUS
 10
5.0631679951
 20
525.5940945533
 11
360.5669690227
 21
525.5940945533
  0
LINE
  8
0
 62
7
  6
CONTINUOUS
 10
161.673051643
 20
578.5141896197
 11
155.7370763162
 21
576.8933658517
  0
POLYLINE
  8
0
 62
7
  6
CONTINUOUS
 66
1
 70
0
  0
VERTEX
  8
0
 62
7
  6
CONTINUOUS
 10
181.9861531812
 20
583.4703487126
  0
VERTEX
  8
0
 62
7
  6
CONTINUOUS
 10
182.1621277466
 20
583.5165420284
  0
VERTEX
  8
0
 62
7
  6
CONTINUOUS
 10
182.3083107795
 20
583.5632035492
  0
VERTEX
  8
0
 62
7
  6
CONTINUOUS
 10
182.4236274878
 20
583.6099672365
  0
VERTEX
  8
0
 62
7
  6
CONTINUOUS
 10
182.5070688023
 20
583.6564598787
  0
VERTEX
  8
0
 62
7
  6
CONTINUOUS
 10
182.5577513024
 20
583.7021243482
  0
VERTEX
  8
0
 62
7
  6
CONTINUOUS
 10
182.5747747947
 20
583.7471463542
  0
SEQEND
  0
POLYLINE
  8
0
 62
7
  6
CONTINUOUS
 66
1
 70
0
  0
VERTEX
  8
0
 62
7
  6
CONTINUOUS
 10
181.5496485289
 20
583.3808380234
  0
VERTEX
  8
0
 62
7
  6
CONTINUOUS
 10
181.7813777982
 20
583.4251753495
  0
VERTEX
  8
0
 62
7
  6
CONTINUOUS
 10
181.9861531812
 20
583.4703487126
  0
SEQEND
  0
POLYLINE
  8
0
 62
7
  6
CONTINUOUS
 66
1
 70
0
  0
VERTEX
  8
0
 62
7
  6
CONTINUOUS
 10
180.8785238675
 20
583.2559839833
  0
VERTEX
  8
0
 62
7
  6
CONTINUOUS
 10
181.2209316431
 20
583.3213814194
  0
VERTEX
  8
0
 62
7
  6
CONTINUOUS
 10
181.5496485289
 20
583.3808387752
  0
SEQEND
  0
POLYLINE
  8
0
 62
7
  6
CONTINUOUS
 66
1
 70
0
  0
VERTEX
  8
0
 62
7
  6
CONTINUOUS
 10
5.3506042596
 20
570.4562448887
  0
VERTEX
  8
0
 62
7
  6
CONTINUOUS
 10
5.0577225163
 20
570.4214991111
  0
VERTEX
  8
0
 62
7
  6
CONTINUOUS
 10
4.7401678773
 20
570.371523215
  0
VERTEX
  8
0
 62
7
  6
CONTINUOUS
 10
4.4291567336
 20
570.3099443183
  0
VERTEX
  8
0
 62
7
  6
CONTINUOUS
 10
4.1249273717
 20
570.2373323077
  0
VERTEX
  8
0
 62
7
  6
CONTINUOUS
 10
3.8277293786
 20
570.1542536641
  0
VERTEX
  8
0
 62
7
  6
CONTINUOUS
 10
3.5377565778
 20
570.0612562888
  0
VERTEX
  8
0
 62
7
  6
CONTINUOUS
 10
3.2551520662
 20
569.9588650247
  0
VERTEX
  8
0
 62
7
  6
CONTINUOUS
 10
2.9801195986
 20
569.8476232111
  0
VERTEX
  8
0
 62
7
  6
CONTINUOUS
 10
2.7127780922
 20
569.7280420235
  0
VERTEX
  8
0
 62
7
  6
CONTINUOUS
 10
2.4533367092
 20
569.60067657
  0
VERTEX
  8
0
 62
7
  6
CONTINUOUS
 10
2.2019210114
 20
569.466053499
  0
VERTEX
  8
0
 62
7
  6
CONTINUOUS
 10
1.9587061383
 20
569.3247376014
  0
VERTEX
  8
0
 62
7
  6
CONTINUOUS
 10
1.72377372
 20
569.177255106
  0
VERTEX
  8
0
 62
7
  6
CONTINUOUS
 10
1.4973288404
 20
569.0242286463
  0
VERTEX
  8
0
 62
7
  6
CONTINUOUS
 10
1.2794536646
 20
568.8662282454
  0
VERTEX
  8
0
 62
7
  6
CONTINUOUS
 10
1.0703665695
 20
568.7039546996
  0
VERTEX
  8
0
 62
7
  6
CONTINUOUS
 10
0.8701940972
 20
568.5380867893
  0
VERTEX
  8
0
 62
7
  6
CONTINUOUS
 10
0.679019455
 20
568.3693090811
  0
VERTEX
  8
0
 62
7
  6
CONTINUOUS
 10
0.4968656479
 20
568.1982913693
  0
VERTEX
  8
0
 62
7
  6
CONTINUOUS
 10
0.3237764445
 20
568.0257620346
  0
VERTEX
  8
0
 62
7
  6
CONTINUOUS
 10
0.1597382995
 20
567.8524368019
  0
VERTEX
  8
0
 62
7
  6
CONTINUOUS
 10
0.0046824076
 20
567.6790112765
  0
VERTEX
  8
0
 62
7
  6
CONTINUOUS
 10
-0.1414569665
 20
567.5062212241
  0
VERTEX
  8
0
 62
7
  6
CONTINUOUS
 10
-0.2789310683
 20
567.3346080602
  0
VERTEX
  8
0
 62
7
  6
CONTINUOUS
 10
-0.4079424048
 20
567.1647775704
  0
VERTEX
  8
0
 62
7
  6
CONTINUOUS
 10
-0.5288376393
 20
566.997144893
  0
VERTEX
  8
0
 62
7
  6
CONTINUOUS
 10
-0.6419312386
 20
566.8321481182
  0
VERTEX
  8
0
 62
7
  6
CONTINUOUS
 10
-0.7475717971
 20
566.6701552247
  0
VERTEX
  8
0
 62
7
  6
CONTINUOUS
 10
-0.8460805537
 20
566.511551313
  0
VERTEX
  8
0
 62
7
  6
CONTINUOUS
 10
-0.9378595914
 20
566.3565600694
  0
VERTEX
  8
0
 62
7
  6
CONTINUOUS
 10
-1.0232559731
 20
566.20545427
  0
VERTEX
  8
0
 62
7
  6
CONTINUOUS
 10
-1.1027022392
 20
566.0583077819
  0
VERTEX
  8
0
 62
7
  6
CONTINUOUS
 10
-1.1765663783
 20
565.9152516883
  0
VERTEX
  8
0
 62
7
  6
CONTINUOUS
 10
-1.2452818291
 20
565.776227137
  0
VERTEX
  8
0
 62
7
  6
CONTINUOUS
 10
-1.3092248339
 20
565.6412148444
  0
VERTEX
  8
0
 62
7
  6
CONTINUOUS
 10
-1.3687923947
 20
565.510078533
  0
VERTEX
  8
0
 62
7
  6
CONTINUOUS
 10
-1.4243448959
 20
565.3826830044
  0
VERTEX
  8
0
 62
7
  6
CONTINUOUS
 10
-1.4762169858
 20
565.2588777959
  0
VERTEX
  8
0
 62
7
  6
CONTINUOUS
 10
-1.524723341
 20
565.1384883377
  0
VERTEX
  8
0
 62
7
  6
CONTINUOUS
 10
-1.5701462379
 20
565.021352127
  0
VERTEX
  8
0
 62
7
  6
CONTINUOUS
 10
-1.6127541499
 20
564.9072781431
  0
VERTEX
  8
0
 62
7
  6
CONTINUOUS
 10
-1.65278272
 20
564.7961022174
  0
VERTEX
  8
0
 62
7
  6
CONTINUOUS
 10
-1.6904578448
 20
564.6876310284
  0
VERTEX
  8
0
 62
7
  6
CONTINUOUS
 10
-1.7259748351
 20
564.5817058107
  0
VERTEX
  8
0
 62
7
  6
CONTINUOUS
 10
-1.7595216241
 20
564.4781412123
  0
VERTEX
  8
0
 62
7
  6
CONTINUOUS
 10
-1.7912606293
 20
564.376784279
  0
VERTEX
  8
0
 62
7
  6
CONTINUOUS
 10
-1.8213449571
 20
564.2774702305
  0
VERTEX
  8
0
 62
7
  6
CONTINUOUS
 10
-1.8499192597
 20
564.1800213779
  0
VERTEX
  8
0
 62
7
  6
CONTINUOUS
 10
-1.8771190387
 20
564.0842512954
  0
VERTEX
  8
0
 62
7
  6
CONTINUOUS
 10
-1.9030628909
 20
563.9899957649
  0
VERTEX
  8
0
 62
7
  6
CONTINUOUS
 10
-1.9278661241
 20
563.8970680009
  0
VERTEX
  8
0
 62
7
  6
CONTINUOUS
 10
-1.9516231049
 20
563.8053274189
  0
VERTEX
  8
0
 62
7
  6
CONTINUOUS
 10
-1.9744275065
 20
563.7146079311
  0
VERTEX
  8
0
 62
7
  6
CONTINUOUS
 10
-1.9963563239
 20
563.624782908
  0
VERTEX
  8
0
 62
7
  6
CONTINUOUS
 10
-2.0174860446
 20
563.5357042258
  0
VERTEX
  8
0
 62
7
  6
CONTINUOUS
 10
-2.0378797109
 20
563.4472579259
  0
VERTEX
  8
0
 62
7
  6
CONTINUOUS
 10
-2.0575999675
 20
563.3593120083
  0
VERTEX
  8
0
 62
7
  6
CONTINUOUS
 10
-2.0766987973
 20
563.2717630987
  0
VERTEX
  8
0
 62
7
  6
CONTINUOUS
 10
-2.0952278175
 20
563.1844927878
  0
VERTEX
  8
0
 62
7
  6
CONTINUOUS
 10
-2.1132300809
 20
563.0974069818
  0
VERTEX
  8
0
 62
7
  6
CONTINUOUS
 10
-2.1307483426
 20
563.0103988232
  0
VERTEX
  8
0
 62
7
  6
CONTINUOUS
 10
-2.1478183547
 20
562.9233826138
  0
VERTEX
  8
0
 62
7
  6
CONTINUOUS
 10
-2.1644756372
 20
562.8362617385
  0
VERTEX
  8
0
 62
7
  6
CONTINUOUS
 10
-2.1807500131
 20
562.7489577552
  0
VERTEX
  8
0
 62
7
  6
CONTINUOUS
 10
-2.1966710478
 20
562.6613832553
  0
VERTEX
  8
0
 62
7
  6
CONTINUOUS
 10
-2.2122638909
 20
562.573465143
  0
VERTEX
  8
0
 62
7
  6
CONTINUOUS
 10
-2.2275520603
 20
562.4851308218
  0
VERTEX
  8
0
 62
7
  6
CONTINUOUS
 10
-2.2425608294
 20
562.3962885192
  0
VERTEX
  8
0
 62
7
  6
CONTINUOUS
 10
-2.2573125464
 20
562.3068542246
  0
VERTEX
  8
0
 62
7
  6
CONTINUOUS
 10
-2.2718312748
 20
562.2167241316
  0
VERTEX
  8
0
 62
7
  6
CONTINUOUS
 10
-2.2861396581
 20
562.1257930333
  0
VERTEX
  8
0
 62
7
  6
CONTINUOUS
 10
-2.3002569751
 20
562.0339676538
  0
VERTEX
  8
0
 62
7
  6
CONTINUOUS
 10
-2.3142025799
 20
561.9411455367
  0
VERTEX
  8
0
 62
7
  6
CONTINUOUS
 10
-2.3279928945
 20
561.8472352538
  0
VERTEX
  8
0
 62
7
  6
CONTINUOUS
 10
-2.3416444353
 20
561.7521369206
  0
VERTEX
  8
0
 62
7
  6
CONTINUOUS
 10
-2.3551713431
 20
561.6557595282
  0
VERTEX
  8
0
 62
7
  6
CONTINUOUS
 10
-2.3685877994
 20
561.5580046469
  0
VERTEX
  8
0
 62
7
  6
CONTINUOUS
 10
-2.3819061026
 20
561.4587804995
  0
VERTEX
  8
0
 62
7
  6
CONTINUOUS
 10
-2.395138553
 20
561.3579886368
  0
VERTEX
  8
0
 62
7
  6
CONTINUOUS
 10
-2.4082958678
 20
561.2555360695
  0
VERTEX
  8
0
 62
7
  6
CONTINUOUS
 10
-2.4213887521
 20
561.151323635
  0
VERTEX
  8
0
 62
7
  6
CONTINUOUS
 10
-2.4344265977
 20
561.0452563855
  0
VERTEX
  8
0
 62
7
  6
CONTINUOUS
 10
-2.4474187629
 20
560.9372336726
  0
VERTEX
  8
0
 62
7
  6
CONTINUOUS
 10
-2.4603735187
 20
560.8271579091
  0
VERTEX
  8
0
 62
7
  6
CONTINUOUS
 10
-2.4732990756
 20
560.7149262545
  0
VERTEX
  8
0
 62
7
  6
CONTINUOUS
 10
-2.4862027643
 20
560.6004377111
  0
VERTEX
  8
0
 62
7
  6
CONTINUOUS
 10
-2.4990918543
 20
560.4835861611
  0
VERTEX
  8
0
 62
7
  6
CONTINUOUS
 10
-2.5119727864
 20
560.3642673181
  0
VERTEX
  8
0
 62
7
  6
CONTINUOUS
 10
-2.5248519344
 20
560.2423720057
  0
VERTEX
  8
0
 62
7
  6
CONTINUOUS
 10
-2.5377350384
 20
560.1177914516
  0
VERTEX
  8
0
 62
7
  6
CONTINUOUS
 10
-2.5506277436
 20
559.9904122509
  0
VERTEX
  8
0
 62
7
  6
CONTINUOUS
 10
-2.5635351313
 20
559.8601209546
  0
VERTEX
  8
0
 62
7
  6
CONTINUOUS
 10
-2.5764644099
 20
559.7267763327
  0
VERTEX
  8
0
 62
7
  6
CONTINUOUS
 10
-2.5888555448
 20
559.5962681693
  0
SEQEND
  0
LINE
  8
0
 62
7
  6
CONTINUOUS
 10
270.2436420773
 20
574.6947454026
 11
182.8150685089
 21
574.6947455198
  0
POLYLINE
  8
0
 62
7
  6
CONTINUOUS
 66
1
 70
0
  0
VERTEX
  8
0
 62
7
  6
CONTINUOUS
 10
182.0747747947
 20
574.6947455164
  0
VERTEX
  8
0
 62
7
  6
CONTINUOUS
 10
95.3864946993
 20
574.6947454028
  0
VERTEX
  8
0
 62
7
  6
CONTINUOUS
 10
88.5856962535
 20
574.6933166208
  0
VERTEX
  8
0
 62
7
  6
CONTINUOUS
 10
82.2784773325
 20
574.6583596132
  0
VERTEX
  8
0
 62
7
  6
CONTINUOUS
 10
76.4838358301
 20
574.5850024126
  0
VERTEX
  8
0
 62
7
  6
CONTINUOUS
 10
70.944141292
 20
574.4779370562
  0
VERTEX
  8
0
 62
7
  6
CONTINUOUS
 10
65.4012882955
 20
574.3346609538
  0
VERTEX
  8
0
 62
7
  6
CONTINUOUS
 10
59.8768581167
 20
574.155863367
  0
VERTEX
  8
0
 62
7
  6
CONTINUOUS
 10
54.2876063644
 20
573.9383709056
  0
VERTEX
  8
0
 62
7
  6
CONTINUOUS
 10
48.69010069
 20
573.6836372007
  0
VERTEX
  8
0
 62
7
  6
CONTINUOUS
 10
43.1203746398
 20
573.3934637633
  0
VERTEX
  8
0
 62
7
  6
CONTINUOUS
 10
37.5566581917
 20
573.0670127749
  0
VERTEX
  8
0
 62
7
  6
CONTINUOUS
 10
31.9866984558
 20
572.7035193822
  0
VERTEX
  8
0
 62
7
  6
CONTINUOUS
 10
26.4180372406
 20
572.3033768833
  0
VERTEX
  8
0
 62
7
  6
CONTINUOUS
 10
20.8548220633
 20
571.8668938096
  0
VERTEX
  8
0
 62
7
  6
CONTINUOUS
 10
15.2949589617
 20
571.393935743
  0
VERTEX
  8
0
 62
7
  6
CONTINUOUS
 10
9.7375302731
 20
570.8844242177
  0
VERTEX
  8
0
 62
7
  6
CONTINUOUS
 10
5.3505403335
 20
570.4562211007
  0
SEQEND
  0
LINE
  8
0
 62
7
  6
CONTINUOUS
 10
204.2780538759
 20
578.426548862
 11
174.1540028374
 21
578.426548862
  0
LINE
  8
0
 62
7
  6
CONTINUOUS
 10
174.205579835
 20
578.5141896197
 11
161.673051643
 21
578.5141896197
  0
LINE
  8
0
 62
7
  6
CONTINUOUS
 10
164.306367499
 20
581.9116974727
 11
175.9116772996
 21
581.9116974727
  0
LINE
  8
0
 62
7
  6
CONTINUOUS
 10
176.332314964
 20
582.0891112239
 11
201.4393014849
 21
582.0891112239
  0
POLYLINE
  8
0
 62
7
  6
CONTINUOUS
 66
1
 70
0
  0
VERTEX
  8
0
 62
7
  6
CONTINUOUS
 10
360.2795964945
 20
570.4562211195
  0
VERTEX
  8
0
 62
7
  6
CONTINUOUS
 10
355.892606269
 20
570.8844242627
  0
VERTEX
  8
0
 62
7
  6
CONTINUOUS
 10
350.3351775955
 20
571.3939357835
  0
VERTEX
  8
0
 62
7
  6
CONTINUOUS
 10
344.775314509
 20
571.8668938458
  0
VERTEX
  8
0
 62
7
  6
CONTINUOUS
 10
339.2120993467
 20
572.3033769154
  0
VERTEX
  8
0
 62
7
  6
CONTINUOUS
 10
333.6434381468
 20
572.7035194104
  0
VERTEX
  8
0
 62
7
  6
CONTINUOUS
 10
328.073478426
 20
573.0670127995
  0
VERTEX
  8
0
 62
7
  6
CONTINUOUS
 10
322.5097619931
 20
573.3934637844
  0
VERTEX
  8
0
 62
7
  6
CONTINUOUS
 10
316.9400359581
 20
573.6836372185
  0
VERTEX
  8
0
 62
7
  6
CONTINUOUS
 10
311.342530299
 20
573.9383709204
  0
VERTEX
  8
0
 62
7
  6
CONTINUOUS
 10
305.7532785621
 20
574.1558633789
  0
VERTEX
  8
0
 62
7
  6
CONTINUOUS
 10
300.2288483985
 20
574.3346609631
  0
VERTEX
  8
0
 62
7
  6
CONTINUOUS
 10
294.6859954172
 20
574.4779370629
  0
VERTEX
  8
0
 62
7
  6
CONTINUOUS
 10
289.1463008943
 20
574.5850024171
  0
VERTEX
  8
0
 62
7
  6
CONTINUOUS
 10
283.3516594079
 20
574.6583596155
  0
VERTEX
  8
0
 62
7
  6
CONTINUOUS
 10
277.0444405043
 20
574.6933166211
  0
VERTEX
  8
0
 62
7
  6
CONTINUOUS
 10
270.2436420773
 20
574.6947454026
  0
SEQEND
  0
LINE
  8
0
 62
7
  6
CONTINUOUS
 10
204.2780538759
 20
578.426548862
 11
209.8930607016
 21
576.8933658517
  0
ARC
  8
0
 62
7
  6
CONTINUOUS
 10
182.8150685089
 20
507.1041388003
 40
77.2632392753
 50
76.0515336486
 51
90.1781938991
  0
ARC
  8
0
 62
7
  6
CONTINUOUS
 10
182.8150685089
 20
507.1041388003
 40
77.0632392753
 50
90.5504097442
 51
103.8968979651
  0
ARC
  8
0
 62
7
  6
CONTINUOUS
 10
323.007343067
 20
-266.4059054467
 40
3.0
 50
270.000000063
 51
354.9999590887
  0
ARC
  8
0
 62
7
  6
CONTINUOUS
 10
42.6227939509
 20
-266.4059054467
 40
3.0
 50
185.0000409113
 51
269.9999999606
  0
ARC
  8
0
 62
7
  6
CONTINUOUS
 10
156.0004843494
 20
575.9286813395
 40
1.0
 50
105.2723793091
 51
159.9999999999
  0
ARC
  8
0
 62
7
  6
CONTINUOUS
 10
209.6296526684
 20
575.9286813395
 40
1.0
 50
20.0000000001
 51
74.7276206909
  0
ENDSEC
  0
EOF
