999
DXF file: K:\Client\125_Heirloom\001\00\Final_Data\Drawings\BASINS\veloso-361112_3.dxf
999
Pro/ENGINEER 2017110 by Parametric Technology Corporation
  0
SECTION
  2
HEADER
  9
$EXTMAX
 10
420.0
 20
297.0
 30
0.0
  9
$EXTMIN
 10
0.0
 20
0.0
 30
0.0
  9
$LIMMIN
 10
0.0
 20
0.0
  9
$LIMMAX
 10
420.0
 20
297.0
  9
$VIEWCTR
 10
210.0
 20
148.5
  9
$VIEWSIZE
 40
297.0
  9
$CLAYER
  8
0
  9
$LTSCALE
 40
23.1
  9
$CELTYPE
  6
BYLAYER
  9
$DIMSCALE
 40
1.0
  9
$DIMASZ
 40
3.0
  9
$DIMEXO
 40
1.0
  9
$DIMDLI
 40
15.96
  9
$DIMEXE
 40
1.0
  9
$DIMCEN
 40
3.78
  9
$DIMLFAC
 40
1.0
  9
$DIMBLK
  1
_FILLED
  9
$DIMALT
 70
0
  9
$DIMALTF
 40
0.0393700787
  9
$DIMTXT
 40
3.0
  9
$AUNITS
 70
0
  9
$PDMODE
 70
3
  9
$PDSIZE
 40
5.0
  9
$TILEMODE
 70
1
  0
ENDSEC
  0
SECTION
  2
TABLES
  0
TABLE
  2
LTYPE
 70
6
  0
LTYPE
  2
BYBLOCK
 70
0
  3

 72
65
 73
0
 40
0.0
  0
LTYPE
  2
BYLAYER
 70
0
  3

 72
65
 73
0
 40
0.0
  0
LTYPE
  2
CONTINUOUS
 70
64
  3
Solid line
 72
65
 73
0
 40
0.0
  0
LTYPE
  2
CENTER
 70
64
  3
____ _ ____ _ ____ _ ____ _ ____ _ ____ _ ____
 72
65
 73
4
 40
0.6
 49
0.375
 49
-0.075
 49
0.075
 49
-0.075
  0
LTYPE
  2
HIDDEN
 70
64
  3
- - - - - - - - - - - - - - - - - - - -
 72
65
 73
2
 40
0.2
 49
0.1
 49
-0.1
  0
LTYPE
  2
PHANTOM
 70
64
  3
_____ _ _ _____ _ _ _____ _ _ _____
 72
65
 73
6
 40
0.8
 49
0.45
 49
-0.05
 49
0.1
 49
-0.05
 49
0.1
 49
-0.05
  0
LTYPE
  2
DOT
 70
64
  3
. . . . . . . . . . . . . . . . . . . .
 72
65
 73
2
 40
0.2
 49
0.1
 49
-0.1
  0
LTYPE
  2
DASHED
 70
64
  3
- - - - - - - - - - - - - - - - - - - -
 72
65
 73
2
 40
0.2
 49
0.1
 49
-0.1
  0
ENDTAB
  0
TABLE
  2
LAYER
 70
36
  0
LAYER
  2
0
 70
0
 62
7
  6
CONTINUOUS
  0
LAYER
  2
DEFAULT_1
 70
0
 62
7
  6
CENTER
  0
LAYER
  2
DEFAULT_2
 70
0
 62
8
  6
HIDDEN
  0
LAYER
  2
DEFAULT_3
 70
0
 62
7
  6
PHANTOM
  0
LAYER
  2
0000_BOM
 70
0
 62
7
  6
CONTINUOUS
  0
LAYER
  2
0000_REV_TABLE
 70
0
 62
7
  6
CONTINUOUS
  0
LAYER
  2
0000_STEVENS_NOTE
 70
0
 62
7
  6
CONTINUOUS
  0
LAYER
  2
01_DATUM_PLANES
 70
0
 62
7
  6
CONTINUOUS
  0
LAYER
  2
01_DEF_PLANES
 70
0
 62
7
  6
CONTINUOUS
  0
LAYER
  2
02_DATUM_COS
 70
0
 62
7
  6
CONTINUOUS
  0
LAYER
  2
90_IMP_FEAT
 70
0
 62
7
  6
CONTINUOUS
  0
LAYER
  2
95_STL
 70
0
 62
7
  6
CONTINUOUS
  0
LAYER
  2
99_SOLID
 70
0
 62
7
  6
CONTINUOUS
  0
LAYER
  2
CAD-MASTER_ZINC-PL
 70
0
 62
7
  6
CONTINUOUS
  0
LAYER
  2
CURVE
 70
0
 62
7
  6
CONTINUOUS
  0
LAYER
  2
SKEL
 70
0
 62
7
  6
CONTINUOUS
  0
LAYER
  2
SKETCH
 70
0
 62
7
  6
CONTINUOUS
  0
LAYER
  2
SURFACE
 70
0
 62
7
  6
CONTINUOUS
  0
ENDTAB
  0
TABLE
  2
STYLE
 70
1
  0
STYLE
  2
STANDARD
 70
0
 40
0.0
 41
0.75
 50
0.0
 71
0
 42
0.2
  3
txt
  4

  0
STYLE
  2
TEXTSTYLE_1
 70
0
 40
0.0
 41
0.8
 50
0.0
 71
0
 42
0.2
  3
gdt
  4

  0
ENDTAB
  0
ENDSEC
  0
SECTION
  2
BLOCKS
  0
ENDSEC
  0
SECTION
  2
ENTITIES
  0
POLYLINE
  8
0
 62
7
  6
CONTINUOUS
 66
1
 70
0
  0
VERTEX
  8
0
 62
7
  6
CONTINUOUS
 10
-8.3543336923
 20
1.7728173109
  0
VERTEX
  8
0
 62
7
  6
CONTINUOUS
 10
-8.34964566
 20
1.7676383189
  0
VERTEX
  8
0
 62
7
  6
CONTINUOUS
 10
-8.2504524217
 20
1.7584172516
  0
VERTEX
  8
0
 62
7
  6
CONTINUOUS
 10
-8.0360324842
 20
1.7679820198
  0
VERTEX
  8
0
 62
7
  6
CONTINUOUS
 10
-7.7136342288
 20
1.7951620799
  0
VERTEX
  8
0
 62
7
  6
CONTINUOUS
 10
-7.2804883957
 20
1.8404318267
  0
VERTEX
  8
0
 62
7
  6
CONTINUOUS
 10
-6.7463510165
 20
1.9031994891
  0
VERTEX
  8
0
 62
7
  6
CONTINUOUS
 10
-6.1232861171
 20
1.9823708495
  0
VERTEX
  8
0
 62
7
  6
CONTINUOUS
 10
-5.4285271721
 20
2.0760522274
  0
VERTEX
  8
0
 62
7
  6
CONTINUOUS
 10
-4.6811016115
 20
2.1819807456
  0
VERTEX
  8
0
 62
7
  6
CONTINUOUS
 10
-3.9316666822
 20
2.2930539872
  0
SEQEND
  0
POLYLINE
  8
0
 62
7
  6
CONTINUOUS
 66
1
 70
0
  0
VERTEX
  8
0
 62
7
  6
CONTINUOUS
 10
-3.9307846719
 20
2.2930518233
  0
VERTEX
  8
0
 62
7
  6
CONTINUOUS
 10
-3.2974110964
 20
-0.9384285177
  0
VERTEX
  8
0
 62
7
  6
CONTINUOUS
 10
-2.3648017276
 20
-4.0427572481
  0
VERTEX
  8
0
 62
7
  6
CONTINUOUS
 10
-1.1270418041
 20
-7.0303372718
  0
VERTEX
  8
0
 62
7
  6
CONTINUOUS
 10
0.3980019386
 20
-9.8703644134
  0
VERTEX
  8
0
 62
7
  6
CONTINUOUS
 10
2.2013754018
 20
-12.5456295477
  0
VERTEX
  8
0
 62
7
  6
CONTINUOUS
 10
4.2624264414
 20
-15.0256178793
  0
VERTEX
  8
0
 62
7
  6
CONTINUOUS
 10
6.569258976
 20
-17.2814658485
  0
VERTEX
  8
0
 62
7
  6
CONTINUOUS
 10
9.0866823158
 20
-19.2908547783
  0
VERTEX
  8
0
 62
7
  6
CONTINUOUS
 10
11.7812212305
 20
-21.0235822657
  0
VERTEX
  8
0
 62
7
  6
CONTINUOUS
 10
14.6357532559
 20
-22.4741871893
  0
VERTEX
  8
0
 62
7
  6
CONTINUOUS
 10
17.6360023556
 20
-23.6305654129
  0
VERTEX
  8
0
 62
7
  6
CONTINUOUS
 10
20.7399447206
 20
-24.4822599639
  0
VERTEX
  8
0
 62
7
  6
CONTINUOUS
 10
23.8949487417
 20
-25.0129793022
  0
VERTEX
  8
0
 62
7
  6
CONTINUOUS
 10
27.1185513131
 20
-25.2279908592
  0
SEQEND
  0
POLYLINE
  8
0
 62
7
  6
CONTINUOUS
 66
1
 70
0
  0
VERTEX
  8
0
 62
7
  6
CONTINUOUS
 10
-8.3543337312
 20
1.7728175732
  0
VERTEX
  8
0
 62
7
  6
CONTINUOUS
 10
-7.8705316596
 20
-0.8459833757
  0
VERTEX
  8
0
 62
7
  6
CONTINUOUS
 10
-6.8462440184
 20
-4.5430037566
  0
VERTEX
  8
0
 62
7
  6
CONTINUOUS
 10
-5.4479572672
 20
-8.105879439
  0
VERTEX
  8
0
 62
7
  6
CONTINUOUS
 10
-3.6708000963
 20
-11.5290163846
  0
VERTEX
  8
0
 62
7
  6
CONTINUOUS
 10
-1.5446225418
 20
-14.7534652951
  0
VERTEX
  8
0
 62
7
  6
CONTINUOUS
 10
0.8891101614
 20
-17.7193443036
  0
VERTEX
  8
0
 62
7
  6
CONTINUOUS
 10
3.6317549217
 20
-20.4289299496
  0
VERTEX
  8
0
 62
7
  6
CONTINUOUS
 10
6.6636652165
 20
-22.8546698132
  0
VERTEX
  8
0
 62
7
  6
CONTINUOUS
 10
9.9099471444
 20
-24.9344569652
  0
VERTEX
  8
0
 62
7
  6
CONTINUOUS
 10
13.3637260808
 20
-26.6661398688
  0
VERTEX
  8
0
 62
7
  6
CONTINUOUS
 10
17.008817995
 20
-28.0318043156
  0
VERTEX
  8
0
 62
7
  6
CONTINUOUS
 10
20.7438662338
 20
-28.9933289716
  0
VERTEX
  8
0
 62
7
  6
CONTINUOUS
 10
24.5320185789
 20
-29.5495014089
  0
VERTEX
  8
0
 62
7
  6
CONTINUOUS
 10
27.0780216094
 20
-29.6957240451
  0
SEQEND
  0
POLYLINE
  8
0
 62
7
  6
CONTINUOUS
 66
1
 70
0
  0
VERTEX
  8
0
 62
7
  6
CONTINUOUS
 10
-4.8256155141
 20
11.16391036
  0
VERTEX
  8
0
 62
7
  6
CONTINUOUS
 10
-6.3827774934
 20
26.9005387619
  0
VERTEX
  8
0
 62
7
  6
CONTINUOUS
 10
-7.9114511018
 20
42.6292599876
  0
VERTEX
  8
0
 62
7
  6
CONTINUOUS
 10
-9.4178905883
 20
58.5455669265
  0
VERTEX
  8
0
 62
7
  6
CONTINUOUS
 10
-10.8834331791
 20
74.0614499506
  0
VERTEX
  8
0
 62
7
  6
CONTINUOUS
 10
-12.2892093459
 20
88.3898866446
  0
VERTEX
  8
0
 62
7
  6
CONTINUOUS
 10
-13.6413519555
 20
102.3282110043
  0
VERTEX
  8
0
 62
7
  6
CONTINUOUS
 10
-14.9530151171
 20
116.6763378569
  0
VERTEX
  8
0
 62
7
  6
CONTINUOUS
 10
-16.1848853399
 20
130.6395090295
  0
VERTEX
  8
0
 62
7
  6
CONTINUOUS
 10
-17.2672749627
 20
143.4304916585
  0
VERTEX
  8
0
 62
7
  6
CONTINUOUS
 10
-18.3038043986
 20
155.8206356788
  0
VERTEX
  8
0
 62
7
  6
CONTINUOUS
 10
-19.3851843808
 20
168.3823150076
  0
VERTEX
  8
0
 62
7
  6
CONTINUOUS
 10
-20.4813899264
 20
180.9222596417
  0
SEQEND
  0
POLYLINE
  8
0
 62
7
  6
CONTINUOUS
 66
1
 70
0
  0
VERTEX
  8
0
 62
7
  6
CONTINUOUS
 10
-42.8146696881
 20
333.3890569945
  0
VERTEX
  8
0
 62
7
  6
CONTINUOUS
 10
-40.3542506401
 20
308.3895220965
  0
VERTEX
  8
0
 62
7
  6
CONTINUOUS
 10
-37.1962966376
 20
278.1225277466
  0
VERTEX
  8
0
 62
7
  6
CONTINUOUS
 10
-33.3465757905
 20
242.0305980746
  0
VERTEX
  8
0
 62
7
  6
CONTINUOUS
 10
-29.3995585916
 20
205.2275465446
  0
VERTEX
  8
0
 62
7
  6
CONTINUOUS
 10
-26.3807749604
 20
174.6657131629
  0
VERTEX
  8
0
 62
7
  6
CONTINUOUS
 10
-23.58202133
 20
142.9422443169
  0
VERTEX
  8
0
 62
7
  6
CONTINUOUS
 10
-20.0788906353
 20
101.8899962611
  0
VERTEX
  8
0
 62
7
  6
CONTINUOUS
 10
-16.0520982127
 20
61.0543475518
  0
VERTEX
  8
0
 62
7
  6
CONTINUOUS
 10
-12.073699513
 20
28.1087698592
  0
VERTEX
  8
0
 62
7
  6
CONTINUOUS
 10
-8.3543356369
 20
1.772830545
  0
SEQEND
  0
POLYLINE
  8
0
 62
7
  6
CONTINUOUS
 66
1
 70
0
  0
VERTEX
  8
0
 62
7
  6
CONTINUOUS
 10
-38.3834114258
 20
326.7373873328
  0
VERTEX
  8
0
 62
7
  6
CONTINUOUS
 10
-37.0445561533
 20
312.7797284246
  0
VERTEX
  8
0
 62
7
  6
CONTINUOUS
 10
-35.6539312455
 20
298.879311352
  0
VERTEX
  8
0
 62
7
  6
CONTINUOUS
 10
-34.2074434039
 20
285.0313900916
  0
VERTEX
  8
0
 62
7
  6
CONTINUOUS
 10
-32.7186040135
 20
271.2404191069
  0
VERTEX
  8
0
 62
7
  6
CONTINUOUS
 10
-31.1954366512
 20
257.534559576
  0
VERTEX
  8
0
 62
7
  6
CONTINUOUS
 10
-29.6540373657
 20
243.8482835271
  0
VERTEX
  8
0
 62
7
  6
CONTINUOUS
 10
-28.0973009326
 20
230.0962528825
  0
VERTEX
  8
0
 62
7
  6
CONTINUOUS
 10
-26.5712512074
 20
216.3685267807
  0
VERTEX
  8
0
 62
7
  6
CONTINUOUS
 10
-25.128476715
 20
202.7450961046
  0
VERTEX
  8
0
 62
7
  6
CONTINUOUS
 10
-23.7543680199
 20
189.1590201628
  0
VERTEX
  8
0
 62
7
  6
CONTINUOUS
 10
-22.4519402706
 20
175.5574677788
  0
VERTEX
  8
0
 62
7
  6
CONTINUOUS
 10
-21.2195256568
 20
161.9810360519
  0
VERTEX
  8
0
 62
7
  6
CONTINUOUS
 10
-20.0823805012
 20
148.4671024085
  0
VERTEX
  8
0
 62
7
  6
CONTINUOUS
 10
-18.9625624449
 20
134.9849133789
  0
VERTEX
  8
0
 62
7
  6
CONTINUOUS
 10
-17.7928157613
 20
121.4955621139
  0
VERTEX
  8
0
 62
7
  6
CONTINUOUS
 10
-16.5659731811
 20
108.0453993047
  0
VERTEX
  8
0
 62
7
  6
CONTINUOUS
 10
-15.2453441994
 20
94.6826853696
  0
VERTEX
  8
0
 62
7
  6
CONTINUOUS
 10
-13.85256454
 20
81.3676572784
  0
VERTEX
  8
0
 62
7
  6
CONTINUOUS
 10
-12.4023324919
 20
68.0644430957
  0
VERTEX
  8
0
 62
7
  6
CONTINUOUS
 10
-10.878403651
 20
54.8027510546
  0
VERTEX
  8
0
 62
7
  6
CONTINUOUS
 10
-9.2687929957
 20
41.6085153867
  0
VERTEX
  8
0
 62
7
  6
CONTINUOUS
 10
-7.5752517701
 20
28.4645211718
  0
VERTEX
  8
0
 62
7
  6
CONTINUOUS
 10
-5.795509919
 20
15.3588866372
  0
VERTEX
  8
0
 62
7
  6
CONTINUOUS
 10
-3.9307846719
 20
2.2930518233
  0
SEQEND
  0
LINE
  8
0
 62
7
  6
CONTINUOUS
 10
-39.0046607033
 20
333.3890578244
 11
-38.9022651307
 21
332.2892233329
  0
LINE
  8
0
 62
7
  6
CONTINUOUS
 10
-38.9022651307
 20
332.2892233329
 11
-38.3833917141
 21
326.7373859224
  0
POLYLINE
  8
0
 62
7
  6
CONTINUOUS
 66
1
 70
0
  0
VERTEX
  8
0
 62
7
  6
CONTINUOUS
 10
-6.099513115
 20
50.3167267079
  0
VERTEX
  8
0
 62
7
  6
CONTINUOUS
 10
-5.3833897684
 20
42.5477367769
  0
VERTEX
  8
0
 62
7
  6
CONTINUOUS
 10
-4.6464992461
 20
34.7813684052
  0
VERTEX
  8
0
 62
7
  6
CONTINUOUS
 10
-3.8930145614
 20
27.0170947736
  0
VERTEX
  8
0
 62
7
  6
CONTINUOUS
 10
-3.1236984337
 20
19.2548195419
  0
VERTEX
  8
0
 62
7
  6
CONTINUOUS
 10
-2.3382966232
 20
11.4945748236
  0
SEQEND
  0
LINE
  8
0
 62
7
  6
CONTINUOUS
 10
-9.5140982582
 20
87.7664601026
 11
-8.2134731861
 21
73.6280407272
  0
LINE
  8
0
 62
7
  6
CONTINUOUS
 10
-8.2134731861
 20
73.6280407272
 11
-6.099513115
 21
50.3167267079
  0
POLYLINE
  8
0
 62
7
  6
CONTINUOUS
 66
1
 70
0
  0
VERTEX
  8
0
 62
7
  6
CONTINUOUS
 10
-17.628474782
 20
181.2058710988
  0
VERTEX
  8
0
 62
7
  6
CONTINUOUS
 10
-17.0587651989
 20
174.8338048673
  0
VERTEX
  8
0
 62
7
  6
CONTINUOUS
 10
-16.5009324549
 20
168.4599248453
  0
VERTEX
  8
0
 62
7
  6
CONTINUOUS
 10
-15.9589911025
 20
162.0836176037
  0
VERTEX
  8
0
 62
7
  6
CONTINUOUS
 10
-15.4208974846
 20
155.7067234297
  0
VERTEX
  8
0
 62
7
  6
CONTINUOUS
 10
-14.8737409748
 20
149.3312149
  0
VERTEX
  8
0
 62
7
  6
CONTINUOUS
 10
-13.7802704418
 20
136.6685767808
  0
SEQEND
  0
POLYLINE
  8
0
 62
7
  6
CONTINUOUS
 66
1
 70
0
  0
VERTEX
  8
0
 62
7
  6
CONTINUOUS
 10
-12.0327122529
 20
116.0537312415
  0
VERTEX
  8
0
 62
7
  6
CONTINUOUS
 10
-11.4232341165
 20
108.9793688986
  0
VERTEX
  8
0
 62
7
  6
CONTINUOUS
 10
-10.8017729397
 20
101.906518265
  0
VERTEX
  8
0
 62
7
  6
CONTINUOUS
 10
-10.1622909589
 20
94.8359395838
  0
VERTEX
  8
0
 62
7
  6
CONTINUOUS
 10
-9.5140982582
 20
87.7664601026
  0
SEQEND
  0
POLYLINE
  8
0
 62
7
  6
CONTINUOUS
 66
1
 70
0
  0
VERTEX
  8
0
 62
7
  6
CONTINUOUS
 10
-13.7802704418
 20
136.6685767808
  0
VERTEX
  8
0
 62
7
  6
CONTINUOUS
 10
-13.2245226115
 20
130.2058830786
  0
VERTEX
  8
0
 62
7
  6
CONTINUOUS
 10
-12.0327122529
 20
116.0537312415
  0
SEQEND
  0
POLYLINE
  8
0
 62
7
  6
CONTINUOUS
 66
1
 70
0
  0
VERTEX
  8
0
 62
7
  6
CONTINUOUS
 10
-20.4813899264
 20
180.9222596417
  0
VERTEX
  8
0
 62
7
  6
CONTINUOUS
 10
-20.6341522855
 20
184.8843606175
  0
VERTEX
  8
0
 62
7
  6
CONTINUOUS
 10
-20.372017026
 20
188.8127687536
  0
VERTEX
  8
0
 62
7
  6
CONTINUOUS
 10
-19.68928727
 20
192.7325806252
  0
VERTEX
  8
0
 62
7
  6
CONTINUOUS
 10
-18.6030459805
 20
196.5688009413
  0
VERTEX
  8
0
 62
7
  6
CONTINUOUS
 10
-17.1229233832
 20
200.2624444973
  0
VERTEX
  8
0
 62
7
  6
CONTINUOUS
 10
-15.2655680992
 20
203.7906596844
  0
VERTEX
  8
0
 62
7
  6
CONTINUOUS
 10
-13.0403535322
 20
207.1242292967
  0
VERTEX
  8
0
 62
7
  6
CONTINUOUS
 10
-10.4787117885
 20
210.2230850908
  0
VERTEX
  8
0
 62
7
  6
CONTINUOUS
 10
-7.6030558493
 20
213.0461726481
  0
VERTEX
  8
0
 62
7
  6
CONTINUOUS
 10
-4.4498702113
 20
215.5670215734
  0
VERTEX
  8
0
 62
7
  6
CONTINUOUS
 10
-1.0543386514
 20
217.7509363199
  0
VERTEX
  8
0
 62
7
  6
CONTINUOUS
 10
2.5572257972
 20
219.5814926622
  0
VERTEX
  8
0
 62
7
  6
CONTINUOUS
 10
6.3656790742
 20
221.0375123398
  0
VERTEX
  8
0
 62
7
  6
CONTINUOUS
 10
10.3143531636
 20
222.0987088322
  0
VERTEX
  8
0
 62
7
  6
CONTINUOUS
 10
14.3323147378
 20
222.734326436
  0
VERTEX
  8
0
 62
7
  6
CONTINUOUS
 10
18.4432090761
 20
222.9546379146
  0
SEQEND
  0
POLYLINE
  8
0
 62
7
  6
CONTINUOUS
 66
1
 70
0
  0
VERTEX
  8
0
 62
7
  6
CONTINUOUS
 10
-2.3382966232
 20
11.4945748236
  0
VERTEX
  8
0
 62
7
  6
CONTINUOUS
 10
-1.7998419773
 20
7.8635153541
  0
VERTEX
  8
0
 62
7
  6
CONTINUOUS
 10
-0.8841473737
 20
4.3072945578
  0
VERTEX
  8
0
 62
7
  6
CONTINUOUS
 10
0.393015718
 20
0.8925750961
  0
VERTEX
  8
0
 62
7
  6
CONTINUOUS
 10
2.0229322079
 20
-2.3687892324
  0
VERTEX
  8
0
 62
7
  6
CONTINUOUS
 10
3.9987770541
 20
-5.4593344532
  0
VERTEX
  8
0
 62
7
  6
CONTINUOUS
 10
6.2967198987
 20
-8.3345703454
  0
VERTEX
  8
0
 62
7
  6
CONTINUOUS
 10
8.8901059617
 20
-10.9605505449
  0
VERTEX
  8
0
 62
7
  6
CONTINUOUS
 10
11.7477179548
 20
-13.3036933425
  0
VERTEX
  8
0
 62
7
  6
CONTINUOUS
 10
14.8268049852
 20
-15.3335838306
  0
VERTEX
  8
0
 62
7
  6
CONTINUOUS
 10
18.1084829096
 20
-17.0341081813
  0
VERTEX
  8
0
 62
7
  6
CONTINUOUS
 10
21.5729088891
 20
-18.3896765714
  0
VERTEX
  8
0
 62
7
  6
CONTINUOUS
 10
25.1702376398
 20
-19.3741084277
  0
VERTEX
  8
0
 62
7
  6
CONTINUOUS
 10
28.8594927635
 20
-19.9729203354
  0
VERTEX
  8
0
 62
7
  6
CONTINUOUS
 10
32.5796246093
 20
-20.1816761434
  0
SEQEND
  0
POLYLINE
  8
0
 62
7
  6
CONTINUOUS
 66
1
 70
0
  0
VERTEX
  8
0
 62
7
  6
CONTINUOUS
 10
13.5409652662
 20
96.0286389309
  0
VERTEX
  8
0
 62
7
  6
CONTINUOUS
 10
10.3851722996
 20
135.7650702084
  0
VERTEX
  8
0
 62
7
  6
CONTINUOUS
 10
9.2822087624
 20
149.7592572765
  0
VERTEX
  8
0
 62
7
  6
CONTINUOUS
 10
8.1528531606
 20
163.976917132
  0
VERTEX
  8
0
 62
7
  6
CONTINUOUS
 10
7.0082059138
 20
178.0803844794
  0
VERTEX
  8
0
 62
7
  6
CONTINUOUS
 10
5.8445668821
 20
192.1822144171
  0
SEQEND
  0
POLYLINE
  8
0
 62
7
  6
CONTINUOUS
 66
1
 70
0
  0
VERTEX
  8
0
 62
7
  6
CONTINUOUS
 10
18.1813106945
 20
33.7306998956
  0
VERTEX
  8
0
 62
7
  6
CONTINUOUS
 10
17.3349675828
 20
46.0155152533
  0
VERTEX
  8
0
 62
7
  6
CONTINUOUS
 10
16.4513584004
 20
58.3110093805
  0
VERTEX
  8
0
 62
7
  6
CONTINUOUS
 10
15.5343543286
 20
70.5079459246
  0
VERTEX
  8
0
 62
7
  6
CONTINUOUS
 10
14.5723418233
 20
82.9340339429
  0
VERTEX
  8
0
 62
7
  6
CONTINUOUS
 10
13.5409652662
 20
96.0286389309
  0
SEQEND
  0
POLYLINE
  8
0
 62
7
  6
CONTINUOUS
 66
1
 70
0
  0
VERTEX
  8
0
 62
7
  6
CONTINUOUS
 10
344.9468574574
 20
-25.2279908592
  0
VERTEX
  8
0
 62
7
  6
CONTINUOUS
 10
348.1879560148
 20
-25.0098867498
  0
VERTEX
  8
0
 62
7
  6
CONTINUOUS
 10
351.353343669
 20
-24.4761066104
  0
VERTEX
  8
0
 62
7
  6
CONTINUOUS
 10
354.4597169768
 20
-23.6207764087
  0
VERTEX
  8
0
 62
7
  6
CONTINUOUS
 10
357.4569645691
 20
-22.4620022221
  0
VERTEX
  8
0
 62
7
  6
CONTINUOUS
 10
360.3047016092
 20
-21.0120521857
  0
VERTEX
  8
0
 62
7
  6
CONTINUOUS
 10
362.990455804
 20
-19.282430852
  0
VERTEX
  8
0
 62
7
  6
CONTINUOUS
 10
365.4991323214
 20
-17.2791204356
  0
VERTEX
  8
0
 62
7
  6
CONTINUOUS
 10
367.7982231555
 20
-15.030778061
  0
VERTEX
  8
0
 62
7
  6
CONTINUOUS
 10
369.8542271089
 20
-12.5590406629
  0
VERTEX
  8
0
 62
7
  6
CONTINUOUS
 10
371.6551079665
 20
-9.8907115459
  0
VERTEX
  8
0
 62
7
  6
CONTINUOUS
 10
373.1811337187
 20
-7.0546328029
  0
VERTEX
  8
0
 62
7
  6
CONTINUOUS
 10
374.4218617059
 20
-4.0661756506
  0
VERTEX
  8
0
 62
7
  6
CONTINUOUS
 10
375.3580954296
 20
-0.9534480348
  0
VERTEX
  8
0
 62
7
  6
CONTINUOUS
 10
375.9961934423
 20
2.2930518233
  0
SEQEND
  0
POLYLINE
  8
0
 62
7
  6
CONTINUOUS
 66
1
 70
0
  0
VERTEX
  8
0
 62
7
  6
CONTINUOUS
 10
344.9873871609
 20
-29.6957240451
  0
VERTEX
  8
0
 62
7
  6
CONTINUOUS
 10
347.5333901534
 20
-29.5495014129
  0
VERTEX
  8
0
 62
7
  6
CONTINUOUS
 10
351.321542503
 20
-28.9933289783
  0
VERTEX
  8
0
 62
7
  6
CONTINUOUS
 10
355.0565907619
 20
-28.0318043199
  0
VERTEX
  8
0
 62
7
  6
CONTINUOUS
 10
358.7016827037
 20
-26.6661398626
  0
VERTEX
  8
0
 62
7
  6
CONTINUOUS
 10
362.1554616681
 20
-24.9344569412
  0
VERTEX
  8
0
 62
7
  6
CONTINUOUS
 10
365.4017436218
 20
-22.8546697644
  0
VERTEX
  8
0
 62
7
  6
CONTINUOUS
 10
368.4336539363
 20
-20.4289298716
  0
VERTEX
  8
0
 62
7
  6
CONTINUOUS
 10
371.1762987063
 20
-17.7193441968
  0
VERTEX
  8
0
 62
7
  6
CONTINUOUS
 10
373.6100314101
 20
-14.7534651622
  0
VERTEX
  8
0
 62
7
  6
CONTINUOUS
 10
375.7362089555
 20
-11.5290162333
  0
VERTEX
  8
0
 62
7
  6
CONTINUOUS
 10
377.5133661065
 20
-8.1058792862
  0
VERTEX
  8
0
 62
7
  6
CONTINUOUS
 10
378.9116528342
 20
-4.5430036203
  0
VERTEX
  8
0
 62
7
  6
CONTINUOUS
 10
379.9359404527
 20
-0.8459832818
  0
VERTEX
  8
0
 62
7
  6
CONTINUOUS
 10
380.4197425016
 20
1.7728175736
  0
SEQEND
  0
POLYLINE
  8
0
 62
7
  6
CONTINUOUS
 66
1
 70
0
  0
VERTEX
  8
0
 62
7
  6
CONTINUOUS
 10
339.4857841611
 20
-20.1816761434
  0
VERTEX
  8
0
 62
7
  6
CONTINUOUS
 10
343.2061500352
 20
-19.9727391713
  0
VERTEX
  8
0
 62
7
  6
CONTINUOUS
 10
346.8803576533
 20
-19.3774113214
  0
VERTEX
  8
0
 62
7
  6
CONTINUOUS
 10
350.4383643735
 20
-18.4077788565
  0
VERTEX
  8
0
 62
7
  6
CONTINUOUS
 10
353.8680361048
 20
-17.0739457176
  0
VERTEX
  8
0
 62
7
  6
CONTINUOUS
 10
357.1523300891
 20
-15.383776204
  0
VERTEX
  8
0
 62
7
  6
CONTINUOUS
 10
360.2444047229
 20
-13.3578670585
  0
VERTEX
  8
0
 62
7
  6
CONTINUOUS
 10
363.1091957298
 20
-11.0206658025
  0
VERTEX
  8
0
 62
7
  6
CONTINUOUS
 10
365.7095477602
 20
-8.4004941575
  0
VERTEX
  8
0
 62
7
  6
CONTINUOUS
 10
368.0114176917
 20
-5.5366120633
  0
VERTEX
  8
0
 62
7
  6
CONTINUOUS
 10
369.9978203257
 20
-2.4479098615
  0
VERTEX
  8
0
 62
7
  6
CONTINUOUS
 10
371.6524287
 20
0.8473752732
  0
VERTEX
  8
0
 62
7
  6
CONTINUOUS
 10
372.9471021831
 20
4.299754241
  0
VERTEX
  8
0
 62
7
  6
CONTINUOUS
 10
373.8664013446
 20
7.868120774
  0
VERTEX
  8
0
 62
7
  6
CONTINUOUS
 10
374.4037053935
 20
11.4945748236
  0
SEQEND
  0
POLYLINE
  8
0
 62
7
  6
CONTINUOUS
 66
1
 70
0
  0
VERTEX
  8
0
 62
7
  6
CONTINUOUS
 10
339.5449239217
 20
-22.7049284852
  0
VERTEX
  8
0
 62
7
  6
CONTINUOUS
 10
317.7350385545
 20
-22.9753094686
  0
VERTEX
  8
0
 62
7
  6
CONTINUOUS
 10
295.0819854494
 20
-23.2391523863
  0
VERTEX
  8
0
 62
7
  6
CONTINUOUS
 10
271.584591377
 20
-23.5067133703
  0
VERTEX
  8
0
 62
7
  6
CONTINUOUS
 10
247.2458011333
 20
-23.7426589227
  0
VERTEX
  8
0
 62
7
  6
CONTINUOUS
 10
222.0682948711
 20
-23.9104455606
  0
VERTEX
  8
0
 62
7
  6
CONTINUOUS
 10
196.050958181
 20
-24.0204036386
  0
SEQEND
  0
POLYLINE
  8
0
 62
7
  6
CONTINUOUS
 66
1
 70
0
  0
VERTEX
  8
0
 62
7
  6
CONTINUOUS
 10
195.9732557751
 20
-25.3762346813
  0
VERTEX
  8
0
 62
7
  6
CONTINUOUS
 10
192.7083932744
 20
-25.3981486844
  0
VERTEX
  8
0
 62
7
  6
CONTINUOUS
 10
189.3936310227
 20
-25.4121690207
  0
VERTEX
  8
0
 62
7
  6
CONTINUOUS
 10
186.0485817586
 20
-25.4166497773
  0
VERTEX
  8
0
 62
7
  6
CONTINUOUS
 10
182.7000348249
 20
-25.4122461172
  0
VERTEX
  8
0
 62
7
  6
CONTINUOUS
 10
179.3746552194
 20
-25.3982482122
  0
VERTEX
  8
0
 62
7
  6
CONTINUOUS
 10
176.0921511073
 20
-25.376234667
  0
SEQEND
  0
POLYLINE
  8
0
 62
7
  6
CONTINUOUS
 66
1
 70
0
  0
VERTEX
  8
0
 62
7
  6
CONTINUOUS
 10
196.0887027681
 20
-29.6965804308
  0
VERTEX
  8
0
 62
7
  6
CONTINUOUS
 10
223.1171745457
 20
-29.5846814498
  0
VERTEX
  8
0
 62
7
  6
CONTINUOUS
 10
250.1008071129
 20
-29.6370225536
  0
VERTEX
  8
0
 62
7
  6
CONTINUOUS
 10
275.8944296519
 20
-29.8164470522
  0
VERTEX
  8
0
 62
7
  6
CONTINUOUS
 10
300.520526373
 20
-30.0052910941
  0
VERTEX
  8
0
 62
7
  6
CONTINUOUS
 10
323.9722692013
 20
-30.00359727
  0
VERTEX
  8
0
 62
7
  6
CONTINUOUS
 10
344.9873907197
 20
-29.6957239515
  0
SEQEND
  0
POLYLINE
  8
0
 62
7
  6
CONTINUOUS
 66
1
 70
0
  0
VERTEX
  8
0
 62
7
  6
CONTINUOUS
 10
196.0327043852
 20
-21.3926673201
  0
VERTEX
  8
0
 62
7
  6
CONTINUOUS
 10
218.6088664559
 20
-21.3065776643
  0
VERTEX
  8
0
 62
7
  6
CONTINUOUS
 10
241.7174810004
 20
-21.1708172748
  0
VERTEX
  8
0
 62
7
  6
CONTINUOUS
 10
265.3579655035
 20
-20.9822231664
  0
VERTEX
  8
0
 62
7
  6
CONTINUOUS
 10
289.532067511
 20
-20.7502842947
  0
VERTEX
  8
0
 62
7
  6
CONTINUOUS
 10
314.2415345686
 20
-20.4844896155
  0
VERTEX
  8
0
 62
7
  6
CONTINUOUS
 10
339.4857841611
 20
-20.1816761434
  0
SEQEND
  0
POLYLINE
  8
0
 62
7
  6
CONTINUOUS
 66
1
 70
0
  0
VERTEX
  8
0
 62
7
  6
CONTINUOUS
 10
196.0144453474
 20
-25.3763952062
  0
VERTEX
  8
0
 62
7
  6
CONTINUOUS
 10
223.3848360955
 20
-25.2936464322
  0
VERTEX
  8
0
 62
7
  6
CONTINUOUS
 10
249.7346061838
 20
-25.2919469907
  0
VERTEX
  8
0
 62
7
  6
CONTINUOUS
 10
275.0629728098
 20
-25.4292146965
  0
VERTEX
  8
0
 62
7
  6
CONTINUOUS
 10
299.3731461076
 20
-25.5388304127
  0
VERTEX
  8
0
 62
7
  6
CONTINUOUS
 10
322.6678902255
 20
-25.4524086177
  0
VERTEX
  8
0
 62
7
  6
CONTINUOUS
 10
344.9468574574
 20
-25.2279908592
  0
SEQEND
  0
POLYLINE
  8
0
 62
7
  6
CONTINUOUS
 66
1
 70
0
  0
VERTEX
  8
0
 62
7
  6
CONTINUOUS
 10
196.0327043852
 20
-21.3926355942
  0
VERTEX
  8
0
 62
7
  6
CONTINUOUS
 10
192.6993408959
 20
-21.4019950954
  0
VERTEX
  8
0
 62
7
  6
CONTINUOUS
 10
189.3659698594
 20
-21.4076106784
  0
VERTEX
  8
0
 62
7
  6
CONTINUOUS
 10
186.0325857269
 20
-21.4094822904
  0
VERTEX
  8
0
 62
7
  6
CONTINUOUS
 10
182.6992279631
 20
-21.4076101124
  0
VERTEX
  8
0
 62
7
  6
CONTINUOUS
 10
179.3659360323
 20
-21.4019945013
  0
VERTEX
  8
0
 62
7
  6
CONTINUOUS
 10
176.0327043851
 20
-21.3926355942
  0
SEQEND
  0
POLYLINE
  8
0
 62
7
  6
CONTINUOUS
 66
1
 70
0
  0
VERTEX
  8
0
 62
7
  6
CONTINUOUS
 10
176.041832409
 20
-24.0191968095
  0
VERTEX
  8
0
 62
7
  6
CONTINUOUS
 10
179.3241899852
 20
-24.0291406175
  0
VERTEX
  8
0
 62
7
  6
CONTINUOUS
 10
182.6516588118
 20
-24.036778907
  0
VERTEX
  8
0
 62
7
  6
CONTINUOUS
 10
186.0125161358
 20
-24.0387450992
  0
VERTEX
  8
0
 62
7
  6
CONTINUOUS
 10
189.3778379944
 20
-24.0368262267
  0
VERTEX
  8
0
 62
7
  6
CONTINUOUS
 10
192.7187591979
 20
-24.0292100404
  0
VERTEX
  8
0
 62
7
  6
CONTINUOUS
 10
196.0235763613
 20
-24.0191968095
  0
SEQEND
  0
POLYLINE
  8
0
 62
7
  6
CONTINUOUS
 66
1
 70
0
  0
VERTEX
  8
0
 62
7
  6
CONTINUOUS
 10
176.0144505858
 20
-24.0204035084
  0
VERTEX
  8
0
 62
7
  6
CONTINUOUS
 10
149.9045485401
 20
-23.9098010595
  0
VERTEX
  8
0
 62
7
  6
CONTINUOUS
 10
124.6716794121
 20
-23.7414739807
  0
VERTEX
  8
0
 62
7
  6
CONTINUOUS
 10
100.3148901573
 20
-23.5049828301
  0
VERTEX
  8
0
 62
7
  6
CONTINUOUS
 10
76.8363695138
 20
-23.2372573748
  0
VERTEX
  8
0
 62
7
  6
CONTINUOUS
 10
54.2385727576
 20
-22.9740311253
  0
VERTEX
  8
0
 62
7
  6
CONTINUOUS
 10
32.5204848487
 20
-22.7049284852
  0
SEQEND
  0
POLYLINE
  8
0
 62
7
  6
CONTINUOUS
 66
1
 70
0
  0
VERTEX
  8
0
 62
7
  6
CONTINUOUS
 10
176.0368353276
 20
-29.6971065817
  0
VERTEX
  8
0
 62
7
  6
CONTINUOUS
 10
178.6729257052
 20
-29.7143458043
  0
VERTEX
  8
0
 62
7
  6
CONTINUOUS
 10
182.4338237152
 20
-29.7314491162
  0
VERTEX
  8
0
 62
7
  6
CONTINUOUS
 10
186.169799237
 20
-29.7363405731
  0
VERTEX
  8
0
 62
7
  6
CONTINUOUS
 10
189.8868172158
 20
-29.7306917273
  0
VERTEX
  8
0
 62
7
  6
CONTINUOUS
 10
193.5905231919
 20
-29.7131467664
  0
VERTEX
  8
0
 62
7
  6
CONTINUOUS
 10
196.0285715221
 20
-29.6971065949
  0
SEQEND
  0
POLYLINE
  8
0
 62
7
  6
CONTINUOUS
 66
1
 70
0
  0
VERTEX
  8
0
 62
7
  6
CONTINUOUS
 10
27.1185513131
 20
-25.2279908592
  0
VERTEX
  8
0
 62
7
  6
CONTINUOUS
 10
49.6160667485
 20
-25.4520635783
  0
VERTEX
  8
0
 62
7
  6
CONTINUOUS
 10
73.0419559193
 20
-25.5380996306
  0
VERTEX
  8
0
 62
7
  6
CONTINUOUS
 10
97.3958644059
 20
-25.4279521633
  0
VERTEX
  8
0
 62
7
  6
CONTINUOUS
 10
122.6805377213
 20
-25.2904439262
  0
VERTEX
  8
0
 62
7
  6
CONTINUOUS
 10
148.8991646351
 20
-25.2925924551
  0
VERTEX
  8
0
 62
7
  6
CONTINUOUS
 10
176.0509634422
 20
-25.3763959217
  0
SEQEND
  0
POLYLINE
  8
0
 62
7
  6
CONTINUOUS
 66
1
 70
0
  0
VERTEX
  8
0
 62
7
  6
CONTINUOUS
 10
32.5796246093
 20
-20.1816761434
  0
VERTEX
  8
0
 62
7
  6
CONTINUOUS
 10
57.8324357844
 20
-20.484580009
  0
VERTEX
  8
0
 62
7
  6
CONTINUOUS
 10
82.5468778241
 20
-20.7504205534
  0
VERTEX
  8
0
 62
7
  6
CONTINUOUS
 10
106.7222163687
 20
-20.9823529146
  0
VERTEX
  8
0
 62
7
  6
CONTINUOUS
 10
130.3606544975
 20
-21.1709116789
  0
VERTEX
  8
0
 62
7
  6
CONTINUOUS
 10
153.4643952895
 20
-21.3066314326
  0
VERTEX
  8
0
 62
7
  6
CONTINUOUS
 10
176.0327043852
 20
-21.3926673135
  0
SEQEND
  0
POLYLINE
  8
0
 62
7
  6
CONTINUOUS
 66
1
 70
0
  0
VERTEX
  8
0
 62
7
  6
CONTINUOUS
 10
27.0780180507
 20
-29.6957239515
  0
VERTEX
  8
0
 62
7
  6
CONTINUOUS
 10
48.093135417
 20
-30.003597241
  0
VERTEX
  8
0
 62
7
  6
CONTINUOUS
 10
71.5448738752
 20
-30.0052911394
  0
VERTEX
  8
0
 62
7
  6
CONTINUOUS
 10
96.1709660056
 20
-29.8164471636
  0
VERTEX
  8
0
 62
7
  6
CONTINUOUS
 10
121.964583733
 20
-29.6370226415
  0
VERTEX
  8
0
 62
7
  6
CONTINUOUS
 10
148.9482112712
 20
-29.584681421
  0
VERTEX
  8
0
 62
7
  6
CONTINUOUS
 10
175.9766778132
 20
-29.6965802387
  0
SEQEND
  0
POLYLINE
  8
0
 62
7
  6
CONTINUOUS
 66
1
 70
0
  0
VERTEX
  8
0
 62
7
  6
CONTINUOUS
 10
32.5204848487
 20
-22.7049284852
  0
VERTEX
  8
0
 62
7
  6
CONTINUOUS
 10
28.4853204297
 20
-22.4694600873
  0
VERTEX
  8
0
 62
7
  6
CONTINUOUS
 10
24.556864861
 20
-21.8311064477
  0
VERTEX
  8
0
 62
7
  6
CONTINUOUS
 10
20.7136976809
 20
-20.7811681646
  0
VERTEX
  8
0
 62
7
  6
CONTINUOUS
 10
17.0201518176
 20
-19.346517562
  0
VERTEX
  8
0
 62
7
  6
CONTINUOUS
 10
13.5281939477
 20
-17.5448401242
  0
VERTEX
  8
0
 62
7
  6
CONTINUOUS
 10
10.2534849845
 20
-15.3947759757
  0
VERTEX
  8
0
 62
7
  6
CONTINUOUS
 10
7.2158677139
 20
-12.9088778615
  0
VERTEX
  8
0
 62
7
  6
CONTINUOUS
 10
4.4547384153
 20
-10.1227671834
  0
VERTEX
  8
0
 62
7
  6
CONTINUOUS
 10
2.0105499144
 20
-7.0633966575
  0
VERTEX
  8
0
 62
7
  6
CONTINUOUS
 10
-0.10016534
 20
-3.7689208901
  0
VERTEX
  8
0
 62
7
  6
CONTINUOUS
 10
-1.8505979462
 20
-0.2814171288
  0
VERTEX
  8
0
 62
7
  6
CONTINUOUS
 10
-3.2310228501
 20
3.3843011623
  0
VERTEX
  8
0
 62
7
  6
CONTINUOUS
 10
-4.2203814102
 20
7.1957208299
  0
VERTEX
  8
0
 62
7
  6
CONTINUOUS
 10
-4.8256155141
 20
11.16391036
  0
SEQEND
  0
POLYLINE
  8
0
 62
7
  6
CONTINUOUS
 66
1
 70
0
  0
VERTEX
  8
0
 62
7
  6
CONTINUOUS
 10
27.078018689
 20
-29.6957239694
  0
VERTEX
  8
0
 62
7
  6
CONTINUOUS
 10
27.0690849938
 20
-29.6334521363
  0
VERTEX
  8
0
 62
7
  6
CONTINUOUS
 10
27.0630913621
 20
-29.4442718004
  0
VERTEX
  8
0
 62
7
  6
CONTINUOUS
 10
27.0604427056
 20
-29.1363001756
  0
VERTEX
  8
0
 62
7
  6
CONTINUOUS
 10
27.0612455847
 20
-28.7064723325
  0
VERTEX
  8
0
 62
7
  6
CONTINUOUS
 10
27.0657083367
 20
-28.164123801
  0
VERTEX
  8
0
 62
7
  6
CONTINUOUS
 10
27.0738976402
 20
-27.5217881793
  0
VERTEX
  8
0
 62
7
  6
CONTINUOUS
 10
27.0857303677
 20
-26.7980633869
  0
VERTEX
  8
0
 62
7
  6
CONTINUOUS
 10
27.1010134728
 20
-26.0142594433
  0
VERTEX
  8
0
 62
7
  6
CONTINUOUS
 10
27.1186600133
 20
-25.2279640261
  0
SEQEND
  0
LINE
  8
0
 62
7
  6
CONTINUOUS
 10
18.443223291
 20
222.9546896473
 11
18.440818134
 21
221.9314115714
  0
POLYLINE
  8
0
 62
7
  6
CONTINUOUS
 66
1
 70
0
  0
VERTEX
  8
0
 62
7
  6
CONTINUOUS
 10
18.440818134
 20
221.9314115714
  0
VERTEX
  8
0
 62
7
  6
CONTINUOUS
 10
18.4345310597
 20
221.0696714703
  0
VERTEX
  8
0
 62
7
  6
CONTINUOUS
 10
18.4300451399
 20
220.721829996
  0
VERTEX
  8
0
 62
7
  6
CONTINUOUS
 10
18.4248081438
 20
220.4491104117
  0
VERTEX
  8
0
 62
7
  6
CONTINUOUS
 10
18.4189489649
 20
220.2632756103
  0
VERTEX
  8
0
 62
7
  6
CONTINUOUS
 10
18.4128110838
 20
220.1760853399
  0
SEQEND
  0
POLYLINE
  8
0
 62
7
  6
CONTINUOUS
 66
1
 70
0
  0
VERTEX
  8
0
 62
7
  6
CONTINUOUS
 10
-1.2859135104
 20
187.9243047447
  0
VERTEX
  8
0
 62
7
  6
CONTINUOUS
 10
-1.9863362532
 20
187.270312754
  0
VERTEX
  8
0
 62
7
  6
CONTINUOUS
 10
-2.7323408439
 20
186.6226329781
  0
VERTEX
  8
0
 62
7
  6
CONTINUOUS
 10
-3.4971753638
 20
186.0358347058
  0
VERTEX
  8
0
 62
7
  6
CONTINUOUS
 10
-4.2619348851
 20
185.5695811459
  0
VERTEX
  8
0
 62
7
  6
CONTINUOUS
 10
-5.0329210503
 20
185.2039845622
  0
SEQEND
  0
POLYLINE
  8
0
 62
7
  6
CONTINUOUS
 66
1
 70
0
  0
VERTEX
  8
0
 62
7
  6
CONTINUOUS
 10
319.7037066739
 20
2.3737776873
  0
VERTEX
  8
0
 62
7
  6
CONTINUOUS
 10
323.1722910598
 20
2.8285615116
  0
VERTEX
  8
0
 62
7
  6
CONTINUOUS
 10
326.5934500937
 20
3.6182447211
  0
VERTEX
  8
0
 62
7
  6
CONTINUOUS
 10
329.8928770642
 20
4.7158443018
  0
VERTEX
  8
0
 62
7
  6
CONTINUOUS
 10
333.0770916583
 20
6.1126960659
  0
VERTEX
  8
0
 62
7
  6
CONTINUOUS
 10
336.1440097129
 20
7.8070902295
  0
VERTEX
  8
0
 62
7
  6
CONTINUOUS
 10
339.0623102993
 20
9.7856136019
  0
VERTEX
  8
0
 62
7
  6
CONTINUOUS
 10
341.8080665674
 20
12.0373900528
  0
VERTEX
  8
0
 62
7
  6
CONTINUOUS
 10
344.3573341318
 20
14.5515723491
  0
VERTEX
  8
0
 62
7
  6
CONTINUOUS
 10
346.6892873715
 20
17.3222732821
  0
VERTEX
  8
0
 62
7
  6
CONTINUOUS
 10
348.7599523634
 20
20.3130379431
  0
VERTEX
  8
0
 62
7
  6
CONTINUOUS
 10
350.5340960733
 20
23.482006629
  0
VERTEX
  8
0
 62
7
  6
CONTINUOUS
 10
351.9918659931
 20
26.8002046928
  0
VERTEX
  8
0
 62
7
  6
CONTINUOUS
 10
353.1158517665
 20
30.238608185
  0
VERTEX
  8
0
 62
7
  6
CONTINUOUS
 10
353.8840985049
 20
33.7307024502
  0
SEQEND
  0
POLYLINE
  8
0
 62
7
  6
CONTINUOUS
 66
1
 70
0
  0
VERTEX
  8
0
 62
7
  6
CONTINUOUS
 10
52.3617020964
 20
2.3737776873
  0
VERTEX
  8
0
 62
7
  6
CONTINUOUS
 10
48.8931177106
 20
2.8285615116
  0
VERTEX
  8
0
 62
7
  6
CONTINUOUS
 10
45.4719586766
 20
3.6182447211
  0
VERTEX
  8
0
 62
7
  6
CONTINUOUS
 10
42.1725317061
 20
4.7158443018
  0
VERTEX
  8
0
 62
7
  6
CONTINUOUS
 10
38.988317112
 20
6.1126960659
  0
VERTEX
  8
0
 62
7
  6
CONTINUOUS
 10
35.9213990575
 20
7.8070902295
  0
VERTEX
  8
0
 62
7
  6
CONTINUOUS
 10
33.003098471
 20
9.7856136019
  0
VERTEX
  8
0
 62
7
  6
CONTINUOUS
 10
30.2573422029
 20
12.0373900528
  0
VERTEX
  8
0
 62
7
  6
CONTINUOUS
 10
27.7080746386
 20
14.5515723491
  0
VERTEX
  8
0
 62
7
  6
CONTINUOUS
 10
25.3761213988
 20
17.3222732821
  0
VERTEX
  8
0
 62
7
  6
CONTINUOUS
 10
23.305456407
 20
20.3130379431
  0
VERTEX
  8
0
 62
7
  6
CONTINUOUS
 10
21.5313126166
 20
23.4820067902
  0
VERTEX
  8
0
 62
7
  6
CONTINUOUS
 10
20.0735427773
 20
26.8002046928
  0
VERTEX
  8
0
 62
7
  6
CONTINUOUS
 10
18.9495572704
 20
30.2386072076
  0
VERTEX
  8
0
 62
7
  6
CONTINUOUS
 10
18.1813106945
 20
33.7306998956
  0
SEQEND
  0
POLYLINE
  8
0
 62
7
  6
CONTINUOUS
 66
1
 70
0
  0
VERTEX
  8
0
 62
7
  6
CONTINUOUS
 10
46.8530324993
 20
191.9744430001
  0
VERTEX
  8
0
 62
7
  6
CONTINUOUS
 10
47.0178812132
 20
179.6894653339
  0
VERTEX
  8
0
 62
7
  6
CONTINUOUS
 10
47.4290626146
 20
167.5838630137
  0
VERTEX
  8
0
 62
7
  6
CONTINUOUS
 10
48.0760508265
 20
155.8233092979
  0
VERTEX
  8
0
 62
7
  6
CONTINUOUS
 10
48.977693109
 20
143.8977310306
  0
VERTEX
  8
0
 62
7
  6
CONTINUOUS
 10
50.1775986671
 20
131.1793482234
  0
VERTEX
  8
0
 62
7
  6
CONTINUOUS
 10
51.6072239589
 20
118.1892291527
  0
VERTEX
  8
0
 62
7
  6
CONTINUOUS
 10
53.2054740968
 20
105.359023471
  0
VERTEX
  8
0
 62
7
  6
CONTINUOUS
 10
54.9821899389
 20
92.3426355523
  0
VERTEX
  8
0
 62
7
  6
CONTINUOUS
 10
56.9378507144
 20
78.8673313381
  0
VERTEX
  8
0
 62
7
  6
CONTINUOUS
 10
59.0347806143
 20
65.1535403412
  0
VERTEX
  8
0
 62
7
  6
CONTINUOUS
 10
61.2296218526
 20
51.345948137
  0
VERTEX
  8
0
 62
7
  6
CONTINUOUS
 10
63.526091366
 20
37.4079057335
  0
SEQEND
  0
POLYLINE
  8
0
 62
7
  6
CONTINUOUS
 66
1
 70
0
  0
VERTEX
  8
0
 62
7
  6
CONTINUOUS
 10
32.5204214861
 20
-22.7049175806
  0
VERTEX
  8
0
 62
7
  6
CONTINUOUS
 10
32.5363847655
 20
-21.6195597644
  0
VERTEX
  8
0
 62
7
  6
CONTINUOUS
 10
32.5462695402
 20
-21.1438087793
  0
VERTEX
  8
0
 62
7
  6
CONTINUOUS
 10
32.5570156535
 20
-20.7351882875
  0
VERTEX
  8
0
 62
7
  6
CONTINUOUS
 10
32.5683925045
 20
-20.4065619352
  0
VERTEX
  8
0
 62
7
  6
CONTINUOUS
 10
32.5796246625
 20
-20.1816753179
  0
SEQEND
  0
POLYLINE
  8
0
 62
7
  6
CONTINUOUS
 66
1
 70
0
  0
VERTEX
  8
0
 62
7
  6
CONTINUOUS
 10
50.069232018
 20
213.4888302144
  0
VERTEX
  8
0
 62
7
  6
CONTINUOUS
 10
49.6562909785
 20
213.1339085836
  0
VERTEX
  8
0
 62
7
  6
CONTINUOUS
 10
49.2528924347
 20
212.4515437188
  0
VERTEX
  8
0
 62
7
  6
CONTINUOUS
 10
48.8737940668
 20
211.4807153354
  0
VERTEX
  8
0
 62
7
  6
CONTINUOUS
 10
48.5151213736
 20
210.2246489938
  0
VERTEX
  8
0
 62
7
  6
CONTINUOUS
 10
48.175279395
 20
208.6832616017
  0
VERTEX
  8
0
 62
7
  6
CONTINUOUS
 10
47.8622694591
 20
206.8778067362
  0
VERTEX
  8
0
 62
7
  6
CONTINUOUS
 10
47.5817891771
 20
204.812841065
  0
VERTEX
  8
0
 62
7
  6
CONTINUOUS
 10
47.3395864828
 20
202.5256196185
  0
VERTEX
  8
0
 62
7
  6
CONTINUOUS
 10
47.1414781579
 20
200.0674014797
  0
VERTEX
  8
0
 62
7
  6
CONTINUOUS
 10
46.9922085527
 20
197.4642905085
  0
VERTEX
  8
0
 62
7
  6
CONTINUOUS
 10
46.8945012236
 20
194.7361214845
  0
VERTEX
  8
0
 62
7
  6
CONTINUOUS
 10
46.8521081639
 20
191.9742581018
  0
SEQEND
  0
POLYLINE
  8
0
 62
7
  6
CONTINUOUS
 66
1
 70
0
  0
VERTEX
  8
0
 62
7
  6
CONTINUOUS
 10
176.032585796
 20
303.6219152161
  0
VERTEX
  8
0
 62
7
  6
CONTINUOUS
 10
178.437348333
 20
304.6072151712
  0
VERTEX
  8
0
 62
7
  6
CONTINUOUS
 10
180.9056464668
 20
305.3130256316
  0
VERTEX
  8
0
 62
7
  6
CONTINUOUS
 10
183.4532979274
 20
305.7411456601
  0
VERTEX
  8
0
 62
7
  6
CONTINUOUS
 10
186.0327043557
 20
305.8862306528
  0
VERTEX
  8
0
 62
7
  6
CONTINUOUS
 10
188.6121107864
 20
305.7411456403
  0
VERTEX
  8
0
 62
7
  6
CONTINUOUS
 10
191.1597622566
 20
305.313025591
  0
VERTEX
  8
0
 62
7
  6
CONTINUOUS
 10
193.6280604096
 20
304.6072151073
  0
VERTEX
  8
0
 62
7
  6
CONTINUOUS
 10
196.0328229743
 20
303.6219151269
  0
SEQEND
  0
POLYLINE
  8
0
 62
7
  6
CONTINUOUS
 66
1
 70
0
  0
VERTEX
  8
0
 62
7
  6
CONTINUOUS
 10
65.5512739232
 20
5.6549093833
  0
VERTEX
  8
0
 62
7
  6
CONTINUOUS
 10
63.7615423274
 20
5.5937518774
  0
VERTEX
  8
0
 62
7
  6
CONTINUOUS
 10
62.0394014369
 20
5.4675194917
  0
VERTEX
  8
0
 62
7
  6
CONTINUOUS
 10
60.3743538161
 20
5.2748916229
  0
VERTEX
  8
0
 62
7
  6
CONTINUOUS
 10
58.7978917716
 20
5.0198300812
  0
VERTEX
  8
0
 62
7
  6
CONTINUOUS
 10
57.3305679585
 20
4.7042747371
  0
VERTEX
  8
0
 62
7
  6
CONTINUOUS
 10
55.9947038962
 20
4.3329708061
  0
VERTEX
  8
0
 62
7
  6
CONTINUOUS
 10
54.8147869583
 20
3.9097977362
  0
VERTEX
  8
0
 62
7
  6
CONTINUOUS
 10
53.8048722373
 20
3.4392926993
  0
VERTEX
  8
0
 62
7
  6
CONTINUOUS
 10
52.9899544771
 20
2.9280148064
  0
VERTEX
  8
0
 62
7
  6
CONTINUOUS
 10
52.3617020964
 20
2.3737776873
  0
SEQEND
  0
LINE
  8
0
 62
7
  6
CONTINUOUS
 10
70.283005889
 20
5.7189064911
 11
65.5512739232
 21
5.6549093833
  0
LINE
  8
0
 62
7
  6
CONTINUOUS
 10
73.1231677331
 20
5.7513218354
 11
70.283005889
 21
5.7189064911
  0
POLYLINE
  8
0
 62
7
  6
CONTINUOUS
 66
1
 70
0
  0
VERTEX
  8
0
 62
7
  6
CONTINUOUS
 10
218.309573619
 20
5.5884722812
  0
VERTEX
  8
0
 62
7
  6
CONTINUOUS
 10
212.5796636873
 20
5.5505088848
  0
VERTEX
  8
0
 62
7
  6
CONTINUOUS
 10
206.9274515623
 20
5.5153697503
  0
VERTEX
  8
0
 62
7
  6
CONTINUOUS
 10
201.4191561138
 20
5.4843919959
  0
VERTEX
  8
0
 62
7
  6
CONTINUOUS
 10
196.0327043852
 20
5.4571299156
  0
SEQEND
  0
POLYLINE
  8
0
 62
7
  6
CONTINUOUS
 66
1
 70
0
  0
VERTEX
  8
0
 62
7
  6
CONTINUOUS
 10
196.0327043853
 20
5.4571012446
  0
VERTEX
  8
0
 62
7
  6
CONTINUOUS
 10
192.699417994
 20
5.4466873794
  0
VERTEX
  8
0
 62
7
  6
CONTINUOUS
 10
189.3660919666
 20
5.4404417192
  0
VERTEX
  8
0
 62
7
  6
CONTINUOUS
 10
186.032719582
 20
5.438366071
  0
VERTEX
  8
0
 62
7
  6
CONTINUOUS
 10
182.6993438204
 20
5.4404554732
  0
VERTEX
  8
0
 62
7
  6
CONTINUOUS
 10
179.3660076617
 20
5.4467047707
  0
VERTEX
  8
0
 62
7
  6
CONTINUOUS
 10
176.032704385
 20
5.4571155626
  0
SEQEND
  0
POLYLINE
  8
0
 62
7
  6
CONTINUOUS
 66
1
 70
0
  0
VERTEX
  8
0
 62
7
  6
CONTINUOUS
 10
176.0327043852
 20
5.4571299156
  0
VERTEX
  8
0
 62
7
  6
CONTINUOUS
 10
170.6476797502
 20
5.4843853934
  0
VERTEX
  8
0
 62
7
  6
CONTINUOUS
 10
165.1405790555
 20
5.5153564073
  0
VERTEX
  8
0
 62
7
  6
CONTINUOUS
 10
159.4892717917
 20
5.5504885818
  0
SEQEND
  0
POLYLINE
  8
0
 62
7
  6
CONTINUOUS
 66
1
 70
0
  0
VERTEX
  8
0
 62
7
  6
CONTINUOUS
 10
130.2982973725
 20
5.7516617747
  0
VERTEX
  8
0
 62
7
  6
CONTINUOUS
 10
124.6811469345
 20
5.7869233204
  0
VERTEX
  8
0
 62
7
  6
CONTINUOUS
 10
119.1399331088
 20
5.8175660747
  0
VERTEX
  8
0
 62
7
  6
CONTINUOUS
 10
113.4944049016
 20
5.8436200441
  0
VERTEX
  8
0
 62
7
  6
CONTINUOUS
 10
107.8002195485
 20
5.8630116871
  0
VERTEX
  8
0
 62
7
  6
CONTINUOUS
 10
102.0449841399
 20
5.8742586755
  0
VERTEX
  8
0
 62
7
  6
CONTINUOUS
 10
96.2525981186
 20
5.8756173756
  0
VERTEX
  8
0
 62
7
  6
CONTINUOUS
 10
90.4306945434
 20
5.8652395612
  0
VERTEX
  8
0
 62
7
  6
CONTINUOUS
 10
84.6156796566
 20
5.8419566802
  0
VERTEX
  8
0
 62
7
  6
CONTINUOUS
 10
78.8513728775
 20
5.8037610264
  0
VERTEX
  8
0
 62
7
  6
CONTINUOUS
 10
73.1231677331
 20
5.7513218354
  0
SEQEND
  0
LINE
  8
0
 62
7
  6
CONTINUOUS
 10
159.4892717917
 20
5.5504885818
 11
130.2982973725
 21
5.7516617747
  0
POLYLINE
  8
0
 62
7
  6
CONTINUOUS
 66
1
 70
0
  0
VERTEX
  8
0
 62
7
  6
CONTINUOUS
 10
298.9422531164
 20
5.7513875238
  0
VERTEX
  8
0
 62
7
  6
CONTINUOUS
 10
293.2154525913
 20
5.803774366
  0
VERTEX
  8
0
 62
7
  6
CONTINUOUS
 10
287.4523463913
 20
5.8419407187
  0
VERTEX
  8
0
 62
7
  6
CONTINUOUS
 10
281.6382693539
 20
5.8652224891
  0
VERTEX
  8
0
 62
7
  6
CONTINUOUS
 10
275.817216967
 20
5.875611955
  0
VERTEX
  8
0
 62
7
  6
CONTINUOUS
 10
270.0258607196
 20
5.874262998
  0
VERTEX
  8
0
 62
7
  6
CONTINUOUS
 10
264.271507446
 20
5.8630267137
  0
VERTEX
  8
0
 62
7
  6
CONTINUOUS
 10
258.5777799308
 20
5.8436450758
  0
VERTEX
  8
0
 62
7
  6
CONTINUOUS
 10
252.9324018125
 20
5.8175993326
  0
VERTEX
  8
0
 62
7
  6
CONTINUOUS
 10
247.3909745516
 20
5.786960769
  0
VERTEX
  8
0
 62
7
  6
CONTINUOUS
 10
241.7734874676
 20
5.7517012484
  0
VERTEX
  8
0
 62
7
  6
CONTINUOUS
 10
218.309573619
 20
5.5884722812
  0
SEQEND
  0
LINE
  8
0
 62
7
  6
CONTINUOUS
 10
302.7289353855
 20
5.7070577468
 11
298.9422531164
 21
5.7513875238
  0
LINE
  8
0
 62
7
  6
CONTINUOUS
 10
306.5141348471
 20
5.6549093833
 11
302.7289353855
 21
5.7070577468
  0
POLYLINE
  8
0
 62
7
  6
CONTINUOUS
 66
1
 70
0
  0
VERTEX
  8
0
 62
7
  6
CONTINUOUS
 10
65.5512739232
 20
5.6549093833
  0
VERTEX
  8
0
 62
7
  6
CONTINUOUS
 10
65.3254988685
 20
6.8837398014
  0
VERTEX
  8
0
 62
7
  6
CONTINUOUS
 10
65.104173554
 20
8.4371673965
  0
VERTEX
  8
0
 62
7
  6
CONTINUOUS
 10
64.8920756401
 20
10.2712815798
  0
VERTEX
  8
0
 62
7
  6
CONTINUOUS
 10
64.688288639
 20
12.3836856132
  0
VERTEX
  8
0
 62
7
  6
CONTINUOUS
 10
64.4925446873
 20
14.7798071051
  0
VERTEX
  8
0
 62
7
  6
CONTINUOUS
 10
64.307343724
 20
17.4371648165
  0
VERTEX
  8
0
 62
7
  6
CONTINUOUS
 10
64.1343005096
 20
20.341689959
  0
VERTEX
  8
0
 62
7
  6
CONTINUOUS
 10
63.9759351256
 20
23.4608025932
  0
VERTEX
  8
0
 62
7
  6
CONTINUOUS
 10
63.8345301261
 20
26.7558073608
  0
VERTEX
  8
0
 62
7
  6
CONTINUOUS
 10
63.7114336264
 20
30.2014140456
  0
VERTEX
  8
0
 62
7
  6
CONTINUOUS
 10
63.6078900003
 20
33.7749153923
  0
VERTEX
  8
0
 62
7
  6
CONTINUOUS
 10
63.5260909364
 20
37.4079075987
  0
SEQEND
  0
POLYLINE
  8
0
 62
7
  6
CONTINUOUS
 66
1
 70
0
  0
VERTEX
  8
0
 62
7
  6
CONTINUOUS
 10
71.4039405869
 20
36.9998498512
  0
VERTEX
  8
0
 62
7
  6
CONTINUOUS
 10
71.4728202059
 20
33.4794173014
  0
VERTEX
  8
0
 62
7
  6
CONTINUOUS
 10
71.5586740469
 20
30.0378009444
  0
VERTEX
  8
0
 62
7
  6
CONTINUOUS
 10
71.6591743105
 20
26.7479337458
  0
VERTEX
  8
0
 62
7
  6
CONTINUOUS
 10
71.7744858892
 20
23.5927417017
  0
VERTEX
  8
0
 62
7
  6
CONTINUOUS
 10
71.9046504161
 20
20.5665449038
  0
VERTEX
  8
0
 62
7
  6
CONTINUOUS
 10
72.0484278826
 20
17.7090181073
  0
VERTEX
  8
0
 62
7
  6
CONTINUOUS
 10
72.2053165666
 20
15.0474123096
  0
VERTEX
  8
0
 62
7
  6
CONTINUOUS
 10
72.3734867975
 20
12.6153790061
  0
VERTEX
  8
0
 62
7
  6
CONTINUOUS
 10
72.5507942217
 20
10.446875667
  0
VERTEX
  8
0
 62
7
  6
CONTINUOUS
 10
72.7359675459
 20
8.5676157139
  0
VERTEX
  8
0
 62
7
  6
CONTINUOUS
 10
72.9279608992
 20
6.9918218498
  0
VERTEX
  8
0
 62
7
  6
CONTINUOUS
 10
73.123163478
 20
5.7513449752
  0
SEQEND
  0
POLYLINE
  8
0
 62
7
  6
CONTINUOUS
 66
1
 70
0
  0
VERTEX
  8
0
 62
7
  6
CONTINUOUS
 10
-4.8263970161
 20
11.1638949586
  0
VERTEX
  8
0
 62
7
  6
CONTINUOUS
 10
-4.2779148003
 20
11.2235673262
  0
VERTEX
  8
0
 62
7
  6
CONTINUOUS
 10
-3.7511140012
 20
11.2851874341
  0
VERTEX
  8
0
 62
7
  6
CONTINUOUS
 10
-3.2813698251
 20
11.3447121088
  0
VERTEX
  8
0
 62
7
  6
CONTINUOUS
 10
-2.8791007072
 20
11.4008113746
  0
VERTEX
  8
0
 62
7
  6
CONTINUOUS
 10
-2.5569960384
 20
11.4519603232
  0
VERTEX
  8
0
 62
7
  6
CONTINUOUS
 10
-2.3382966133
 20
11.4945748259
  0
SEQEND
  0
LINE
  8
0
 62
7
  6
CONTINUOUS
 10
304.6185886647
 20
37.2005435496
 11
308.5393174044
 21
37.4079057335
  0
LINE
  8
0
 62
7
  6
CONTINUOUS
 10
300.661446158
 20
36.9995652553
 11
304.6185886647
 21
37.2005435496
  0
POLYLINE
  8
0
 62
7
  6
CONTINUOUS
 66
1
 70
0
  0
VERTEX
  8
0
 62
7
  6
CONTINUOUS
 10
196.0325831058
 20
34.1741591433
  0
VERTEX
  8
0
 62
7
  6
CONTINUOUS
 10
199.9486292339
 20
34.1851441331
  0
VERTEX
  8
0
 62
7
  6
CONTINUOUS
 10
204.3918662073
 20
34.2100471306
  0
VERTEX
  8
0
 62
7
  6
CONTINUOUS
 10
209.4083450124
 20
34.2469713613
  0
VERTEX
  8
0
 62
7
  6
CONTINUOUS
 10
214.857332624
 20
34.3006603796
  0
VERTEX
  8
0
 62
7
  6
CONTINUOUS
 10
220.6086352715
 20
34.3741887226
  0
VERTEX
  8
0
 62
7
  6
CONTINUOUS
 10
226.6742124436
 20
34.4698940782
  0
VERTEX
  8
0
 62
7
  6
CONTINUOUS
 10
233.0354489818
 20
34.5913937333
  0
VERTEX
  8
0
 62
7
  6
CONTINUOUS
 10
239.6545018674
 20
34.7387388649
  0
VERTEX
  8
0
 62
7
  6
CONTINUOUS
 10
246.4733387482
 20
34.9133027606
  0
VERTEX
  8
0
 62
7
  6
CONTINUOUS
 10
253.5369056427
 20
35.1165938789
  0
VERTEX
  8
0
 62
7
  6
CONTINUOUS
 10
260.8815274527
 20
35.3513861509
  0
VERTEX
  8
0
 62
7
  6
CONTINUOUS
 10
268.4782817812
 20
35.6175094569
  0
VERTEX
  8
0
 62
7
  6
CONTINUOUS
 10
276.3464158049
 20
35.9172324749
  0
VERTEX
  8
0
 62
7
  6
CONTINUOUS
 10
284.3816911346
 20
36.2482823841
  0
VERTEX
  8
0
 62
7
  6
CONTINUOUS
 10
292.4733631961
 20
36.6079400412
  0
VERTEX
  8
0
 62
7
  6
CONTINUOUS
 10
300.661446158
 20
36.9995652553
  0
SEQEND
  0
LINE
  8
0
 62
7
  6
CONTINUOUS
 10
196.0327055279
 20
34.166275588
 11
189.3660770007
 21
34.1631683315
  0
POLYLINE
  8
0
 62
7
  6
CONTINUOUS
 66
1
 70
0
  0
VERTEX
  8
0
 62
7
  6
CONTINUOUS
 10
189.3660770007
 20
34.1631683315
  0
VERTEX
  8
0
 62
7
  6
CONTINUOUS
 10
179.3660266816
 20
34.1641869788
  0
VERTEX
  8
0
 62
7
  6
CONTINUOUS
 10
176.0327225339
 20
34.1658848259
  0
SEQEND
  0
POLYLINE
  8
0
 62
7
  6
CONTINUOUS
 66
1
 70
0
  0
VERTEX
  8
0
 62
7
  6
CONTINUOUS
 10
71.4039626124
 20
36.9995652553
  0
VERTEX
  8
0
 62
7
  6
CONTINUOUS
 10
79.5978711842
 20
36.6076737241
  0
VERTEX
  8
0
 62
7
  6
CONTINUOUS
 10
87.6946853168
 20
36.2478134613
  0
VERTEX
  8
0
 62
7
  6
CONTINUOUS
 10
95.7345427602
 20
35.9166168763
  0
VERTEX
  8
0
 62
7
  6
CONTINUOUS
 10
103.6063491922
 20
35.6168061828
  0
VERTEX
  8
0
 62
7
  6
CONTINUOUS
 10
111.2053088116
 20
35.3506673799
  0
VERTEX
  8
0
 62
7
  6
CONTINUOUS
 10
118.551401972
 20
35.115898861
  0
VERTEX
  8
0
 62
7
  6
CONTINUOUS
 10
125.6164957985
 20
34.9126410534
  0
VERTEX
  8
0
 62
7
  6
CONTINUOUS
 10
132.436182555
 20
34.7381335171
  0
VERTEX
  8
0
 62
7
  6
CONTINUOUS
 10
139.0548734193
 20
34.5908791233
  0
VERTEX
  8
0
 62
7
  6
CONTINUOUS
 10
145.4147225651
 20
34.469485237
  0
VERTEX
  8
0
 62
7
  6
CONTINUOUS
 10
151.4776933526
 20
34.3738881984
  0
VERTEX
  8
0
 62
7
  6
CONTINUOUS
 10
157.225782552
 20
34.3004606959
  0
VERTEX
  8
0
 62
7
  6
CONTINUOUS
 10
162.6718056611
 20
34.2468458588
  0
VERTEX
  8
0
 62
7
  6
CONTINUOUS
 10
167.6846569157
 20
34.2099788502
  0
VERTEX
  8
0
 62
7
  6
CONTINUOUS
 10
172.1228994548
 20
34.1851189671
  0
VERTEX
  8
0
 62
7
  6
CONTINUOUS
 10
176.0328256646
 20
34.1741591433
  0
SEQEND
  0
LINE
  8
0
 62
7
  6
CONTINUOUS
 10
67.4468201065
 20
37.2005435495
 11
71.4039626124
 21
36.9995652553
  0
LINE
  8
0
 62
7
  6
CONTINUOUS
 10
63.526091366
 20
37.4079057335
 11
67.4468201065
 21
37.2005435495
  0
POLYLINE
  8
0
 62
7
  6
CONTINUOUS
 66
1
 70
0
  0
VERTEX
  8
0
 62
7
  6
CONTINUOUS
 10
376.8918084759
 20
11.1638946761
  0
VERTEX
  8
0
 62
7
  6
CONTINUOUS
 10
376.3433245836
 20
11.223567212
  0
VERTEX
  8
0
 62
7
  6
CONTINUOUS
 10
375.8165227715
 20
11.2851874341
  0
VERTEX
  8
0
 62
7
  6
CONTINUOUS
 10
375.34677868
 20
11.3447120976
  0
VERTEX
  8
0
 62
7
  6
CONTINUOUS
 10
374.9445094776
 20
11.4008113746
  0
VERTEX
  8
0
 62
7
  6
CONTINUOUS
 10
374.6224040151
 20
11.451960461
  0
VERTEX
  8
0
 62
7
  6
CONTINUOUS
 10
374.4037041436
 20
11.4945751104
  0
SEQEND
  0
POLYLINE
  8
0
 62
7
  6
CONTINUOUS
 66
1
 70
0
  0
VERTEX
  8
0
 62
7
  6
CONTINUOUS
 10
196.0327058538
 20
261.8163684699
  0
VERTEX
  8
0
 62
7
  6
CONTINUOUS
 10
193.6278484628
 20
260.8313852981
  0
VERTEX
  8
0
 62
7
  6
CONTINUOUS
 10
191.1595483269
 20
260.125783558
  0
VERTEX
  8
0
 62
7
  6
CONTINUOUS
 10
188.6119823894
 20
259.6977836317
  0
VERTEX
  8
0
 62
7
  6
CONTINUOUS
 10
186.0327043837
 20
259.5527389582
  0
VERTEX
  8
0
 62
7
  6
CONTINUOUS
 10
183.4534263776
 20
259.6977836264
  0
VERTEX
  8
0
 62
7
  6
CONTINUOUS
 10
180.9058604399
 20
260.1257835471
  0
VERTEX
  8
0
 62
7
  6
CONTINUOUS
 10
178.4375603052
 20
260.831385281
  0
VERTEX
  8
0
 62
7
  6
CONTINUOUS
 10
176.0327029165
 20
261.8163684462
  0
SEQEND
  0
POLYLINE
  8
0
 62
7
  6
CONTINUOUS
 66
1
 70
0
  0
VERTEX
  8
0
 62
7
  6
CONTINUOUS
 10
-5.0329210503
 20
185.2039845622
  0
VERTEX
  8
0
 62
7
  6
CONTINUOUS
 10
-7.1937968887
 20
184.4178765858
  0
VERTEX
  8
0
 62
7
  6
CONTINUOUS
 10
-9.3296497451
 20
183.6725330505
  0
VERTEX
  8
0
 62
7
  6
CONTINUOUS
 10
-11.4401269047
 20
182.9612622199
  0
VERTEX
  8
0
 62
7
  6
CONTINUOUS
 10
-13.5262865114
 20
182.3041393028
  0
VERTEX
  8
0
 62
7
  6
CONTINUOUS
 10
-15.5891867086
 20
181.7212395078
  0
VERTEX
  8
0
 62
7
  6
CONTINUOUS
 10
-17.628474782
 20
181.2058710988
  0
SEQEND
  0
POLYLINE
  8
0
 62
7
  6
CONTINUOUS
 66
1
 70
0
  0
VERTEX
  8
0
 62
7
  6
CONTINUOUS
 10
308.5389937777
 20
37.407926676
  0
VERTEX
  8
0
 62
7
  6
CONTINUOUS
 10
313.5800129216
 20
37.1529246114
  0
VERTEX
  8
0
 62
7
  6
CONTINUOUS
 10
318.5809878397
 20
36.8741742711
  0
VERTEX
  8
0
 62
7
  6
CONTINUOUS
 10
323.4564913266
 20
36.5769845192
  0
VERTEX
  8
0
 62
7
  6
CONTINUOUS
 10
328.1548604688
 20
36.2656395779
  0
VERTEX
  8
0
 62
7
  6
CONTINUOUS
 10
332.614534854
 20
35.9435099654
  0
VERTEX
  8
0
 62
7
  6
CONTINUOUS
 10
336.7982792263
 20
35.6147888899
  0
VERTEX
  8
0
 62
7
  6
CONTINUOUS
 10
340.668787425
 20
35.2822481901
  0
VERTEX
  8
0
 62
7
  6
CONTINUOUS
 10
344.1768739783
 20
34.9518160086
  0
VERTEX
  8
0
 62
7
  6
CONTINUOUS
 10
347.2801218299
 20
34.6270911161
  0
VERTEX
  8
0
 62
7
  6
CONTINUOUS
 10
349.9497235827
 20
34.3130045321
  0
VERTEX
  8
0
 62
7
  6
CONTINUOUS
 10
352.1633715684
 20
34.0158952094
  0
VERTEX
  8
0
 62
7
  6
CONTINUOUS
 10
353.8839100706
 20
33.7307319116
  0
SEQEND
  0
POLYLINE
  8
0
 62
7
  6
CONTINUOUS
 66
1
 70
0
  0
VERTEX
  8
0
 62
7
  6
CONTINUOUS
 10
18.1814987
 20
33.7307319086
  0
VERTEX
  8
0
 62
7
  6
CONTINUOUS
 10
19.9038650678
 20
34.0161720583
  0
VERTEX
  8
0
 62
7
  6
CONTINUOUS
 10
22.1200978453
 20
34.3135603619
  0
VERTEX
  8
0
 62
7
  6
CONTINUOUS
 10
24.7928824592
 20
34.6279273925
  0
VERTEX
  8
0
 62
7
  6
CONTINUOUS
 10
27.8996001523
 20
34.9529130124
  0
VERTEX
  8
0
 62
7
  6
CONTINUOUS
 10
31.4111525689
 20
35.2835476171
  0
VERTEX
  8
0
 62
7
  6
CONTINUOUS
 10
35.2845954017
 20
35.6162234302
  0
VERTEX
  8
0
 62
7
  6
CONTINUOUS
 10
39.4702090103
 20
35.9449617588
  0
VERTEX
  8
0
 62
7
  6
CONTINUOUS
 10
43.9302716714
 20
36.2670047414
  0
VERTEX
  8
0
 62
7
  6
CONTINUOUS
 10
48.6272800086
 20
36.5781470396
  0
VERTEX
  8
0
 62
7
  6
CONTINUOUS
 10
53.4991809582
 20
36.8750338608
  0
VERTEX
  8
0
 62
7
  6
CONTINUOUS
 10
58.4938719374
 20
37.1534136482
  0
VERTEX
  8
0
 62
7
  6
CONTINUOUS
 10
63.5264149929
 20
37.40792667
  0
SEQEND
  0
LINE
  8
0
 62
7
  6
CONTINUOUS
 10
177.1247069107
 20
264.1170598805
 11
176.5464432748
 21
262.8950013721
  0
LINE
  8
0
 62
7
  6
CONTINUOUS
 10
176.5464432748
 20
262.8950013721
 11
176.0327076018
 21
261.8163684426
  0
LINE
  8
0
 62
7
  6
CONTINUOUS
 10
195.5465819181
 20
302.6130481735
 11
196.0327340712
 21
303.6219459947
  0
POLYLINE
  8
0
 62
7
  6
CONTINUOUS
 66
1
 70
0
  0
VERTEX
  8
0
 62
7
  6
CONTINUOUS
 10
194.7456249785
 20
301.0229757424
  0
VERTEX
  8
0
 62
7
  6
CONTINUOUS
 10
194.776023775
 20
301.0688383878
  0
VERTEX
  8
0
 62
7
  6
CONTINUOUS
 10
194.8541652703
 20
301.2149043622
  0
VERTEX
  8
0
 62
7
  6
CONTINUOUS
 10
194.9751189077
 20
301.4520442
  0
VERTEX
  8
0
 62
7
  6
CONTINUOUS
 10
195.1346999325
 20
301.7718884792
  0
VERTEX
  8
0
 62
7
  6
CONTINUOUS
 10
195.5465819181
 20
302.6130481735
  0
SEQEND
  0
POLYLINE
  8
0
 62
7
  6
CONTINUOUS
 66
1
 70
0
  0
VERTEX
  8
0
 62
7
  6
CONTINUOUS
 10
177.3327063993
 20
264.5682084068
  0
VERTEX
  8
0
 62
7
  6
CONTINUOUS
 10
177.3105299524
 20
264.5163868446
  0
VERTEX
  8
0
 62
7
  6
CONTINUOUS
 10
177.2392178936
 20
264.3617265724
  0
VERTEX
  8
0
 62
7
  6
CONTINUOUS
 10
177.1247069107
 20
264.1170598805
  0
SEQEND
  0
POLYLINE
  8
0
 62
7
  6
CONTINUOUS
 66
1
 70
0
  0
VERTEX
  8
0
 62
7
  6
CONTINUOUS
 10
-2.3382966232
 20
11.4945748236
  0
VERTEX
  8
0
 62
7
  6
CONTINUOUS
 10
1.1634044659
 20
15.2444836894
  0
VERTEX
  8
0
 62
7
  6
CONTINUOUS
 10
4.6330762124
 20
18.9728092746
  0
VERTEX
  8
0
 62
7
  6
CONTINUOUS
 10
8.0713535584
 20
22.6757752614
  0
VERTEX
  8
0
 62
7
  6
CONTINUOUS
 10
11.4763316771
 20
26.3647106033
  0
VERTEX
  8
0
 62
7
  6
CONTINUOUS
 10
14.8461057417
 20
30.050944254
  0
VERTEX
  8
0
 62
7
  6
CONTINUOUS
 10
18.1813106945
 20
33.7306998956
  0
SEQEND
  0
LINE
  8
0
 62
7
  6
CONTINUOUS
 10
200.9029948187
 20
217.5216770696
 11
200.9032202963
 21
217.5218973382
  0
POLYLINE
  8
0
 62
7
  6
CONTINUOUS
 66
1
 70
0
  0
VERTEX
  8
0
 62
7
  6
CONTINUOUS
 10
200.8997532723
 20
217.5192522166
  0
VERTEX
  8
0
 62
7
  6
CONTINUOUS
 10
201.2905397771
 20
217.8508123981
  0
VERTEX
  8
0
 62
7
  6
CONTINUOUS
 10
201.6534454086
 20
218.0843818088
  0
VERTEX
  8
0
 62
7
  6
CONTINUOUS
 10
201.9194930691
 20
218.2164548471
  0
VERTEX
  8
0
 62
7
  6
CONTINUOUS
 10
202.0846066211
 20
218.281174364
  0
VERTEX
  8
0
 62
7
  6
CONTINUOUS
 10
202.1402821399
 20
218.2989246996
  0
VERTEX
  8
0
 62
7
  6
CONTINUOUS
 10
202.1351058015
 20
218.2975167483
  0
SEQEND
  0
POLYLINE
  8
0
 62
7
  6
CONTINUOUS
 66
1
 70
0
  0
VERTEX
  8
0
 62
7
  6
CONTINUOUS
 10
196.0326914851
 20
110.1664496175
  0
VERTEX
  8
0
 62
7
  6
CONTINUOUS
 10
192.7242521802
 20
109.5022855482
  0
VERTEX
  8
0
 62
7
  6
CONTINUOUS
 10
189.394429366
 20
109.1037546597
  0
VERTEX
  8
0
 62
7
  6
CONTINUOUS
 10
186.0327043852
 20
108.9709010781
  0
VERTEX
  8
0
 62
7
  6
CONTINUOUS
 10
182.6709794043
 20
109.1037546597
  0
VERTEX
  8
0
 62
7
  6
CONTINUOUS
 10
179.3411565901
 20
109.5022855482
  0
VERTEX
  8
0
 62
7
  6
CONTINUOUS
 10
176.0327172852
 20
110.1664496175
  0
SEQEND
  0
POLYLINE
  8
0
 62
7
  6
CONTINUOUS
 66
1
 70
0
  0
VERTEX
  8
0
 62
7
  6
CONTINUOUS
 10
176.0330059327
 20
110.1688246515
  0
VERTEX
  8
0
 62
7
  6
CONTINUOUS
 10
171.8340020051
 20
111.4220355655
  0
VERTEX
  8
0
 62
7
  6
CONTINUOUS
 10
167.8232872622
 20
113.0827117415
  0
VERTEX
  8
0
 62
7
  6
CONTINUOUS
 10
163.9785112342
 20
115.164810091
  0
VERTEX
  8
0
 62
7
  6
CONTINUOUS
 10
160.3671831796
 20
117.6266821761
  0
VERTEX
  8
0
 62
7
  6
CONTINUOUS
 10
157.0437038349
 20
120.4383994982
  0
VERTEX
  8
0
 62
7
  6
CONTINUOUS
 10
154.0251104895
 20
123.5784515633
  0
VERTEX
  8
0
 62
7
  6
CONTINUOUS
 10
151.3321893309
 20
127.0413587817
  0
VERTEX
  8
0
 62
7
  6
CONTINUOUS
 10
149.0082270081
 20
130.7489100143
  0
VERTEX
  8
0
 62
7
  6
CONTINUOUS
 10
147.1069270454
 20
134.6247909248
  0
VERTEX
  8
0
 62
7
  6
CONTINUOUS
 10
145.6176032295
 20
138.6573862785
  0
VERTEX
  8
0
 62
7
  6
CONTINUOUS
 10
144.5434289066
 20
142.822097027
  0
VERTEX
  8
0
 62
7
  6
CONTINUOUS
 10
143.8963952364
 20
147.0818267448
  0
VERTEX
  8
0
 62
7
  6
CONTINUOUS
 10
143.689954892
 20
151.414254713
  0
VERTEX
  8
0
 62
7
  6
CONTINUOUS
 10
143.9223234412
 20
155.7509015578
  0
VERTEX
  8
0
 62
7
  6
CONTINUOUS
 10
144.6001118874
 20
160.0263053203
  0
VERTEX
  8
0
 62
7
  6
CONTINUOUS
 10
145.710396382
 20
164.2093527287
  0
VERTEX
  8
0
 62
7
  6
CONTINUOUS
 10
147.2518470778
 20
168.2647484396
  0
VERTEX
  8
0
 62
7
  6
CONTINUOUS
 10
149.1953274968
 20
172.1397334353
  0
VERTEX
  8
0
 62
7
  6
CONTINUOUS
 10
151.5218001161
 20
175.7783547454
  0
VERTEX
  8
0
 62
7
  6
CONTINUOUS
 10
154.1994018052
 20
179.1542076381
  0
VERTEX
  8
0
 62
7
  6
CONTINUOUS
 10
157.198701354
 20
182.227891511
  0
VERTEX
  8
0
 62
7
  6
CONTINUOUS
 10
160.4946852558
 20
184.9811843891
  0
VERTEX
  8
0
 62
7
  6
CONTINUOUS
 10
164.0687434115
 20
187.390865102
  0
VERTEX
  8
0
 62
7
  6
CONTINUOUS
 10
167.8751252578
 20
189.4309224573
  0
VERTEX
  8
0
 62
7
  6
CONTINUOUS
 10
171.8557917048
 20
191.063201329
  0
VERTEX
  8
0
 62
7
  6
CONTINUOUS
 10
176.0328563351
 20
192.2989091646
  0
SEQEND
  0
POLYLINE
  8
0
 62
7
  6
CONTINUOUS
 66
1
 70
0
  0
VERTEX
  8
0
 62
7
  6
CONTINUOUS
 10
23.527840554
 20
217.6674646174
  0
VERTEX
  8
0
 62
7
  6
CONTINUOUS
 10
23.8096724794
 20
217.4758902542
  0
VERTEX
  8
0
 62
7
  6
CONTINUOUS
 10
23.9943730063
 20
217.28210462
  0
VERTEX
  8
0
 62
7
  6
CONTINUOUS
 10
24.0687131174
 20
217.0838875063
  0
VERTEX
  8
0
 62
7
  6
CONTINUOUS
 10
24.0723798647
 20
216.8878995389
  0
VERTEX
  8
0
 62
7
  6
CONTINUOUS
 10
24.03411024
 20
216.7024710925
  0
VERTEX
  8
0
 62
7
  6
CONTINUOUS
 10
23.9735254069
 20
216.5203727117
  0
VERTEX
  8
0
 62
7
  6
CONTINUOUS
 10
23.914399822
 20
216.334742847
  0
VERTEX
  8
0
 62
7
  6
CONTINUOUS
 10
23.8730105975
 20
216.152808154
  0
VERTEX
  8
0
 62
7
  6
CONTINUOUS
 10
23.8692704648
 20
215.9816047079
  0
VERTEX
  8
0
 62
7
  6
CONTINUOUS
 10
23.9160470237
 20
215.8148427004
  0
VERTEX
  8
0
 62
7
  6
CONTINUOUS
 10
24.0327958377
 20
215.64599959
  0
VERTEX
  8
0
 62
7
  6
CONTINUOUS
 10
24.2196657464
 20
215.4828096524
  0
VERTEX
  8
0
 62
7
  6
CONTINUOUS
 10
24.477261495
 20
215.3334134648
  0
VERTEX
  8
0
 62
7
  6
CONTINUOUS
 10
24.8236709296
 20
215.190069581
  0
VERTEX
  8
0
 62
7
  6
CONTINUOUS
 10
25.2794696562
 20
215.0471215905
  0
VERTEX
  8
0
 62
7
  6
CONTINUOUS
 10
25.8377991396
 20
214.9064549635
  0
SEQEND
  0
POLYLINE
  8
0
 62
7
  6
CONTINUOUS
 66
1
 70
0
  0
VERTEX
  8
0
 62
7
  6
CONTINUOUS
 10
194.2626482091
 20
218.0766671596
  0
VERTEX
  8
0
 62
7
  6
CONTINUOUS
 10
194.4900365775
 20
218.531241542
  0
VERTEX
  8
0
 62
7
  6
CONTINUOUS
 10
194.7545396731
 20
218.930329338
  0
VERTEX
  8
0
 62
7
  6
CONTINUOUS
 10
195.0460391803
 20
219.25726854
  0
VERTEX
  8
0
 62
7
  6
CONTINUOUS
 10
195.3604897816
 20
219.5076707877
  0
VERTEX
  8
0
 62
7
  6
CONTINUOUS
 10
195.6938671557
 20
219.6760581207
  0
VERTEX
  8
0
 62
7
  6
CONTINUOUS
 10
196.0326938991
 20
219.7548435358
  0
SEQEND
  0
POLYLINE
  8
0
 62
7
  6
CONTINUOUS
 66
1
 70
0
  0
VERTEX
  8
0
 62
7
  6
CONTINUOUS
 10
195.605388111
 20
218.0324713604
  0
VERTEX
  8
0
 62
7
  6
CONTINUOUS
 10
195.8689813568
 20
218.4775785789
  0
VERTEX
  8
0
 62
7
  6
CONTINUOUS
 10
196.1745195458
 20
218.8674250999
  0
VERTEX
  8
0
 62
7
  6
CONTINUOUS
 10
196.5105419067
 20
219.1860376644
  0
VERTEX
  8
0
 62
7
  6
CONTINUOUS
 10
196.8724701902
 20
219.4292061919
  0
VERTEX
  8
0
 62
7
  6
CONTINUOUS
 10
197.2557445481
 20
219.5916824206
  0
VERTEX
  8
0
 62
7
  6
CONTINUOUS
 10
197.6451808226
 20
219.6662788179
  0
SEQEND
  0
POLYLINE
  8
0
 62
7
  6
CONTINUOUS
 66
1
 70
0
  0
VERTEX
  8
0
 62
7
  6
CONTINUOUS
 10
200.9032202963
 20
217.5218973382
  0
VERTEX
  8
0
 62
7
  6
CONTINUOUS
 10
200.9149842919
 20
217.5399163186
  0
VERTEX
  8
0
 62
7
  6
CONTINUOUS
 10
200.8183657373
 20
217.6170674179
  0
VERTEX
  8
0
 62
7
  6
CONTINUOUS
 10
200.4858834965
 20
217.69480843
  0
VERTEX
  8
0
 62
7
  6
CONTINUOUS
 10
199.9216579611
 20
217.7711782451
  0
VERTEX
  8
0
 62
7
  6
CONTINUOUS
 10
199.1357273975
 20
217.8443290171
  0
VERTEX
  8
0
 62
7
  6
CONTINUOUS
 10
198.143157708
 20
217.9131364142
  0
VERTEX
  8
0
 62
7
  6
CONTINUOUS
 10
196.9638024849
 20
217.9760846672
  0
VERTEX
  8
0
 62
7
  6
CONTINUOUS
 10
195.6053878567
 20
218.0324708657
  0
SEQEND
  0
POLYLINE
  8
0
 62
7
  6
CONTINUOUS
 66
1
 70
0
  0
VERTEX
  8
0
 62
7
  6
CONTINUOUS
 10
188.1080346077
 20
118.5369236992
  0
VERTEX
  8
0
 62
7
  6
CONTINUOUS
 10
190.7758087682
 20
118.8329029277
  0
VERTEX
  8
0
 62
7
  6
CONTINUOUS
 10
193.3878987955
 20
119.3461391621
  0
VERTEX
  8
0
 62
7
  6
CONTINUOUS
 10
195.9586961457
 20
120.0819258317
  0
VERTEX
  8
0
 62
7
  6
CONTINUOUS
 10
198.4605769228
 20
121.0304710514
  0
VERTEX
  8
0
 62
7
  6
CONTINUOUS
 10
200.8645173229
 20
122.1822367486
  0
VERTEX
  8
0
 62
7
  6
CONTINUOUS
 10
203.1817969792
 20
123.5435862878
  0
SEQEND
  0
POLYLINE
  8
0
 62
7
  6
CONTINUOUS
 66
1
 70
0
  0
VERTEX
  8
0
 62
7
  6
CONTINUOUS
 10
188.1080346077
 20
118.5369236992
  0
VERTEX
  8
0
 62
7
  6
CONTINUOUS
 10
184.9018635216
 20
118.4821695109
  0
VERTEX
  8
0
 62
7
  6
CONTINUOUS
 10
181.7411947917
 20
118.7448861873
  0
VERTEX
  8
0
 62
7
  6
CONTINUOUS
 10
178.5986597328
 20
119.3304977156
  0
VERTEX
  8
0
 62
7
  6
CONTINUOUS
 10
175.5238129859
 20
120.2282752063
  0
VERTEX
  8
0
 62
7
  6
CONTINUOUS
 10
172.5520707044
 20
121.4366136957
  0
VERTEX
  8
0
 62
7
  6
CONTINUOUS
 10
169.7097300783
 20
122.9392303193
  0
VERTEX
  8
0
 62
7
  6
CONTINUOUS
 10
167.0324725509
 20
124.7271588828
  0
VERTEX
  8
0
 62
7
  6
CONTINUOUS
 10
164.5436827464
 20
126.777907066
  0
VERTEX
  8
0
 62
7
  6
CONTINUOUS
 10
162.2773387825
 20
129.072859563
  0
VERTEX
  8
0
 62
7
  6
CONTINUOUS
 10
160.2512887165
 20
131.5872749425
  0
VERTEX
  8
0
 62
7
  6
CONTINUOUS
 10
158.4918294585
 20
134.2975500969
  0
VERTEX
  8
0
 62
7
  6
CONTINUOUS
 10
157.0140467132
 20
137.1742239565
  0
VERTEX
  8
0
 62
7
  6
CONTINUOUS
 10
155.8374886212
 20
140.1881928358
  0
VERTEX
  8
0
 62
7
  6
CONTINUOUS
 10
154.9722699776
 20
143.3065500293
  0
VERTEX
  8
0
 62
7
  6
CONTINUOUS
 10
154.4303036085
 20
146.4956363263
  0
VERTEX
  8
0
 62
7
  6
CONTINUOUS
 10
154.2149131551
 20
149.7222993267
  0
VERTEX
  8
0
 62
7
  6
CONTINUOUS
 10
154.329488219
 20
152.9525545099
  0
VERTEX
  8
0
 62
7
  6
CONTINUOUS
 10
154.7706827375
 20
156.1528428214
  0
VERTEX
  8
0
 62
7
  6
CONTINUOUS
 10
155.5349964095
 20
159.2902569623
  0
VERTEX
  8
0
 62
7
  6
CONTINUOUS
 10
156.6110815361
 20
162.3309499848
  0
VERTEX
  8
0
 62
7
  6
CONTINUOUS
 10
157.9886671315
 20
165.2412338791
  0
VERTEX
  8
0
 62
7
  6
CONTINUOUS
 10
159.6496039925
 20
167.993850072
  0
VERTEX
  8
0
 62
7
  6
CONTINUOUS
 10
161.5798935374
 20
170.5614726906
  0
VERTEX
  8
0
 62
7
  6
CONTINUOUS
 10
163.7533459894
 20
172.9186891066
  0
VERTEX
  8
0
 62
7
  6
CONTINUOUS
 10
166.1400430217
 20
175.0280649371
  0
VERTEX
  8
0
 62
7
  6
CONTINUOUS
 10
168.7425871723
 20
176.9061907022
  0
SEQEND
  0
POLYLINE
  8
0
 62
7
  6
CONTINUOUS
 66
1
 70
0
  0
VERTEX
  8
0
 62
7
  6
CONTINUOUS
 10
319.7037066739
 20
2.3737776873
  0
VERTEX
  8
0
 62
7
  6
CONTINUOUS
 10
319.075958625
 20
2.9277712954
  0
VERTEX
  8
0
 62
7
  6
CONTINUOUS
 10
318.2610461251
 20
3.4390195233
  0
VERTEX
  8
0
 62
7
  6
CONTINUOUS
 10
317.2505941244
 20
3.9097738816
  0
VERTEX
  8
0
 62
7
  6
CONTINUOUS
 10
316.0697277726
 20
4.333279839
  0
VERTEX
  8
0
 62
7
  6
CONTINUOUS
 10
314.732438341
 20
4.7048339864
  0
VERTEX
  8
0
 62
7
  6
CONTINUOUS
 10
313.2637524146
 20
5.0205344681
  0
VERTEX
  8
0
 62
7
  6
CONTINUOUS
 10
311.6863292528
 20
5.2755193816
  0
VERTEX
  8
0
 62
7
  6
CONTINUOUS
 10
310.0212621037
 20
5.4679654572
  0
VERTEX
  8
0
 62
7
  6
CONTINUOUS
 10
308.3007780936
 20
5.5939983031
  0
VERTEX
  8
0
 62
7
  6
CONTINUOUS
 10
306.5141348471
 20
5.6549093833
  0
SEQEND
  0
POLYLINE
  8
0
 62
7
  6
CONTINUOUS
 66
1
 70
0
  0
VERTEX
  8
0
 62
7
  6
CONTINUOUS
 10
196.0887027681
 20
-29.6965804308
  0
VERTEX
  8
0
 62
7
  6
CONTINUOUS
 10
196.0834473031
 20
-29.6310409348
  0
VERTEX
  8
0
 62
7
  6
CONTINUOUS
 10
196.0774297125
 20
-29.4349136775
  0
VERTEX
  8
0
 62
7
  6
CONTINUOUS
 10
196.0709358404
 20
-29.1177521029
  0
SEQEND
  0
LINE
  8
0
 62
7
  6
CONTINUOUS
 10
176.0235414427
 20
-21.3926224286
 11
176.0268147039
 21
-21.6217418943
  0
LINE
  8
0
 62
7
  6
CONTINUOUS
 10
176.0268147039
 20
-21.6217418943
 11
176.0314979553
 21
-22.3727097243
  0
POLYLINE
  8
0
 62
7
  6
CONTINUOUS
 66
1
 70
0
  0
VERTEX
  8
0
 62
7
  6
CONTINUOUS
 10
176.0314979553
 20
-22.3727097243
  0
VERTEX
  8
0
 62
7
  6
CONTINUOUS
 10
176.03315707
 20
-23.4248809978
  0
VERTEX
  8
0
 62
7
  6
CONTINUOUS
 10
176.0327085798
 20
-25.376625749
  0
SEQEND
  0
LINE
  8
0
 62
7
  6
CONTINUOUS
 10
169.939158672
 20
200.3993469006
 11
169.9365879931
 21
204.8775329598
  0
LINE
  8
0
 62
7
  6
CONTINUOUS
 10
176.0327043852
 20
220.4030028894
 11
176.0327043852
 21
219.754844581
  0
LINE
  8
0
 62
7
  6
CONTINUOUS
 10
176.0328256646
 20
34.1741591433
 11
176.0330059327
 21
110.1688246515
  0
LINE
  8
0
 62
7
  6
CONTINUOUS
 10
176.0327804843
 20
192.2992061009
 11
176.0327043852
 21
216.3890569945
  0
LINE
  8
0
 62
7
  6
CONTINUOUS
 10
176.0327057609
 20
303.6215623424
 11
176.0365229614
 21
331.9746750391
  0
LINE
  8
0
 62
7
  6
CONTINUOUS
 10
176.0327005623
 20
333.3897326104
 11
176.0326439886
 21
331.9745719978
  0
LINE
  8
0
 62
7
  6
CONTINUOUS
 10
176.0327029019
 20
261.8164313839
 11
176.0335811052
 21
220.9406240078
  0
POLYLINE
  8
0
 62
7
  6
CONTINUOUS
 66
1
 70
0
  0
VERTEX
  8
0
 62
7
  6
CONTINUOUS
 10
176.0327043852
 20
-21.3926673135
  0
VERTEX
  8
0
 62
7
  6
CONTINUOUS
 10
176.0319938381
 20
30.2260429532
  0
VERTEX
  8
0
 62
7
  6
CONTINUOUS
 10
176.0327225339
 20
34.1658848259
  0
SEQEND
  0
LINE
  8
0
 62
7
  6
CONTINUOUS
 10
169.9365879931
 20
204.8775329598
 11
169.9382105943
 21
208.6385288411
  0
LINE
  8
0
 62
7
  6
CONTINUOUS
 10
169.9382105943
 20
208.6385288411
 11
169.9439967375
 21
211.3422323728
  0
LINE
  8
0
 62
7
  6
CONTINUOUS
 10
176.0335811052
 20
220.9406240078
 11
176.0327043384
 21
220.4029991029
  0
POLYLINE
  8
0
 62
7
  6
CONTINUOUS
 66
1
 70
0
  0
VERTEX
  8
0
 62
7
  6
CONTINUOUS
 10
169.9439967375
 20
211.3422323728
  0
VERTEX
  8
0
 62
7
  6
CONTINUOUS
 10
169.949951373
 20
212.3258020206
  0
VERTEX
  8
0
 62
7
  6
CONTINUOUS
 10
169.9534418315
 20
212.5361389233
  0
SEQEND
  0
LINE
  8
0
 62
7
  6
CONTINUOUS
 10
176.0740418857
 20
-27.5818556077
 11
176.0921511073
 21
-25.376234667
  0
LINE
  8
0
 62
7
  6
CONTINUOUS
 10
176.0326733899
 20
110.1664811715
 11
176.283538242
 21
111.1860332494
  0
POLYLINE
  8
0
 62
7
  6
CONTINUOUS
 66
1
 70
0
  0
VERTEX
  8
0
 62
7
  6
CONTINUOUS
 10
176.283538242
 20
111.1860332494
  0
VERTEX
  8
0
 62
7
  6
CONTINUOUS
 10
176.4944773349
 20
112.0261832603
  0
VERTEX
  8
0
 62
7
  6
CONTINUOUS
 10
176.5790852963
 20
112.3553072769
  0
VERTEX
  8
0
 62
7
  6
CONTINUOUS
 10
176.6446049449
 20
112.6031605316
  0
VERTEX
  8
0
 62
7
  6
CONTINUOUS
 10
176.6879420413
 20
112.7576071348
  0
VERTEX
  8
0
 62
7
  6
CONTINUOUS
 10
176.7061396936
 20
112.8079903773
  0
SEQEND
  0
POLYLINE
  8
0
 62
7
  6
CONTINUOUS
 66
1
 70
0
  0
VERTEX
  8
0
 62
7
  6
CONTINUOUS
 10
195.3159062213
 20
189.5847708814
  0
VERTEX
  8
0
 62
7
  6
CONTINUOUS
 10
195.3388434357
 20
189.6330860967
  0
VERTEX
  8
0
 62
7
  6
CONTINUOUS
 10
195.3866254185
 20
189.7850120516
  0
VERTEX
  8
0
 62
7
  6
CONTINUOUS
 10
195.4563260109
 20
190.0314393525
  0
VERTEX
  8
0
 62
7
  6
CONTINUOUS
 10
195.5456957549
 20
190.3640384563
  0
VERTEX
  8
0
 62
7
  6
CONTINUOUS
 10
195.6517397434
 20
190.7716165028
  0
VERTEX
  8
0
 62
7
  6
CONTINUOUS
 10
195.7710391704
 20
191.2410730151
  0
VERTEX
  8
0
 62
7
  6
CONTINUOUS
 10
196.0325536296
 20
192.2992522548
  0
SEQEND
  0
POLYLINE
  8
0
 62
7
  6
CONTINUOUS
 66
1
 70
0
  0
VERTEX
  8
0
 62
7
  6
CONTINUOUS
 10
52.3617020964
 20
2.3737776873
  0
VERTEX
  8
0
 62
7
  6
CONTINUOUS
 10
49.0818973557
 20
-1.2979143922
  0
VERTEX
  8
0
 62
7
  6
CONTINUOUS
 10
45.7991753278
 20
-5.0049513779
  0
VERTEX
  8
0
 62
7
  6
CONTINUOUS
 10
42.5172541212
 20
-8.7476377844
  0
VERTEX
  8
0
 62
7
  6
CONTINUOUS
 10
39.2249794105
 20
-12.5250600674
  0
VERTEX
  8
0
 62
7
  6
CONTINUOUS
 10
35.9111968704
 20
-16.3363046821
  0
VERTEX
  8
0
 62
7
  6
CONTINUOUS
 10
32.5796246093
 20
-20.1816761434
  0
SEQEND
  0
POLYLINE
  8
0
 62
7
  6
CONTINUOUS
 66
1
 70
0
  0
VERTEX
  8
0
 62
7
  6
CONTINUOUS
 10
18.412811354
 20
220.1760869795
  0
VERTEX
  8
0
 62
7
  6
CONTINUOUS
 10
19.3137080488
 20
219.7697584447
  0
VERTEX
  8
0
 62
7
  6
CONTINUOUS
 10
20.1913434158
 20
219.3586239039
  0
VERTEX
  8
0
 62
7
  6
CONTINUOUS
 10
21.0420568955
 20
218.9425934236
  0
VERTEX
  8
0
 62
7
  6
CONTINUOUS
 10
21.876830166
 20
218.5219368044
  0
VERTEX
  8
0
 62
7
  6
CONTINUOUS
 10
22.7066449053
 20
218.0969238468
  0
VERTEX
  8
0
 62
7
  6
CONTINUOUS
 10
23.527840554
 20
217.6674646174
  0
SEQEND
  0
POLYLINE
  8
0
 62
7
  6
CONTINUOUS
 66
1
 70
0
  0
VERTEX
  8
0
 62
7
  6
CONTINUOUS
 10
204.3066926174
 20
121.8909975385
  0
VERTEX
  8
0
 62
7
  6
CONTINUOUS
 10
204.2812175089
 20
121.9157044814
  0
VERTEX
  8
0
 62
7
  6
CONTINUOUS
 10
204.2182107038
 20
121.9988201185
  0
VERTEX
  8
0
 62
7
  6
CONTINUOUS
 10
204.121253579
 20
122.135464415
  0
VERTEX
  8
0
 62
7
  6
CONTINUOUS
 10
203.9913959765
 20
122.3240266775
  0
VERTEX
  8
0
 62
7
  6
CONTINUOUS
 10
203.8285804954
 20
122.5647199493
  0
VERTEX
  8
0
 62
7
  6
CONTINUOUS
 10
203.6362468061
 20
122.852617848
  0
SEQEND
  0
LINE
  8
0
 62
7
  6
CONTINUOUS
 10
203.6362468061
 20
122.852617848
 11
203.181125732
 21
123.5432286124
  0
POLYLINE
  8
0
 62
7
  6
CONTINUOUS
 66
1
 70
0
  0
VERTEX
  8
0
 62
7
  6
CONTINUOUS
 10
167.7586668487
 20
178.5213937769
  0
VERTEX
  8
0
 62
7
  6
CONTINUOUS
 10
167.7697931309
 20
178.4896315591
  0
VERTEX
  8
0
 62
7
  6
CONTINUOUS
 10
167.8163722078
 20
178.4031730898
  0
VERTEX
  8
0
 62
7
  6
CONTINUOUS
 10
167.8957886843
 20
178.2666887225
  0
VERTEX
  8
0
 62
7
  6
CONTINUOUS
 10
168.0071283512
 20
178.0816109016
  0
VERTEX
  8
0
 62
7
  6
CONTINUOUS
 10
168.1505447494
 20
177.8478158308
  0
VERTEX
  8
0
 62
7
  6
CONTINUOUS
 10
168.3233269428
 20
177.5698784138
  0
VERTEX
  8
0
 62
7
  6
CONTINUOUS
 10
168.7421035361
 20
176.9058059601
  0
SEQEND
  0
POLYLINE
  8
0
 62
7
  6
CONTINUOUS
 66
1
 70
0
  0
VERTEX
  8
0
 62
7
  6
CONTINUOUS
 10
195.4863435058
 20
112.3552485396
  0
VERTEX
  8
0
 62
7
  6
CONTINUOUS
 10
195.420822691
 20
112.6031164273
  0
VERTEX
  8
0
 62
7
  6
CONTINUOUS
 10
195.3774808672
 20
112.7575907012
  0
VERTEX
  8
0
 62
7
  6
CONTINUOUS
 10
195.3592813036
 20
112.8079883462
  0
SEQEND
  0
LINE
  8
0
 62
7
  6
CONTINUOUS
 10
195.6701411479
 20
111.6336109326
 11
195.4863435058
 21
112.3552485396
  0
LINE
  8
0
 62
7
  6
CONTINUOUS
 10
176.2942651436
 20
191.2411943805
 11
176.0327127059
 21
192.2992270385
  0
POLYLINE
  8
0
 62
7
  6
CONTINUOUS
 66
1
 70
0
  0
VERTEX
  8
0
 62
7
  6
CONTINUOUS
 10
196.0327380054
 20
110.1664598386
  0
VERTEX
  8
0
 62
7
  6
CONTINUOUS
 10
195.905429742
 20
110.6860979512
  0
VERTEX
  8
0
 62
7
  6
CONTINUOUS
 10
195.6701411479
 20
111.6336109326
  0
SEQEND
  0
LINE
  8
0
 62
7
  6
CONTINUOUS
 10
202.1154574113
 20
212.3258007484
 11
202.1119669776
 21
212.5361377281
  0
LINE
  8
0
 62
7
  6
CONTINUOUS
 10
196.0709358404
 20
-29.1177521029
 11
196.057656467
 21
-28.1966157443
  0
LINE
  8
0
 62
7
  6
CONTINUOUS
 10
196.057656467
 20
-28.1966157443
 11
196.0440732234
 21
-26.885304338
  0
LINE
  8
0
 62
7
  6
CONTINUOUS
 10
196.0440732234
 20
-26.885304338
 11
196.032670604
 21
-25.3762763286
  0
LINE
  8
0
 62
7
  6
CONTINUOUS
 10
202.1214120309
 20
211.3422328857
 11
202.1154574113
 21
212.3258007484
  0
LINE
  8
0
 62
7
  6
CONTINUOUS
 10
202.1271981761
 20
208.6385288395
 11
202.1214120309
 21
211.3422328857
  0
LINE
  8
0
 62
7
  6
CONTINUOUS
 10
196.028885809
 20
331.974675036
 11
196.0327030094
 21
303.6215623424
  0
LINE
  8
0
 62
7
  6
CONTINUOUS
 10
196.0327055279
 20
34.166275588
 11
196.0338528113
 21
26.4228690974
  0
LINE
  8
0
 62
7
  6
CONTINUOUS
 10
196.0324028376
 20
110.1688247148
 11
196.0325831058
 21
34.1741591433
  0
LINE
  8
0
 62
7
  6
CONTINUOUS
 10
196.0327043852
 20
212.5392732322
 11
196.0327043852
 21
216.3890569945
  0
LINE
  8
0
 62
7
  6
CONTINUOUS
 10
196.0327042243
 20
212.5347620753
 11
196.0327043687
 21
192.299206134
  0
LINE
  8
0
 62
7
  6
CONTINUOUS
 10
202.1284403711
 20
203.4617498068
 11
202.1271981761
 21
208.6385288395
  0
LINE
  8
0
 62
7
  6
CONTINUOUS
 10
196.0338528113
 20
26.4228690974
 11
196.0327043852
 21
-21.3926673201
  0
LINE
  8
0
 62
7
  6
CONTINUOUS
 10
196.0327058685
 20
261.8164319349
 11
196.0327043852
 21
219.754844581
  0
LINE
  8
0
 62
7
  6
CONTINUOUS
 10
202.1262501171
 20
200.3993657749
 11
202.1284403711
 21
203.4617498068
  0
LINE
  8
0
 62
7
  6
CONTINUOUS
 10
196.0247753516
 20
-22.3728104166
 11
196.0235763613
 21
-24.0191968095
  0
POLYLINE
  8
0
 62
7
  6
CONTINUOUS
 66
1
 70
0
  0
VERTEX
  8
0
 62
7
  6
CONTINUOUS
 10
196.0327043852
 20
-21.3926355784
  0
VERTEX
  8
0
 62
7
  6
CONTINUOUS
 10
196.0294408668
 20
-21.6217580452
  0
VERTEX
  8
0
 62
7
  6
CONTINUOUS
 10
196.0247753516
 20
-22.3728104166
  0
SEQEND
  0
LINE
  8
0
 62
7
  6
CONTINUOUS
 10
196.040345786
 20
332.5386660721
 11
196.028885809
 21
331.974675036
  0
LINE
  8
0
 62
7
  6
CONTINUOUS
 10
196.050958181
 20
-24.0204036386
 11
196.0144453474
 21
-25.3763952062
  0
LINE
  8
0
 62
7
  6
CONTINUOUS
 10
196.0442251222
 20
333.3890577813
 11
196.0211991863
 21
332.5391809952
  0
POLYLINE
  8
0
 62
7
  6
CONTINUOUS
 66
1
 70
0
  0
VERTEX
  8
0
 62
7
  6
CONTINUOUS
 10
176.036845754
 20
-29.697106328
  0
VERTEX
  8
0
 62
7
  6
CONTINUOUS
 10
176.0419206466
 20
-29.6315454602
  0
VERTEX
  8
0
 62
7
  6
CONTINUOUS
 10
176.0477756701
 20
-29.4354863075
  0
VERTEX
  8
0
 62
7
  6
CONTINUOUS
 10
176.0541308095
 20
-29.1182368643
  0
VERTEX
  8
0
 62
7
  6
CONTINUOUS
 10
176.0605871358
 20
-28.7055813476
  0
VERTEX
  8
0
 62
7
  6
CONTINUOUS
 10
176.0740418857
 20
-27.5818556077
  0
SEQEND
  0
POLYLINE
  8
0
 62
7
  6
CONTINUOUS
 66
1
 70
0
  0
VERTEX
  8
0
 62
7
  6
CONTINUOUS
 10
348.5375681939
 20
217.6674646057
  0
VERTEX
  8
0
 62
7
  6
CONTINUOUS
 10
349.3587541011
 20
218.0969188023
  0
VERTEX
  8
0
 62
7
  6
CONTINUOUS
 10
350.1885628019
 20
218.5219287421
  0
VERTEX
  8
0
 62
7
  6
CONTINUOUS
 10
351.0233335542
 20
218.9425843596
  0
VERTEX
  8
0
 62
7
  6
CONTINUOUS
 10
351.8740485844
 20
219.358615851
  0
VERTEX
  8
0
 62
7
  6
CONTINUOUS
 10
352.7516901192
 20
219.7697534128
  0
VERTEX
  8
0
 62
7
  6
CONTINUOUS
 10
353.6525974163
 20
220.1760869795
  0
SEQEND
  0
POLYLINE
  8
0
 62
7
  6
CONTINUOUS
 66
1
 70
0
  0
VERTEX
  8
0
 62
7
  6
CONTINUOUS
 10
5.8445668821
 20
192.1822144171
  0
VERTEX
  8
0
 62
7
  6
CONTINUOUS
 10
5.2219336622
 20
192.251790274
  0
VERTEX
  8
0
 62
7
  6
CONTINUOUS
 10
4.6059338285
 20
192.2141322203
  0
VERTEX
  8
0
 62
7
  6
CONTINUOUS
 10
4.0045597608
 20
192.0687217888
  0
VERTEX
  8
0
 62
7
  6
CONTINUOUS
 10
3.3938343202
 20
191.8171143807
  0
VERTEX
  8
0
 62
7
  6
CONTINUOUS
 10
2.7423995219
 20
191.4514978774
  0
VERTEX
  8
0
 62
7
  6
CONTINUOUS
 10
2.0803902831
 20
190.9994563707
  0
VERTEX
  8
0
 62
7
  6
CONTINUOUS
 10
1.4365103427
 20
190.4867577854
  0
VERTEX
  8
0
 62
7
  6
CONTINUOUS
 10
0.7836952506
 20
189.9110385041
  0
VERTEX
  8
0
 62
7
  6
CONTINUOUS
 10
0.0967583265
 20
189.2645319845
  0
VERTEX
  8
0
 62
7
  6
CONTINUOUS
 10
-1.2859135104
 20
187.9243047447
  0
SEQEND
  0
POLYLINE
  8
0
 62
7
  6
CONTINUOUS
 66
1
 70
0
  0
VERTEX
  8
0
 62
7
  6
CONTINUOUS
 10
339.4857841611
 20
-20.1816761434
  0
VERTEX
  8
0
 62
7
  6
CONTINUOUS
 10
336.1542123807
 20
-16.3363052364
  0
VERTEX
  8
0
 62
7
  6
CONTINUOUS
 10
332.8404301308
 20
-12.5250609541
  0
VERTEX
  8
0
 62
7
  6
CONTINUOUS
 10
329.5481555216
 20
-8.7476387816
  0
VERTEX
  8
0
 62
7
  6
CONTINUOUS
 10
326.2662342225
 20
-5.0049522639
  0
VERTEX
  8
0
 62
7
  6
CONTINUOUS
 10
322.9835119033
 20
-1.2979149459
  0
VERTEX
  8
0
 62
7
  6
CONTINUOUS
 10
319.7037066739
 20
2.3737776873
  0
SEQEND
  0
POLYLINE
  8
0
 62
7
  6
CONTINUOUS
 66
1
 70
0
  0
VERTEX
  8
0
 62
7
  6
CONTINUOUS
 10
176.7496620189
 20
189.5847921621
  0
VERTEX
  8
0
 62
7
  6
CONTINUOUS
 10
176.7266764189
 20
189.633146498
  0
VERTEX
  8
0
 62
7
  6
CONTINUOUS
 10
176.6788326324
 20
189.785165971
  0
VERTEX
  8
0
 62
7
  6
CONTINUOUS
 10
176.6090809845
 20
190.0316409092
  0
VERTEX
  8
0
 62
7
  6
CONTINUOUS
 10
176.5196754986
 20
190.3642218535
  0
VERTEX
  8
0
 62
7
  6
CONTINUOUS
 10
176.4135949626
 20
190.7717801605
  0
VERTEX
  8
0
 62
7
  6
CONTINUOUS
 10
176.2942651436
 20
191.2411943805
  0
SEQEND
  0
POLYLINE
  8
0
 62
7
  6
CONTINUOUS
 66
1
 70
0
  0
VERTEX
  8
0
 62
7
  6
CONTINUOUS
 10
208.425019208
 20
127.7820130429
  0
VERTEX
  8
0
 62
7
  6
CONTINUOUS
 10
210.657172514
 20
130.273392172
  0
VERTEX
  8
0
 62
7
  6
CONTINUOUS
 10
212.6065395862
 20
132.9558255963
  0
VERTEX
  8
0
 62
7
  6
CONTINUOUS
 10
214.2692442881
 20
135.846183425
  0
VERTEX
  8
0
 62
7
  6
CONTINUOUS
 10
215.6224784317
 20
138.8960596188
  0
VERTEX
  8
0
 62
7
  6
CONTINUOUS
 10
216.6468856043
 20
142.0717178083
  0
VERTEX
  8
0
 62
7
  6
CONTINUOUS
 10
217.3338579641
 20
145.3370245864
  0
VERTEX
  8
0
 62
7
  6
CONTINUOUS
 10
217.6733996953
 20
148.6551063963
  0
VERTEX
  8
0
 62
7
  6
CONTINUOUS
 10
217.664264949
 20
151.9885229797
  0
VERTEX
  8
0
 62
7
  6
CONTINUOUS
 10
217.3053545623
 20
155.2995087585
  0
VERTEX
  8
0
 62
7
  6
CONTINUOUS
 10
216.6038495317
 20
158.5511688456
  0
VERTEX
  8
0
 62
7
  6
CONTINUOUS
 10
215.5664942104
 20
161.7068325308
  0
VERTEX
  8
0
 62
7
  6
CONTINUOUS
 10
214.2094286459
 20
164.7322729739
  0
VERTEX
  8
0
 62
7
  6
CONTINUOUS
 10
212.5458468772
 20
167.593528913
  0
VERTEX
  8
0
 62
7
  6
CONTINUOUS
 10
210.6006150117
 20
170.2612388431
  0
VERTEX
  8
0
 62
7
  6
CONTINUOUS
 10
208.3919657315
 20
172.7053322136
  0
VERTEX
  8
0
 62
7
  6
CONTINUOUS
 10
205.9522537031
 20
174.9033397045
  0
VERTEX
  8
0
 62
7
  6
CONTINUOUS
 10
203.3037354322
 20
176.8298886601
  0
VERTEX
  8
0
 62
7
  6
CONTINUOUS
 10
200.4837990764
 20
178.4709564474
  0
VERTEX
  8
0
 62
7
  6
CONTINUOUS
 10
197.5183260937
 20
179.8065358274
  0
VERTEX
  8
0
 62
7
  6
CONTINUOUS
 10
194.4462925615
 20
180.8317279164
  0
VERTEX
  8
0
 62
7
  6
CONTINUOUS
 10
191.3182344015
 20
181.5307341316
  0
VERTEX
  8
0
 62
7
  6
CONTINUOUS
 10
188.1081890479
 20
181.9129992837
  0
SEQEND
  0
POLYLINE
  8
0
 62
7
  6
CONTINUOUS
 66
1
 70
0
  0
VERTEX
  8
0
 62
7
  6
CONTINUOUS
 10
203.1817969792
 20
123.5435862878
  0
VERTEX
  8
0
 62
7
  6
CONTINUOUS
 10
204.1131143549
 20
124.1687059874
  0
VERTEX
  8
0
 62
7
  6
CONTINUOUS
 10
205.0222545957
 20
124.8266289303
  0
VERTEX
  8
0
 62
7
  6
CONTINUOUS
 10
205.9096381655
 20
125.518003292
  0
VERTEX
  8
0
 62
7
  6
CONTINUOUS
 10
206.7734386135
 20
126.2415625621
  0
VERTEX
  8
0
 62
7
  6
CONTINUOUS
 10
207.6117917609
 20
126.9960239947
  0
VERTEX
  8
0
 62
7
  6
CONTINUOUS
 10
208.425019208
 20
127.7820130429
  0
SEQEND
  0
POLYLINE
  8
0
 62
7
  6
CONTINUOUS
 66
1
 70
0
  0
VERTEX
  8
0
 62
7
  6
CONTINUOUS
 10
346.2276071857
 20
214.9064541061
  0
VERTEX
  8
0
 62
7
  6
CONTINUOUS
 10
346.7877712861
 20
215.0476563487
  0
VERTEX
  8
0
 62
7
  6
CONTINUOUS
 10
347.244720438
 20
215.1911553023
  0
VERTEX
  8
0
 62
7
  6
CONTINUOUS
 10
347.5915674354
 20
215.3351141985
  0
VERTEX
  8
0
 62
7
  6
CONTINUOUS
 10
347.848973896
 20
215.4850433425
  0
VERTEX
  8
0
 62
7
  6
CONTINUOUS
 10
348.0349454948
 20
215.6484937974
  0
VERTEX
  8
0
 62
7
  6
CONTINUOUS
 10
348.150562855
 20
215.8175065211
  0
VERTEX
  8
0
 62
7
  6
CONTINUOUS
 10
348.1964356618
 20
215.9845304475
  0
VERTEX
  8
0
 62
7
  6
CONTINUOUS
 10
348.1919824047
 20
216.155892711
  0
VERTEX
  8
0
 62
7
  6
CONTINUOUS
 10
348.1501996123
 20
216.3376826586
  0
VERTEX
  8
0
 62
7
  6
CONTINUOUS
 10
348.090962853
 20
216.5230625868
  0
VERTEX
  8
0
 62
7
  6
CONTINUOUS
 10
348.0306074863
 20
216.7049979836
  0
VERTEX
  8
0
 62
7
  6
CONTINUOUS
 10
347.9927506687
 20
216.8901686216
  0
VERTEX
  8
0
 62
7
  6
CONTINUOUS
 10
347.9969812847
 20
217.0856233905
  0
VERTEX
  8
0
 62
7
  6
CONTINUOUS
 10
348.0717195094
 20
217.2832204274
  0
VERTEX
  8
0
 62
7
  6
CONTINUOUS
 10
348.2562838712
 20
217.47644347
  0
VERTEX
  8
0
 62
7
  6
CONTINUOUS
 10
348.5375681939
 20
217.6674646057
  0
SEQEND
  0
POLYLINE
  8
0
 62
7
  6
CONTINUOUS
 66
1
 70
0
  0
VERTEX
  8
0
 62
7
  6
CONTINUOUS
 10
366.2207638658
 20
192.183464879
  0
VERTEX
  8
0
 62
7
  6
CONTINUOUS
 10
364.6167968531
 20
192.035893417
  0
VERTEX
  8
0
 62
7
  6
CONTINUOUS
 10
362.5937267276
 20
191.9124525459
  0
VERTEX
  8
0
 62
7
  6
CONTINUOUS
 10
360.1820780437
 20
191.8100634253
  0
VERTEX
  8
0
 62
7
  6
CONTINUOUS
 10
357.3992999437
 20
191.7309162349
  0
VERTEX
  8
0
 62
7
  6
CONTINUOUS
 10
354.2687583507
 20
191.675774507
  0
VERTEX
  8
0
 62
7
  6
CONTINUOUS
 10
350.8181182578
 20
191.6450239066
  0
VERTEX
  8
0
 62
7
  6
CONTINUOUS
 10
347.0769948244
 20
191.6390114441
  0
VERTEX
  8
0
 62
7
  6
CONTINUOUS
 10
343.0774396065
 20
191.657739758
  0
VERTEX
  8
0
 62
7
  6
CONTINUOUS
 10
338.8547473193
 20
191.7010891566
  0
VERTEX
  8
0
 62
7
  6
CONTINUOUS
 10
334.4437171711
 20
191.7687138385
  0
VERTEX
  8
0
 62
7
  6
CONTINUOUS
 10
329.8719945766
 20
191.8619431675
  0
VERTEX
  8
0
 62
7
  6
CONTINUOUS
 10
325.2123259476
 20
191.9742995791
  0
SEQEND
  0
POLYLINE
  8
0
 62
7
  6
CONTINUOUS
 66
1
 70
0
  0
VERTEX
  8
0
 62
7
  6
CONTINUOUS
 10
188.1081890479
 20
181.9129992837
  0
VERTEX
  8
0
 62
7
  6
CONTINUOUS
 10
184.6952503141
 20
181.9575687665
  0
VERTEX
  8
0
 62
7
  6
CONTINUOUS
 10
181.3445404771
 20
181.6468668669
  0
VERTEX
  8
0
 62
7
  6
CONTINUOUS
 10
178.0230215458
 20
180.9727907446
  0
VERTEX
  8
0
 62
7
  6
CONTINUOUS
 10
174.789124815
 20
179.9520892465
  0
VERTEX
  8
0
 62
7
  6
CONTINUOUS
 10
171.7042605758
 20
178.6004710465
  0
VERTEX
  8
0
 62
7
  6
CONTINUOUS
 10
168.7425871723
 20
176.9061907022
  0
SEQEND
  0
POLYLINE
  8
0
 62
7
  6
CONTINUOUS
 66
1
 70
0
  0
VERTEX
  8
0
 62
7
  6
CONTINUOUS
 10
25.8377991396
 20
214.9064549635
  0
VERTEX
  8
0
 62
7
  6
CONTINUOUS
 10
27.0274406001
 20
214.6874940293
  0
VERTEX
  8
0
 62
7
  6
CONTINUOUS
 10
28.5400824309
 20
214.4821631479
  0
VERTEX
  8
0
 62
7
  6
CONTINUOUS
 10
30.3881028488
 20
214.2893650941
  0
VERTEX
  8
0
 62
7
  6
CONTINUOUS
 10
32.5343672033
 20
214.1123915431
  0
VERTEX
  8
0
 62
7
  6
CONTINUOUS
 10
34.9569728609
 20
213.95364339
  0
VERTEX
  8
0
 62
7
  6
CONTINUOUS
 10
37.6226019874
 20
213.81469575
  0
VERTEX
  8
0
 62
7
  6
CONTINUOUS
 10
40.5029534949
 20
213.6975640768
  0
VERTEX
  8
0
 62
7
  6
CONTINUOUS
 10
43.5610745115
 20
213.6033282496
  0
VERTEX
  8
0
 62
7
  6
CONTINUOUS
 10
46.7447801482
 20
213.5339589275
  0
VERTEX
  8
0
 62
7
  6
CONTINUOUS
 10
50.0714653681
 20
213.4887992242
  0
SEQEND
  0
POLYLINE
  8
0
 62
7
  6
CONTINUOUS
 66
1
 70
0
  0
VERTEX
  8
0
 62
7
  6
CONTINUOUS
 10
171.1628018667
 20
217.5211696855
  0
VERTEX
  8
0
 62
7
  6
CONTINUOUS
 10
171.3680599019
 20
217.3349908044
  0
VERTEX
  8
0
 62
7
  6
CONTINUOUS
 10
171.9409313195
 20
216.9309143689
  0
VERTEX
  8
0
 62
7
  6
CONTINUOUS
 10
172.5756046532
 20
216.6330369722
  0
VERTEX
  8
0
 62
7
  6
CONTINUOUS
 10
173.2581882523
 20
216.4495504944
  0
VERTEX
  8
0
 62
7
  6
CONTINUOUS
 10
173.9512121043
 20
216.3890569945
  0
SEQEND
  0
LINE
  8
0
 62
7
  6
CONTINUOUS
 10
171.1627710922
 20
217.5211996241
 11
171.1628018667
 21
217.5211696855
  0
POLYLINE
  8
0
 62
7
  6
CONTINUOUS
 66
1
 70
0
  0
VERTEX
  8
0
 62
7
  6
CONTINUOUS
 10
176.0327804843
 20
192.2992061009
  0
VERTEX
  8
0
 62
7
  6
CONTINUOUS
 10
179.3418650106
 20
192.9526420018
  0
VERTEX
  8
0
 62
7
  6
CONTINUOUS
 10
182.6717179851
 20
193.3446424298
  0
VERTEX
  8
0
 62
7
  6
CONTINUOUS
 10
186.0326996299
 20
193.4752974254
  0
VERTEX
  8
0
 62
7
  6
CONTINUOUS
 10
189.3936907852
 20
193.3446424298
  0
VERTEX
  8
0
 62
7
  6
CONTINUOUS
 10
192.7235722909
 20
192.9526420111
  0
VERTEX
  8
0
 62
7
  6
CONTINUOUS
 10
196.0327043687
 20
192.299206134
  0
SEQEND
  0
POLYLINE
  8
0
 62
7
  6
CONTINUOUS
 66
1
 70
0
  0
VERTEX
  8
0
 62
7
  6
CONTINUOUS
 10
-18.0545837565
 20
181.1578278694
  0
VERTEX
  8
0
 62
7
  6
CONTINUOUS
 10
-17.80524218
 20
181.1850177778
  0
VERTEX
  8
0
 62
7
  6
CONTINUOUS
 10
-17.628474782
 20
181.2058710988
  0
SEQEND
  0
LINE
  8
0
 62
7
  6
CONTINUOUS
 10
-18.725505231
 20
181.0892748849
 11
-18.0545837565
 21
181.1578278694
  0
POLYLINE
  8
0
 62
7
  6
CONTINUOUS
 66
1
 70
0
  0
VERTEX
  8
0
 62
7
  6
CONTINUOUS
 10
-20.4812445654
 20
180.9222530035
  0
VERTEX
  8
0
 62
7
  6
CONTINUOUS
 10
-20.0153118925
 20
180.9653926846
  0
VERTEX
  8
0
 62
7
  6
CONTINUOUS
 10
-18.725505231
 20
181.0892748849
  0
SEQEND
  0
POLYLINE
  8
0
 62
7
  6
CONTINUOUS
 66
1
 70
0
  0
VERTEX
  8
0
 62
7
  6
CONTINUOUS
 10
100.0374944309
 20
195.3942762113
  0
VERTEX
  8
0
 62
7
  6
CONTINUOUS
 10
95.1548702365
 20
194.9775271752
  0
VERTEX
  8
0
 62
7
  6
CONTINUOUS
 10
90.278820958
 20
194.5689882115
  0
VERTEX
  8
0
 62
7
  6
CONTINUOUS
 10
85.2465310169
 20
194.1621621702
  0
VERTEX
  8
0
 62
7
  6
CONTINUOUS
 10
79.9325195913
 20
193.7485282343
  0
VERTEX
  8
0
 62
7
  6
CONTINUOUS
 10
74.2831447396
 20
193.3399205432
  0
VERTEX
  8
0
 62
7
  6
CONTINUOUS
 10
68.2394950961
 20
192.934878269
  0
VERTEX
  8
0
 62
7
  6
CONTINUOUS
 10
61.7053563546
 20
192.5607477367
  0
VERTEX
  8
0
 62
7
  6
CONTINUOUS
 10
54.5533482399
 20
192.2466843981
  0
VERTEX
  8
0
 62
7
  6
CONTINUOUS
 10
46.8530324993
 20
191.9744430001
  0
SEQEND
  0
POLYLINE
  8
0
 62
7
  6
CONTINUOUS
 66
1
 70
0
  0
VERTEX
  8
0
 62
7
  6
CONTINUOUS
 10
169.9391791047
 20
200.3987556337
  0
VERTEX
  8
0
 62
7
  6
CONTINUOUS
 10
163.2179310099
 20
200.1126602311
  0
VERTEX
  8
0
 62
7
  6
CONTINUOUS
 10
156.8028538707
 20
199.7925664415
  0
VERTEX
  8
0
 62
7
  6
CONTINUOUS
 10
150.7161276621
 20
199.4355884819
  0
VERTEX
  8
0
 62
7
  6
CONTINUOUS
 10
144.8781329572
 20
199.0525055548
  0
VERTEX
  8
0
 62
7
  6
CONTINUOUS
 10
139.1610126908
 20
198.6462543767
  0
VERTEX
  8
0
 62
7
  6
CONTINUOUS
 10
133.7368540106
 20
198.2364628364
  0
VERTEX
  8
0
 62
7
  6
CONTINUOUS
 10
128.8605765994
 20
197.851822892
  0
VERTEX
  8
0
 62
7
  6
CONTINUOUS
 10
124.1590631317
 20
197.4655758362
  0
VERTEX
  8
0
 62
7
  6
CONTINUOUS
 10
119.2856389062
 20
197.0559110545
  0
VERTEX
  8
0
 62
7
  6
CONTINUOUS
 10
114.4164793726
 20
196.6393863575
  0
VERTEX
  8
0
 62
7
  6
CONTINUOUS
 10
100.0374944309
 20
195.3942762113
  0
SEQEND
  0
LINE
  8
0
 62
7
  6
CONTINUOUS
 10
171.6272221486
 20
200.4573477216
 11
169.9391791047
 21
200.3987556337
  0
LINE
  8
0
 62
7
  6
CONTINUOUS
 10
174.0012941903
 20
200.5321087063
 11
171.6272221486
 21
200.4573477216
  0
POLYLINE
  8
0
 62
7
  6
CONTINUOUS
 66
1
 70
0
  0
VERTEX
  8
0
 62
7
  6
CONTINUOUS
 10
176.0327024837
 20
200.5871198672
  0
VERTEX
  8
0
 62
7
  6
CONTINUOUS
 10
175.4030149462
 20
200.5713311891
  0
VERTEX
  8
0
 62
7
  6
CONTINUOUS
 10
174.0012941903
 20
200.5321087063
  0
SEQEND
  0
POLYLINE
  8
0
 62
7
  6
CONTINUOUS
 66
1
 70
0
  0
VERTEX
  8
0
 62
7
  6
CONTINUOUS
 10
46.8530828229
 20
191.9742995791
  0
VERTEX
  8
0
 62
7
  6
CONTINUOUS
 10
42.1933162278
 20
191.8619411334
  0
VERTEX
  8
0
 62
7
  6
CONTINUOUS
 10
37.6215147731
 20
191.768710703
  0
VERTEX
  8
0
 62
7
  6
CONTINUOUS
 10
33.2104281278
 20
191.7010861356
  0
VERTEX
  8
0
 62
7
  6
CONTINUOUS
 10
28.9877021344
 20
191.6577377514
  0
VERTEX
  8
0
 62
7
  6
CONTINUOUS
 10
24.9881348883
 20
191.6390109709
  0
VERTEX
  8
0
 62
7
  6
CONTINUOUS
 10
21.2470201673
 20
191.6450253053
  0
VERTEX
  8
0
 62
7
  6
CONTINUOUS
 10
17.7964063814
 20
191.6757776716
  0
VERTEX
  8
0
 62
7
  6
CONTINUOUS
 10
14.6659056766
 20
191.7309208585
  0
VERTEX
  8
0
 62
7
  6
CONTINUOUS
 10
11.8831779431
 20
191.8100687255
  0
VERTEX
  8
0
 62
7
  6
CONTINUOUS
 10
9.4715843032
 20
191.9124575556
  0
VERTEX
  8
0
 62
7
  6
CONTINUOUS
 10
7.4485679638
 20
192.0358969051
  0
VERTEX
  8
0
 62
7
  6
CONTINUOUS
 10
5.8446449046
 20
192.1834648791
  0
SEQEND
  0
POLYLINE
  8
0
 62
7
  6
CONTINUOUS
 66
1
 70
0
  0
VERTEX
  8
0
 62
7
  6
CONTINUOUS
 10
321.9939214025
 20
213.4887990106
  0
VERTEX
  8
0
 62
7
  6
CONTINUOUS
 10
325.3208480459
 20
213.5339635809
  0
VERTEX
  8
0
 62
7
  6
CONTINUOUS
 10
328.5047245896
 20
213.6033385674
  0
VERTEX
  8
0
 62
7
  6
CONTINUOUS
 10
331.5629421916
 20
213.6975814495
  0
VERTEX
  8
0
 62
7
  6
CONTINUOUS
 10
334.4433273778
 20
213.8147197883
  0
VERTEX
  8
0
 62
7
  6
CONTINUOUS
 10
337.1089327795
 20
213.9536724067
  0
VERTEX
  8
0
 62
7
  6
CONTINUOUS
 10
339.5314712389
 20
214.1124229982
  0
VERTEX
  8
0
 62
7
  6
CONTINUOUS
 10
341.6776345618
 20
214.2893953202
  0
VERTEX
  8
0
 62
7
  6
CONTINUOUS
 10
343.5255384892
 20
214.4821880038
  0
VERTEX
  8
0
 62
7
  6
CONTINUOUS
 10
345.0380726566
 20
214.6875084179
  0
VERTEX
  8
0
 62
7
  6
CONTINUOUS
 10
346.2276071857
 20
214.9064541061
  0
SEQEND
  0
POLYLINE
  8
0
 62
7
  6
CONTINUOUS
 66
1
 70
0
  0
VERTEX
  8
0
 62
7
  6
CONTINUOUS
 10
212.089807177
 20
212.5559927693
  0
VERTEX
  8
0
 62
7
  6
CONTINUOUS
 10
222.7923501879
 20
212.599429225
  0
VERTEX
  8
0
 62
7
  6
CONTINUOUS
 10
234.212127371
 20
212.6669882374
  0
VERTEX
  8
0
 62
7
  6
CONTINUOUS
 10
246.3715444378
 20
212.7570481729
  0
VERTEX
  8
0
 62
7
  6
CONTINUOUS
 10
259.5133776024
 20
212.8721053191
  0
VERTEX
  8
0
 62
7
  6
CONTINUOUS
 10
272.969046786
 20
213.0003464569
  0
VERTEX
  8
0
 62
7
  6
CONTINUOUS
 10
286.2428948697
 20
213.1330129356
  0
VERTEX
  8
0
 62
7
  6
CONTINUOUS
 10
299.0589291869
 20
213.2634373379
  0
VERTEX
  8
0
 62
7
  6
CONTINUOUS
 10
310.9207865679
 20
213.3808343252
  0
VERTEX
  8
0
 62
7
  6
CONTINUOUS
 10
321.9939214025
 20
213.4887990106
  0
SEQEND
  0
LINE
  8
0
 62
7
  6
CONTINUOUS
 10
196.0327043442
 20
200.587150097
 11
186.0327401481
 21
200.5849086309
  0
LINE
  8
0
 62
7
  6
CONTINUOUS
 10
198.0594191404
 20
212.534281699
 11
212.089807177
 21
212.5559927693
  0
LINE
  8
0
 62
7
  6
CONTINUOUS
 10
196.0327043852
 20
212.5392732322
 11
176.0327043852
 21
212.5392732322
  0
LINE
  8
0
 62
7
  6
CONTINUOUS
 10
186.0327401481
 20
200.5849086309
 11
176.0327805131
 21
200.5871500627
  0
LINE
  8
0
 62
7
  6
CONTINUOUS
 10
196.0327043852
 20
212.5347772983
 11
198.0594191404
 21
212.534281699
  0
LINE
  8
0
 62
7
  6
CONTINUOUS
 10
169.9534419908
 20
212.5361383257
 11
176.0327043852
 21
212.5347772981
  0
POLYLINE
  8
0
 62
7
  6
CONTINUOUS
 66
1
 70
0
  0
VERTEX
  8
0
 62
7
  6
CONTINUOUS
 10
50.0714653681
 20
213.4887992242
  0
VERTEX
  8
0
 62
7
  6
CONTINUOUS
 10
73.1057022532
 20
213.2624362431
  0
VERTEX
  8
0
 62
7
  6
CONTINUOUS
 10
85.779146264
 20
213.1334381681
  0
VERTEX
  8
0
 62
7
  6
CONTINUOUS
 10
98.9110256027
 20
213.0021768331
  0
VERTEX
  8
0
 62
7
  6
CONTINUOUS
 10
112.3980964738
 20
212.8735577931
  0
VERTEX
  8
0
 62
7
  6
CONTINUOUS
 10
125.6127451119
 20
212.7577077721
  0
VERTEX
  8
0
 62
7
  6
CONTINUOUS
 10
137.7999033619
 20
212.667341214
  0
VERTEX
  8
0
 62
7
  6
CONTINUOUS
 10
149.2386905974
 20
212.5996005149
  0
VERTEX
  8
0
 62
7
  6
CONTINUOUS
 10
159.9599655556
 20
212.5560387868
  0
VERTEX
  8
0
 62
7
  6
CONTINUOUS
 10
169.9534419908
 20
212.5361383257
  0
SEQEND
  0
LINE
  8
0
 62
7
  6
CONTINUOUS
 10
197.3385119142
 20
200.5530346505
 11
196.0327062867
 21
200.5871198672
  0
LINE
  8
0
 62
7
  6
CONTINUOUS
 10
199.6211424367
 20
200.4840593272
 11
197.3385119142
 21
200.5530346505
  0
POLYLINE
  8
0
 62
7
  6
CONTINUOUS
 66
1
 70
0
  0
VERTEX
  8
0
 62
7
  6
CONTINUOUS
 10
325.2123762711
 20
191.9744430001
  0
VERTEX
  8
0
 62
7
  6
CONTINUOUS
 10
317.4837081887
 20
192.2479989481
  0
VERTEX
  8
0
 62
7
  6
CONTINUOUS
 10
310.3047134706
 20
192.5636847521
  0
VERTEX
  8
0
 62
7
  6
CONTINUOUS
 10
303.7442333203
 20
192.9399764092
  0
VERTEX
  8
0
 62
7
  6
CONTINUOUS
 10
297.6776691879
 20
193.3472276944
  0
VERTEX
  8
0
 62
7
  6
CONTINUOUS
 10
292.0158205906
 20
193.7572877811
  0
VERTEX
  8
0
 62
7
  6
CONTINUOUS
 10
286.6861859771
 20
194.1727089017
  0
VERTEX
  8
0
 62
7
  6
CONTINUOUS
 10
281.615991662
 20
194.5831098873
  0
VERTEX
  8
0
 62
7
  6
CONTINUOUS
 10
276.7030449764
 20
194.9950944399
  0
VERTEX
  8
0
 62
7
  6
CONTINUOUS
 10
271.8068014551
 20
195.4132820873
  0
SEQEND
  0
POLYLINE
  8
0
 62
7
  6
CONTINUOUS
 66
1
 70
0
  0
VERTEX
  8
0
 62
7
  6
CONTINUOUS
 10
202.1262296656
 20
200.3987556337
  0
VERTEX
  8
0
 62
7
  6
CONTINUOUS
 10
201.2726440986
 20
200.4289138945
  0
VERTEX
  8
0
 62
7
  6
CONTINUOUS
 10
199.6211424367
 20
200.4840593272
  0
SEQEND
  0
POLYLINE
  8
0
 62
7
  6
CONTINUOUS
 66
1
 70
0
  0
VERTEX
  8
0
 62
7
  6
CONTINUOUS
 10
257.4059842297
 20
196.6603138609
  0
VERTEX
  8
0
 62
7
  6
CONTINUOUS
 10
252.5105146199
 20
197.0787025002
  0
VERTEX
  8
0
 62
7
  6
CONTINUOUS
 10
247.6168289816
 20
197.4895912425
  0
VERTEX
  8
0
 62
7
  6
CONTINUOUS
 10
242.9272489718
 20
197.8742343874
  0
VERTEX
  8
0
 62
7
  6
CONTINUOUS
 10
238.0717237628
 20
198.2563652081
  0
VERTEX
  8
0
 62
7
  6
CONTINUOUS
 10
232.6563413111
 20
198.664373217
  0
VERTEX
  8
0
 62
7
  6
CONTINUOUS
 10
226.9544659832
 20
199.0684023757
  0
VERTEX
  8
0
 62
7
  6
CONTINUOUS
 10
221.1509717565
 20
199.4478825775
  0
VERTEX
  8
0
 62
7
  6
CONTINUOUS
 10
215.1142495402
 20
199.8007297515
  0
VERTEX
  8
0
 62
7
  6
CONTINUOUS
 10
208.7652952398
 20
200.1167968613
  0
VERTEX
  8
0
 62
7
  6
CONTINUOUS
 10
202.1262296656
 20
200.3987556337
  0
SEQEND
  0
LINE
  8
0
 62
7
  6
CONTINUOUS
 10
271.8068014551
 20
195.4132820873
 11
257.4059842297
 21
196.6603138609
  0
LINE
  8
0
 62
7
  6
CONTINUOUS
 10
392.5466541796
 20
180.922252926
 11
391.621247552
 21
181.0087001414
  0
LINE
  8
0
 62
7
  6
CONTINUOUS
 10
391.621247552
 20
181.0087001414
 11
390.7909140013
 21
181.0892748849
  0
POLYLINE
  8
0
 62
7
  6
CONTINUOUS
 66
1
 70
0
  0
VERTEX
  8
0
 62
7
  6
CONTINUOUS
 10
390.7909140013
 20
181.0892748849
  0
VERTEX
  8
0
 62
7
  6
CONTINUOUS
 10
390.1199925268
 20
181.1578278694
  0
VERTEX
  8
0
 62
7
  6
CONTINUOUS
 10
389.8706509387
 20
181.1850177792
  0
VERTEX
  8
0
 62
7
  6
CONTINUOUS
 10
389.693883533
 20
181.2058711012
  0
SEQEND
  0
POLYLINE
  8
0
 62
7
  6
CONTINUOUS
 66
1
 70
0
  0
VERTEX
  8
0
 62
7
  6
CONTINUOUS
 10
169.9258975058
 20
218.2988191722
  0
VERTEX
  8
0
 62
7
  6
CONTINUOUS
 10
169.9166993564
 20
218.3012444243
  0
VERTEX
  8
0
 62
7
  6
CONTINUOUS
 10
169.961317828
 20
218.287295276
  0
VERTEX
  8
0
 62
7
  6
CONTINUOUS
 10
170.1183536666
 20
218.2274661828
  0
VERTEX
  8
0
 62
7
  6
CONTINUOUS
 10
170.3766309604
 20
218.1029442375
  0
VERTEX
  8
0
 62
7
  6
CONTINUOUS
 10
170.7305250045
 20
217.8821437393
  0
VERTEX
  8
0
 62
7
  6
CONTINUOUS
 10
171.115691575
 20
217.5665319472
  0
VERTEX
  8
0
 62
7
  6
CONTINUOUS
 10
171.1629277446
 20
217.521386585
  0
SEQEND
  0
POLYLINE
  8
0
 62
7
  6
CONTINUOUS
 66
1
 70
0
  0
VERTEX
  8
0
 62
7
  6
CONTINUOUS
 10
196.0327172749
 20
192.2988510967
  0
VERTEX
  8
0
 62
7
  6
CONTINUOUS
 10
200.2131827745
 20
191.0623398911
  0
VERTEX
  8
0
 62
7
  6
CONTINUOUS
 10
204.1995128953
 20
189.4262566734
  0
VERTEX
  8
0
 62
7
  6
CONTINUOUS
 10
208.0154201438
 20
187.3783547719
  0
VERTEX
  8
0
 62
7
  6
CONTINUOUS
 10
211.5981080259
 20
184.9599603858
  0
VERTEX
  8
0
 62
7
  6
CONTINUOUS
 10
214.8960202124
 20
182.201202318
  0
VERTEX
  8
0
 62
7
  6
CONTINUOUS
 10
217.8952388686
 20
179.1213297275
  0
VERTEX
  8
0
 62
7
  6
CONTINUOUS
 10
220.5779773072
 20
175.7239343106
  0
VERTEX
  8
0
 62
7
  6
CONTINUOUS
 10
222.9014102279
 20
172.0845735457
  0
VERTEX
  8
0
 62
7
  6
CONTINUOUS
 10
224.8128844591
 20
168.2763875418
  0
VERTEX
  8
0
 62
7
  6
CONTINUOUS
 10
226.3227719808
 20
164.3084529597
  0
VERTEX
  8
0
 62
7
  6
CONTINUOUS
 10
227.4284070354
 20
160.2027448812
  0
VERTEX
  8
0
 62
7
  6
CONTINUOUS
 10
228.1165214059
 20
155.9936100116
  0
VERTEX
  8
0
 62
7
  6
CONTINUOUS
 10
228.3738002289
 20
151.7009551657
  0
VERTEX
  8
0
 62
7
  6
CONTINUOUS
 10
228.1985256387
 20
147.3902650896
  0
VERTEX
  8
0
 62
7
  6
CONTINUOUS
 10
227.5828427768
 20
143.124948789
  0
VERTEX
  8
0
 62
7
  6
CONTINUOUS
 10
226.532964784
 20
138.9313646259
  0
VERTEX
  8
0
 62
7
  6
CONTINUOUS
 10
225.0497099228
 20
134.8429266098
  0
VERTEX
  8
0
 62
7
  6
CONTINUOUS
 10
223.1420167645
 20
130.9023167926
  0
VERTEX
  8
0
 62
7
  6
CONTINUOUS
 10
220.8008263645
 20
127.1390925142
  0
VERTEX
  8
0
 62
7
  6
CONTINUOUS
 10
218.0812331969
 20
123.6262175183
  0
VERTEX
  8
0
 62
7
  6
CONTINUOUS
 10
215.0243138516
 20
120.4425489438
  0
VERTEX
  8
0
 62
7
  6
CONTINUOUS
 10
211.663296809
 20
117.5995019121
  0
VERTEX
  8
0
 62
7
  6
CONTINUOUS
 10
208.0239121518
 20
115.1270541222
  0
VERTEX
  8
0
 62
7
  6
CONTINUOUS
 10
204.1696259336
 20
113.0480837355
  0
VERTEX
  8
0
 62
7
  6
CONTINUOUS
 10
200.1814007705
 20
111.3994827417
  0
VERTEX
  8
0
 62
7
  6
CONTINUOUS
 10
196.0324028376
 20
110.1688247148
  0
SEQEND
  0
POLYLINE
  8
0
 62
7
  6
CONTINUOUS
 66
1
 70
0
  0
VERTEX
  8
0
 62
7
  6
CONTINUOUS
 10
353.8840980758
 20
33.7306998956
  0
VERTEX
  8
0
 62
7
  6
CONTINUOUS
 10
357.2193025231
 20
30.0509448051
  0
VERTEX
  8
0
 62
7
  6
CONTINUOUS
 10
360.5890762842
 20
26.3647114832
  0
VERTEX
  8
0
 62
7
  6
CONTINUOUS
 10
363.9940543009
 20
22.6757762462
  0
VERTEX
  8
0
 62
7
  6
CONTINUOUS
 10
367.4323317474
 20
18.9728101456
  0
VERTEX
  8
0
 62
7
  6
CONTINUOUS
 10
370.9020037976
 20
15.2444842326
  0
VERTEX
  8
0
 62
7
  6
CONTINUOUS
 10
374.4037053935
 20
11.4945748236
  0
SEQEND
  0
LINE
  8
0
 62
7
  6
CONTINUOUS
 10
176.9437884983
 20
301.7454365482
 11
176.5307102494
 21
302.5884436332
  0
LINE
  8
0
 62
7
  6
CONTINUOUS
 10
176.5307102494
 20
302.5884436332
 11
176.0327325352
 21
303.621623257
  0
LINE
  8
0
 62
7
  6
CONTINUOUS
 10
195.096244149
 20
263.7878701706
 11
196.0330590871
 21
261.8166509113
  0
POLYLINE
  8
0
 62
7
  6
CONTINUOUS
 66
1
 70
0
  0
VERTEX
  8
0
 62
7
  6
CONTINUOUS
 10
194.7330001928
 20
264.5683505376
  0
VERTEX
  8
0
 62
7
  6
CONTINUOUS
 10
194.7551632124
 20
264.5165909175
  0
VERTEX
  8
0
 62
7
  6
CONTINUOUS
 10
194.826437505
 20
264.3620459181
  0
VERTEX
  8
0
 62
7
  6
CONTINUOUS
 10
195.096244149
 20
263.7878701706
  0
SEQEND
  0
LINE
  8
0
 62
7
  6
CONTINUOUS
 10
202.3423291543
 20
218.2553816352
 11
201.8663926271
 21
218.1900943946
  0
POLYLINE
  8
0
 62
7
  6
CONTINUOUS
 66
1
 70
0
  0
VERTEX
  8
0
 62
7
  6
CONTINUOUS
 10
193.5710143703
 20
216.3890569945
  0
VERTEX
  8
0
 62
7
  6
CONTINUOUS
 10
193.9599216026
 20
216.4370663292
  0
VERTEX
  8
0
 62
7
  6
CONTINUOUS
 10
194.3444914627
 20
216.5824962804
  0
VERTEX
  8
0
 62
7
  6
CONTINUOUS
 10
194.7070515732
 20
216.8194038541
  0
VERTEX
  8
0
 62
7
  6
CONTINUOUS
 10
195.0429190465
 20
217.1438310171
  0
VERTEX
  8
0
 62
7
  6
CONTINUOUS
 10
195.3471267995
 20
217.5540116355
  0
VERTEX
  8
0
 62
7
  6
CONTINUOUS
 10
195.6053878566
 20
218.0324708657
  0
SEQEND
  0
POLYLINE
  8
0
 62
7
  6
CONTINUOUS
 66
1
 70
0
  0
VERTEX
  8
0
 62
7
  6
CONTINUOUS
 10
198.1140882735
 20
216.3890569945
  0
VERTEX
  8
0
 62
7
  6
CONTINUOUS
 10
198.8071679349
 20
216.4495614375
  0
VERTEX
  8
0
 62
7
  6
CONTINUOUS
 10
199.4898062562
 20
216.6330820877
  0
VERTEX
  8
0
 62
7
  6
CONTINUOUS
 10
200.1245222303
 20
216.9310141255
  0
VERTEX
  8
0
 62
7
  6
CONTINUOUS
 10
200.6974205879
 20
217.3351631166
  0
VERTEX
  8
0
 62
7
  6
CONTINUOUS
 10
200.9029948187
 20
217.5216770696
  0
SEQEND
  0
POLYLINE
  8
0
 62
7
  6
CONTINUOUS
 66
1
 70
0
  0
VERTEX
  8
0
 62
7
  6
CONTINUOUS
 10
25.8366231457
 20
214.9066396092
  0
VERTEX
  8
0
 62
7
  6
CONTINUOUS
 10
23.5070414373
 20
214.7118086099
  0
VERTEX
  8
0
 62
7
  6
CONTINUOUS
 10
21.2185165054
 20
214.2386177127
  0
VERTEX
  8
0
 62
7
  6
CONTINUOUS
 10
19.0408285351
 20
213.5126136946
  0
VERTEX
  8
0
 62
7
  6
CONTINUOUS
 10
16.9656910098
 20
212.5436850514
  0
VERTEX
  8
0
 62
7
  6
CONTINUOUS
 10
14.9911392392
 20
211.3313848366
  0
VERTEX
  8
0
 62
7
  6
CONTINUOUS
 10
13.1472718208
 20
209.8890535761
  0
VERTEX
  8
0
 62
7
  6
CONTINUOUS
 10
11.4564158296
 20
208.2281042146
  0
VERTEX
  8
0
 62
7
  6
CONTINUOUS
 10
9.9386693922
 20
206.3579171473
  0
VERTEX
  8
0
 62
7
  6
CONTINUOUS
 10
8.6132484213
 20
204.2833180494
  0
VERTEX
  8
0
 62
7
  6
CONTINUOUS
 10
7.518190329
 20
202.0424386208
  0
VERTEX
  8
0
 62
7
  6
CONTINUOUS
 10
6.6817411161
 20
199.6813307571
  0
VERTEX
  8
0
 62
7
  6
CONTINUOUS
 10
6.1164407594
 20
197.2257963444
  0
VERTEX
  8
0
 62
7
  6
CONTINUOUS
 10
5.8343797759
 20
194.7029286776
  0
VERTEX
  8
0
 62
7
  6
CONTINUOUS
 10
5.8444883452
 20
192.1834846314
  0
SEQEND
  0
POLYLINE
  8
0
 62
7
  6
CONTINUOUS
 66
1
 70
0
  0
VERTEX
  8
0
 62
7
  6
CONTINUOUS
 10
23.5278405543
 20
217.6674646171
  0
VERTEX
  8
0
 62
7
  6
CONTINUOUS
 10
20.6225439292
 20
217.4470385179
  0
VERTEX
  8
0
 62
7
  6
CONTINUOUS
 10
17.7515936933
 20
216.9216095046
  0
VERTEX
  8
0
 62
7
  6
CONTINUOUS
 10
14.9746556036
 20
216.108037336
  0
VERTEX
  8
0
 62
7
  6
CONTINUOUS
 10
12.3062645458
 20
215.0211442257
  0
VERTEX
  8
0
 62
7
  6
CONTINUOUS
 10
9.7706239072
 20
213.6776782938
  0
VERTEX
  8
0
 62
7
  6
CONTINUOUS
 10
7.3682039757
 20
212.083772559
  0
VERTEX
  8
0
 62
7
  6
CONTINUOUS
 10
5.0979608681
 20
210.230607423
  0
VERTEX
  8
0
 62
7
  6
CONTINUOUS
 10
2.9929327742
 20
208.1364240271
  0
VERTEX
  8
0
 62
7
  6
CONTINUOUS
 10
1.0809564753
 20
205.8157329313
  0
VERTEX
  8
0
 62
7
  6
CONTINUOUS
 10
-0.6183834496
 20
203.2813083767
  0
VERTEX
  8
0
 62
7
  6
CONTINUOUS
 10
-2.0818887434
 20
200.5452841561
  0
VERTEX
  8
0
 62
7
  6
CONTINUOUS
 10
-3.2794413157
 20
197.6430452438
  0
VERTEX
  8
0
 62
7
  6
CONTINUOUS
 10
-4.1865952601
 20
194.6124502185
  0
VERTEX
  8
0
 62
7
  6
CONTINUOUS
 10
-4.7863983947
 20
191.4969000586
  0
VERTEX
  8
0
 62
7
  6
CONTINUOUS
 10
-5.0688312029
 20
188.3405001426
  0
VERTEX
  8
0
 62
7
  6
CONTINUOUS
 10
-5.0329211189
 20
185.203984538
  0
SEQEND
  0
LINE
  8
0
 62
7
  6
CONTINUOUS
 10
174.4280143015
 20
219.6667403821
 11
174.9416239033
 21
219.697200772
  0
POLYLINE
  8
0
 62
7
  6
CONTINUOUS
 66
1
 70
0
  0
VERTEX
  8
0
 62
7
  6
CONTINUOUS
 10
174.9416239033
 20
219.697200772
  0
VERTEX
  8
0
 62
7
  6
CONTINUOUS
 10
175.7540969873
 20
219.7409696126
  0
VERTEX
  8
0
 62
7
  6
CONTINUOUS
 10
176.0327043852
 20
219.754844581
  0
SEQEND
  0
POLYLINE
  8
0
 62
7
  6
CONTINUOUS
 66
1
 70
0
  0
VERTEX
  8
0
 62
7
  6
CONTINUOUS
 10
18.412811354
 20
220.1760869795
  0
VERTEX
  8
0
 62
7
  6
CONTINUOUS
 10
14.6972975421
 20
219.9852884601
  0
VERTEX
  8
0
 62
7
  6
CONTINUOUS
 10
10.9818553431
 20
219.4027411277
  0
VERTEX
  8
0
 62
7
  6
CONTINUOUS
 10
7.3396201911
 20
218.4375109829
  0
VERTEX
  8
0
 62
7
  6
CONTINUOUS
 10
3.8138177778
 20
217.1017208246
  0
VERTEX
  8
0
 62
7
  6
CONTINUOUS
 10
0.4537456447
 20
215.4155679633
  0
VERTEX
  8
0
 62
7
  6
CONTINUOUS
 10
-2.7135782796
 20
213.3965537805
  0
VERTEX
  8
0
 62
7
  6
CONTINUOUS
 10
-5.6640671838
 20
211.0553033764
  0
VERTEX
  8
0
 62
7
  6
CONTINUOUS
 10
-8.3558515837
 20
208.423934798
  0
VERTEX
  8
0
 62
7
  6
CONTINUOUS
 10
-10.7536692352
 20
205.5299961848
  0
VERTEX
  8
0
 62
7
  6
CONTINUOUS
 10
-12.8301021416
 20
202.4128111953
  0
VERTEX
  8
0
 62
7
  6
CONTINUOUS
 10
-14.5550458276
 20
199.1168595257
  0
VERTEX
  8
0
 62
7
  6
CONTINUOUS
 10
-15.9222575751
 20
195.6706794494
  0
VERTEX
  8
0
 62
7
  6
CONTINUOUS
 10
-16.9193105278
 20
192.1035538192
  0
VERTEX
  8
0
 62
7
  6
CONTINUOUS
 10
-17.5363132224
 20
188.4694013395
  0
VERTEX
  8
0
 62
7
  6
CONTINUOUS
 10
-17.7719731565
 20
184.8141194996
  0
VERTEX
  8
0
 62
7
  6
CONTINUOUS
 10
-17.628474782
 20
181.2058710988
  0
SEQEND
  0
POLYLINE
  8
0
 62
7
  6
CONTINUOUS
 66
1
 70
0
  0
VERTEX
  8
0
 62
7
  6
CONTINUOUS
 10
176.4600209137
 20
218.0324708657
  0
VERTEX
  8
0
 62
7
  6
CONTINUOUS
 10
175.1223966485
 20
217.9767475077
  0
VERTEX
  8
0
 62
7
  6
CONTINUOUS
 10
173.9495707709
 20
217.9145692193
  0
VERTEX
  8
0
 62
7
  6
CONTINUOUS
 10
172.9585553457
 20
217.8468459043
  0
VERTEX
  8
0
 62
7
  6
CONTINUOUS
 10
172.1710094807
 20
217.7748268294
  0
VERTEX
  8
0
 62
7
  6
CONTINUOUS
 10
171.6023310529
 20
217.6998837868
  0
VERTEX
  8
0
 62
7
  6
CONTINUOUS
 10
171.2596798602
 20
217.6229642177
  0
VERTEX
  8
0
 62
7
  6
CONTINUOUS
 10
171.1494487308
 20
217.5449325791
  0
VERTEX
  8
0
 62
7
  6
CONTINUOUS
 10
171.1627710922
 20
217.5211996241
  0
SEQEND
  0
POLYLINE
  8
0
 62
7
  6
CONTINUOUS
 66
1
 70
0
  0
VERTEX
  8
0
 62
7
  6
CONTINUOUS
 10
176.0327043852
 20
219.754844581
  0
VERTEX
  8
0
 62
7
  6
CONTINUOUS
 10
177.8733845671
 20
219.8311198281
  0
VERTEX
  8
0
 62
7
  6
CONTINUOUS
 10
179.8008957654
 20
219.8908323321
  0
VERTEX
  8
0
 62
7
  6
CONTINUOUS
 10
181.8295987106
 20
219.9342001463
  0
VERTEX
  8
0
 62
7
  6
CONTINUOUS
 10
183.9164112113
 20
219.9605691109
  0
VERTEX
  8
0
 62
7
  6
CONTINUOUS
 10
186.0329554912
 20
219.9692848199
  0
VERTEX
  8
0
 62
7
  6
CONTINUOUS
 10
188.1494790355
 20
219.9605660662
  0
VERTEX
  8
0
 62
7
  6
CONTINUOUS
 10
190.2362283177
 20
219.9341953249
  0
VERTEX
  8
0
 62
7
  6
CONTINUOUS
 10
192.2648285956
 20
219.8908271438
  0
VERTEX
  8
0
 62
7
  6
CONTINUOUS
 10
194.1922007117
 20
219.8311163174
  0
VERTEX
  8
0
 62
7
  6
CONTINUOUS
 10
196.0327043852
 20
219.754844581
  0
SEQEND
  0
LINE
  8
0
 62
7
  6
CONTINUOUS
 10
176.4600206541
 20
218.0324713705
 11
177.3426774995
 21
218.0626961204
  0
LINE
  8
0
 62
7
  6
CONTINUOUS
 10
177.3426774995
 20
218.0626961204
 11
177.8027227374
 21
218.0767543237
  0
POLYLINE
  8
0
 62
7
  6
CONTINUOUS
 66
1
 70
0
  0
VERTEX
  8
0
 62
7
  6
CONTINUOUS
 10
18.4432090761
 20
222.9546379146
  0
VERTEX
  8
0
 62
7
  6
CONTINUOUS
 10
42.6693233081
 20
223.0005207531
  0
VERTEX
  8
0
 62
7
  6
CONTINUOUS
 10
67.7105780122
 20
223.0510950926
  0
VERTEX
  8
0
 62
7
  6
CONTINUOUS
 10
93.5674189835
 20
223.1172622809
  0
VERTEX
  8
0
 62
7
  6
CONTINUOUS
 10
120.2401202606
 20
223.1793861262
  0
VERTEX
  8
0
 62
7
  6
CONTINUOUS
 10
147.7286082963
 20
223.2148690084
  0
SEQEND
  0
POLYLINE
  8
0
 62
7
  6
CONTINUOUS
 66
1
 70
0
  0
VERTEX
  8
0
 62
7
  6
CONTINUOUS
 10
94.3093760579
 20
220.2989777642
  0
VERTEX
  8
0
 62
7
  6
CONTINUOUS
 10
81.0834607322
 20
220.2767873953
  0
VERTEX
  8
0
 62
7
  6
CONTINUOUS
 10
43.2264807281
 20
220.2059526281
  0
SEQEND
  0
POLYLINE
  8
0
 62
7
  6
CONTINUOUS
 66
1
 70
0
  0
VERTEX
  8
0
 62
7
  6
CONTINUOUS
 10
43.2264807281
 20
220.2059526281
  0
VERTEX
  8
0
 62
7
  6
CONTINUOUS
 10
30.8197077529
 20
220.18887294
  0
VERTEX
  8
0
 62
7
  6
CONTINUOUS
 10
18.412811354
 20
220.1760869795
  0
SEQEND
  0
LINE
  8
0
 62
7
  6
CONTINUOUS
 10
120.5794397396
 20
220.3331876077
 11
94.3093760579
 21
220.2989777642
  0
LINE
  8
0
 62
7
  6
CONTINUOUS
 10
176.0327043852
 20
220.4030062517
 11
120.5794397396
 21
220.3331876077
  0
LINE
  8
0
 62
7
  6
CONTINUOUS
 10
173.9514886902
 20
216.3890569945
 11
198.1139785136
 21
216.3890569945
  0
LINE
  8
0
 62
7
  6
CONTINUOUS
 10
176.0327043852
 20
220.4030028894
 11
196.0327043852
 21
220.4029061656
  0
LINE
  8
0
 62
7
  6
CONTINUOUS
 10
196.0340131573
 20
223.2297080383
 11
179.3660370957
 21
223.2297909741
  0
LINE
  8
0
 62
7
  6
CONTINUOUS
 10
179.3660370957
 20
223.2297909741
 11
147.7286082963
 21
223.2148690084
  0
POLYLINE
  8
0
 62
7
  6
CONTINUOUS
 66
1
 70
0
  0
VERTEX
  8
0
 62
7
  6
CONTINUOUS
 10
196.0327001624
 20
223.2295798478
  0
VERTEX
  8
0
 62
7
  6
CONTINUOUS
 10
224.3367354822
 20
223.2148691205
  0
VERTEX
  8
0
 62
7
  6
CONTINUOUS
 10
251.8252028457
 20
223.1793862677
  0
VERTEX
  8
0
 62
7
  6
CONTINUOUS
 10
278.4979449486
 20
223.1172623266
  0
VERTEX
  8
0
 62
7
  6
CONTINUOUS
 10
304.3548367091
 20
223.0510950381
  0
VERTEX
  8
0
 62
7
  6
CONTINUOUS
 10
329.3961006333
 20
223.0005206953
  0
VERTEX
  8
0
 62
7
  6
CONTINUOUS
 10
353.6221996942
 20
222.9546379146
  0
SEQEND
  0
POLYLINE
  8
0
 62
7
  6
CONTINUOUS
 66
1
 70
0
  0
VERTEX
  8
0
 62
7
  6
CONTINUOUS
 10
353.6525974163
 20
220.1760869795
  0
VERTEX
  8
0
 62
7
  6
CONTINUOUS
 10
341.2463235477
 20
220.1888721148
  0
VERTEX
  8
0
 62
7
  6
CONTINUOUS
 10
328.8397593875
 20
220.2059515233
  0
VERTEX
  8
0
 62
7
  6
CONTINUOUS
 10
316.5238216637
 20
220.228464831
  0
VERTEX
  8
0
 62
7
  6
CONTINUOUS
 10
304.0257601925
 20
220.2529931601
  0
VERTEX
  8
0
 62
7
  6
CONTINUOUS
 10
277.7559321846
 20
220.2989778756
  0
SEQEND
  0
POLYLINE
  8
0
 62
7
  6
CONTINUOUS
 66
1
 70
0
  0
VERTEX
  8
0
 62
7
  6
CONTINUOUS
 10
264.7119675774
 20
220.3168726395
  0
VERTEX
  8
0
 62
7
  6
CONTINUOUS
 10
209.8959843694
 20
220.3843799483
  0
VERTEX
  8
0
 62
7
  6
CONTINUOUS
 10
196.0327043852
 20
220.4030062517
  0
SEQEND
  0
LINE
  8
0
 62
7
  6
CONTINUOUS
 10
277.7559321846
 20
220.2989778756
 11
264.7119675774
 21
220.3168726395
  0
POLYLINE
  8
0
 62
7
  6
CONTINUOUS
 66
1
 70
0
  0
VERTEX
  8
0
 62
7
  6
CONTINUOUS
 10
192.7590420908
 20
218.1157520923
  0
VERTEX
  8
0
 62
7
  6
CONTINUOUS
 10
191.16355613
 20
218.1468671684
  0
VERTEX
  8
0
 62
7
  6
CONTINUOUS
 10
189.4946531358
 20
218.1693880739
  0
VERTEX
  8
0
 62
7
  6
CONTINUOUS
 10
187.7757525903
 20
218.1830751489
  0
VERTEX
  8
0
 62
7
  6
CONTINUOUS
 10
186.0328175142
 20
218.1877409458
  0
VERTEX
  8
0
 62
7
  6
CONTINUOUS
 10
184.2898270978
 20
218.1831234639
  0
VERTEX
  8
0
 62
7
  6
CONTINUOUS
 10
182.5708210435
 20
218.1694151295
  0
VERTEX
  8
0
 62
7
  6
CONTINUOUS
 10
180.9019421332
 20
218.1468603964
  0
VERTEX
  8
0
 62
7
  6
CONTINUOUS
 10
179.3066372166
 20
218.1157292208
  0
VERTEX
  8
0
 62
7
  6
CONTINUOUS
 10
177.8025936014
 20
218.0765121392
  0
SEQEND
  0
LINE
  8
0
 62
7
  6
CONTINUOUS
 10
192.7590420908
 20
218.1157520923
 11
194.4943636366
 21
218.0698102524
  0
POLYLINE
  8
0
 62
7
  6
CONTINUOUS
 66
1
 70
0
  0
VERTEX
  8
0
 62
7
  6
CONTINUOUS
 10
194.4943636366
 20
218.0698102524
  0
VERTEX
  8
0
 62
7
  6
CONTINUOUS
 10
195.3893346526
 20
218.0402931419
  0
VERTEX
  8
0
 62
7
  6
CONTINUOUS
 10
195.605388111
 20
218.0324713604
  0
SEQEND
  0
POLYLINE
  8
0
 62
7
  6
CONTINUOUS
 66
1
 70
0
  0
VERTEX
  8
0
 62
7
  6
CONTINUOUS
 10
353.6221996942
 20
222.9546379146
  0
VERTEX
  8
0
 62
7
  6
CONTINUOUS
 10
357.6733427534
 20
222.7432092838
  0
VERTEX
  8
0
 62
7
  6
CONTINUOUS
 10
361.6483472421
 20
222.1207037942
  0
VERTEX
  8
0
 62
7
  6
CONTINUOUS
 10
365.5721199813
 20
221.0784670735
  0
VERTEX
  8
0
 62
7
  6
CONTINUOUS
 10
369.3699435179
 20
219.6423944636
  0
VERTEX
  8
0
 62
7
  6
CONTINUOUS
 10
372.9825032969
 20
217.8290385234
  0
VERTEX
  8
0
 62
7
  6
CONTINUOUS
 10
376.3885041694
 20
215.6578150957
  0
VERTEX
  8
0
 62
7
  6
CONTINUOUS
 10
379.5601870191
 20
213.1410161082
  0
VERTEX
  8
0
 62
7
  6
CONTINUOUS
 10
382.4576073945
 20
210.3167126443
  0
VERTEX
  8
0
 62
7
  6
CONTINUOUS
 10
385.0385632645
 20
207.213893292
  0
VERTEX
  8
0
 62
7
  6
CONTINUOUS
 10
387.2820639531
 20
203.8720584247
  0
VERTEX
  8
0
 62
7
  6
CONTINUOUS
 10
389.156866859
 20
200.3292541039
  0
VERTEX
  8
0
 62
7
  6
CONTINUOUS
 10
390.651580913
 20
196.6186180156
  0
VERTEX
  8
0
 62
7
  6
CONTINUOUS
 10
391.7470671957
 20
192.7658413334
  0
VERTEX
  8
0
 62
7
  6
CONTINUOUS
 10
392.4353025415
 20
188.8311257076
  0
VERTEX
  8
0
 62
7
  6
CONTINUOUS
 10
392.7000778772
 20
184.8919012119
  0
VERTEX
  8
0
 62
7
  6
CONTINUOUS
 10
392.5467986967
 20
180.9222596417
  0
SEQEND
  0
LINE
  8
0
 62
7
  6
CONTINUOUS
 10
196.0327043852
 20
219.754844581
 11
196.8573785664
 21
219.7121166989
  0
POLYLINE
  8
0
 62
7
  6
CONTINUOUS
 66
1
 70
0
  0
VERTEX
  8
0
 62
7
  6
CONTINUOUS
 10
196.8573785664
 20
219.7121166989
  0
VERTEX
  8
0
 62
7
  6
CONTINUOUS
 10
197.3836669372
 20
219.6820825687
  0
VERTEX
  8
0
 62
7
  6
CONTINUOUS
 10
197.6375513193
 20
219.6667310798
  0
SEQEND
  0
POLYLINE
  8
0
 62
7
  6
CONTINUOUS
 66
1
 70
0
  0
VERTEX
  8
0
 62
7
  6
CONTINUOUS
 10
197.6375513193
 20
219.6667310798
  0
VERTEX
  8
0
 62
7
  6
CONTINUOUS
 10
199.2480205171
 20
219.5540583817
  0
VERTEX
  8
0
 62
7
  6
CONTINUOUS
 10
200.6221197588
 20
219.4312162312
  0
VERTEX
  8
0
 62
7
  6
CONTINUOUS
 10
201.7662527932
 20
219.2971607628
  0
VERTEX
  8
0
 62
7
  6
CONTINUOUS
 10
202.6612083741
 20
219.1550235732
  0
VERTEX
  8
0
 62
7
  6
CONTINUOUS
 10
203.2910045397
 20
219.006801775
  0
VERTEX
  8
0
 62
7
  6
CONTINUOUS
 10
203.652357185
 20
218.8548549543
  0
VERTEX
  8
0
 62
7
  6
CONTINUOUS
 10
203.7351722421
 20
218.7014405265
  0
VERTEX
  8
0
 62
7
  6
CONTINUOUS
 10
203.5438976374
 20
218.548862116
  0
VERTEX
  8
0
 62
7
  6
CONTINUOUS
 10
203.0757263333
 20
218.3994454758
  0
VERTEX
  8
0
 62
7
  6
CONTINUOUS
 10
202.3423291543
 20
218.2553816352
  0
SEQEND
  0
POLYLINE
  8
0
 62
7
  6
CONTINUOUS
 66
1
 70
0
  0
VERTEX
  8
0
 62
7
  6
CONTINUOUS
 10
348.5375682161
 20
217.6674646171
  0
VERTEX
  8
0
 62
7
  6
CONTINUOUS
 10
351.4428648411
 20
217.4470385179
  0
VERTEX
  8
0
 62
7
  6
CONTINUOUS
 10
354.313815077
 20
216.9216095046
  0
VERTEX
  8
0
 62
7
  6
CONTINUOUS
 10
357.0907531668
 20
216.108037336
  0
VERTEX
  8
0
 62
7
  6
CONTINUOUS
 10
359.7591442246
 20
215.0211442256
  0
VERTEX
  8
0
 62
7
  6
CONTINUOUS
 10
362.2947848632
 20
213.6776782937
  0
VERTEX
  8
0
 62
7
  6
CONTINUOUS
 10
364.6972047948
 20
212.0837725589
  0
VERTEX
  8
0
 62
7
  6
CONTINUOUS
 10
366.9674479024
 20
210.2306074228
  0
VERTEX
  8
0
 62
7
  6
CONTINUOUS
 10
369.0724759963
 20
208.1364240269
  0
VERTEX
  8
0
 62
7
  6
CONTINUOUS
 10
370.9844522952
 20
205.8157329311
  0
VERTEX
  8
0
 62
7
  6
CONTINUOUS
 10
372.6837922201
 20
203.2813083765
  0
VERTEX
  8
0
 62
7
  6
CONTINUOUS
 10
374.1472975139
 20
200.5452841559
  0
VERTEX
  8
0
 62
7
  6
CONTINUOUS
 10
375.3448500861
 20
197.6430452435
  0
VERTEX
  8
0
 62
7
  6
CONTINUOUS
 10
376.2520040304
 20
194.6124502183
  0
VERTEX
  8
0
 62
7
  6
CONTINUOUS
 10
376.8518071651
 20
191.4969000585
  0
VERTEX
  8
0
 62
7
  6
CONTINUOUS
 10
377.1342399732
 20
188.3405001425
  0
VERTEX
  8
0
 62
7
  6
CONTINUOUS
 10
377.0983298892
 20
185.203984538
  0
SEQEND
  0
POLYLINE
  8
0
 62
7
  6
CONTINUOUS
 66
1
 70
0
  0
VERTEX
  8
0
 62
7
  6
CONTINUOUS
 10
346.228308717
 20
214.9066504725
  0
VERTEX
  8
0
 62
7
  6
CONTINUOUS
 10
348.5583804766
 20
214.7117562715
  0
VERTEX
  8
0
 62
7
  6
CONTINUOUS
 10
350.8469536052
 20
214.2384551165
  0
VERTEX
  8
0
 62
7
  6
CONTINUOUS
 10
353.0247112652
 20
213.5124813876
  0
VERTEX
  8
0
 62
7
  6
CONTINUOUS
 10
355.0996988853
 20
212.5434013206
  0
VERTEX
  8
0
 62
7
  6
CONTINUOUS
 10
357.074301454
 20
211.3312970498
  0
VERTEX
  8
0
 62
7
  6
CONTINUOUS
 10
358.9179486698
 20
209.8887609109
  0
VERTEX
  8
0
 62
7
  6
CONTINUOUS
 10
360.6089939074
 20
208.2280580536
  0
VERTEX
  8
0
 62
7
  6
CONTINUOUS
 10
362.1264088196
 20
206.3577564049
  0
VERTEX
  8
0
 62
7
  6
CONTINUOUS
 10
363.4521599801
 20
204.2833204672
  0
VERTEX
  8
0
 62
7
  6
CONTINUOUS
 10
364.5468829125
 20
202.042463306
  0
VERTEX
  8
0
 62
7
  6
CONTINUOUS
 10
365.3835955046
 20
199.6814863435
  0
VERTEX
  8
0
 62
7
  6
CONTINUOUS
 10
365.9487838026
 20
197.2259007438
  0
VERTEX
  8
0
 62
7
  6
CONTINUOUS
 10
366.2310023917
 20
194.7026320104
  0
VERTEX
  8
0
 62
7
  6
CONTINUOUS
 10
366.2208418883
 20
192.1822144171
  0
SEQEND
  0
POLYLINE
  8
0
 62
7
  6
CONTINUOUS
 66
1
 70
0
  0
VERTEX
  8
0
 62
7
  6
CONTINUOUS
 10
178.4943944001
 20
216.3890569945
  0
VERTEX
  8
0
 62
7
  6
CONTINUOUS
 10
178.1054871678
 20
216.4370663292
  0
VERTEX
  8
0
 62
7
  6
CONTINUOUS
 10
177.7209173077
 20
216.5824962804
  0
VERTEX
  8
0
 62
7
  6
CONTINUOUS
 10
177.3583571972
 20
216.8194038541
  0
VERTEX
  8
0
 62
7
  6
CONTINUOUS
 10
177.0224897238
 20
217.1438310171
  0
VERTEX
  8
0
 62
7
  6
CONTINUOUS
 10
176.7182819708
 20
217.5540116355
  0
VERTEX
  8
0
 62
7
  6
CONTINUOUS
 10
176.4600209137
 20
218.0324708657
  0
SEQEND
  0
LINE
  8
0
 62
7
  6
CONTINUOUS
 10
170.1946447906
 20
218.1906843232
 11
169.7230140061
 21
218.2553800986
  0
POLYLINE
  8
0
 62
7
  6
CONTINUOUS
 66
1
 70
0
  0
VERTEX
  8
0
 62
7
  6
CONTINUOUS
 10
174.4202279363
 20
219.6662788188
  0
VERTEX
  8
0
 62
7
  6
CONTINUOUS
 10
174.8029200946
 20
219.5937331072
  0
VERTEX
  8
0
 62
7
  6
CONTINUOUS
 10
175.1823271772
 20
219.4349606957
  0
VERTEX
  8
0
 62
7
  6
CONTINUOUS
 10
175.5435303546
 20
219.1951178475
  0
VERTEX
  8
0
 62
7
  6
CONTINUOUS
 10
175.8816750084
 20
218.8775502846
  0
VERTEX
  8
0
 62
7
  6
CONTINUOUS
 10
176.1913890631
 20
218.4849652777
  0
VERTEX
  8
0
 62
7
  6
CONTINUOUS
 10
176.4600206541
 20
218.0324713705
  0
SEQEND
  0
POLYLINE
  8
0
 62
7
  6
CONTINUOUS
 66
1
 70
0
  0
VERTEX
  8
0
 62
7
  6
CONTINUOUS
 10
169.7230140061
 20
218.2553800986
  0
VERTEX
  8
0
 62
7
  6
CONTINUOUS
 10
168.9896074386
 20
218.3994441212
  0
VERTEX
  8
0
 62
7
  6
CONTINUOUS
 10
168.5214307107
 20
218.5488610755
  0
VERTEX
  8
0
 62
7
  6
CONTINUOUS
 10
168.3301551124
 20
218.7014398707
  0
VERTEX
  8
0
 62
7
  6
CONTINUOUS
 10
168.4129734568
 20
218.8548546851
  0
VERTEX
  8
0
 62
7
  6
CONTINUOUS
 10
168.7743338289
 20
219.0068018268
  0
VERTEX
  8
0
 62
7
  6
CONTINUOUS
 10
169.4041417028
 20
219.1550238165
  0
VERTEX
  8
0
 62
7
  6
CONTINUOUS
 10
170.2991042337
 20
219.2971603227
  0
VERTEX
  8
0
 62
7
  6
CONTINUOUS
 10
171.4432644637
 20
219.4312162092
  0
VERTEX
  8
0
 62
7
  6
CONTINUOUS
 10
172.817435998
 20
219.5540618231
  0
VERTEX
  8
0
 62
7
  6
CONTINUOUS
 10
174.4280143015
 20
219.6667403821
  0
SEQEND
  0
POLYLINE
  8
0
 62
7
  6
CONTINUOUS
 66
1
 70
0
  0
VERTEX
  8
0
 62
7
  6
CONTINUOUS
 10
176.0327521064
 20
219.7548398238
  0
VERTEX
  8
0
 62
7
  6
CONTINUOUS
 10
176.3655718843
 20
219.6782336961
  0
VERTEX
  8
0
 62
7
  6
CONTINUOUS
 10
176.6955064944
 20
219.5137324273
  0
VERTEX
  8
0
 62
7
  6
CONTINUOUS
 10
177.0093218503
 20
219.2667943816
  0
VERTEX
  8
0
 62
7
  6
CONTINUOUS
 10
177.3027199575
 20
218.9409172502
  0
VERTEX
  8
0
 62
7
  6
CONTINUOUS
 10
177.5709313103
 20
218.5389432879
  0
VERTEX
  8
0
 62
7
  6
CONTINUOUS
 10
177.8027635558
 20
218.0766602586
  0
SEQEND
  0
POLYLINE
  8
0
 62
7
  6
CONTINUOUS
 66
1
 70
0
  0
VERTEX
  8
0
 62
7
  6
CONTINUOUS
 10
389.6938835524
 20
181.2058710988
  0
VERTEX
  8
0
 62
7
  6
CONTINUOUS
 10
387.6546441376
 20
181.7212252845
  0
VERTEX
  8
0
 62
7
  6
CONTINUOUS
 10
385.5917730507
 20
182.3041158771
  0
VERTEX
  8
0
 62
7
  6
CONTINUOUS
 10
383.5056229252
 20
182.9612339869
  0
VERTEX
  8
0
 62
7
  6
CONTINUOUS
 10
381.3951358605
 20
183.6725062831
  0
VERTEX
  8
0
 62
7
  6
CONTINUOUS
 10
379.2592539557
 20
184.4178594353
  0
VERTEX
  8
0
 62
7
  6
CONTINUOUS
 10
377.0983298446
 20
185.2039845535
  0
SEQEND
  0
POLYLINE
  8
0
 62
7
  6
CONTINUOUS
 66
1
 70
0
  0
VERTEX
  8
0
 62
7
  6
CONTINUOUS
 10
177.3198085331
 20
301.022987571
  0
VERTEX
  8
0
 62
7
  6
CONTINUOUS
 10
177.2900947925
 20
301.067621869
  0
VERTEX
  8
0
 62
7
  6
CONTINUOUS
 10
177.2142228666
 20
301.2091822875
  0
VERTEX
  8
0
 62
7
  6
CONTINUOUS
 10
177.0980512759
 20
301.4366227724
  0
VERTEX
  8
0
 62
7
  6
CONTINUOUS
 10
176.9437884983
 20
301.7454365482
  0
SEQEND
  0
POLYLINE
  8
0
 62
7
  6
CONTINUOUS
 66
1
 70
0
  0
VERTEX
  8
0
 62
7
  6
CONTINUOUS
 10
176.0327029019
 20
261.8164313839
  0
VERTEX
  8
0
 62
7
  6
CONTINUOUS
 10
173.7088245088
 20
263.1004102256
  0
VERTEX
  8
0
 62
7
  6
CONTINUOUS
 10
171.5788962665
 20
264.6062207057
  0
VERTEX
  8
0
 62
7
  6
CONTINUOUS
 10
169.6339795752
 20
266.3442878159
  0
VERTEX
  8
0
 62
7
  6
CONTINUOUS
 10
167.9008900693
 20
268.2833351754
  0
VERTEX
  8
0
 62
7
  6
CONTINUOUS
 10
166.3981959326
 20
270.4061889353
  0
VERTEX
  8
0
 62
7
  6
CONTINUOUS
 10
165.1417007354
 20
272.6809649817
  0
VERTEX
  8
0
 62
7
  6
CONTINUOUS
 10
164.1512058153
 20
275.0803252954
  0
VERTEX
  8
0
 62
7
  6
CONTINUOUS
 10
163.4332863634
 20
277.5734603347
  0
VERTEX
  8
0
 62
7
  6
CONTINUOUS
 10
163.0007385832
 20
280.130717181
  0
VERTEX
  8
0
 62
7
  6
CONTINUOUS
 10
162.854700905
 20
282.7212890255
  0
VERTEX
  8
0
 62
7
  6
CONTINUOUS
 10
163.0032754433
 20
285.3169549948
  0
VERTEX
  8
0
 62
7
  6
CONTINUOUS
 10
163.4383676899
 20
287.8803072048
  0
VERTEX
  8
0
 62
7
  6
CONTINUOUS
 10
164.1590184579
 20
290.3726885882
  0
VERTEX
  8
0
 62
7
  6
CONTINUOUS
 10
165.1519316785
 20
292.7696908135
  0
VERTEX
  8
0
 62
7
  6
CONTINUOUS
 10
166.4091471462
 20
295.0427210049
  0
VERTEX
  8
0
 62
7
  6
CONTINUOUS
 10
167.913695846
 20
297.1656570252
  0
VERTEX
  8
0
 62
7
  6
CONTINUOUS
 10
169.65574582
 20
299.1117531987
  0
VERTEX
  8
0
 62
7
  6
CONTINUOUS
 10
171.6059231907
 20
300.8542663913
  0
VERTEX
  8
0
 62
7
  6
CONTINUOUS
 10
173.7274953753
 20
302.3530810665
  0
VERTEX
  8
0
 62
7
  6
CONTINUOUS
 10
176.0327057609
 20
303.6215623424
  0
SEQEND
  0
POLYLINE
  8
0
 62
7
  6
CONTINUOUS
 66
1
 70
0
  0
VERTEX
  8
0
 62
7
  6
CONTINUOUS
 10
300.6614671813
 20
36.9997905556
  0
VERTEX
  8
0
 62
7
  6
CONTINUOUS
 10
300.5925880495
 20
33.4793941505
  0
VERTEX
  8
0
 62
7
  6
CONTINUOUS
 10
300.5067346866
 20
30.0377997054
  0
VERTEX
  8
0
 62
7
  6
CONTINUOUS
 10
300.4062345257
 20
26.7479356535
  0
VERTEX
  8
0
 62
7
  6
CONTINUOUS
 10
300.2909227949
 20
23.5927394961
  0
VERTEX
  8
0
 62
7
  6
CONTINUOUS
 10
300.1607582274
 20
20.5665423082
  0
VERTEX
  8
0
 62
7
  6
CONTINUOUS
 10
300.0169807229
 20
17.7090151026
  0
VERTEX
  8
0
 62
7
  6
CONTINUOUS
 10
299.8600920024
 20
15.0474090664
  0
VERTEX
  8
0
 62
7
  6
CONTINUOUS
 10
299.6919217253
 20
12.615375794
  0
VERTEX
  8
0
 62
7
  6
CONTINUOUS
 10
299.514614757
 20
10.4468780751
  0
VERTEX
  8
0
 62
7
  6
CONTINUOUS
 10
299.3294408849
 20
8.5676125332
  0
VERTEX
  8
0
 62
7
  6
CONTINUOUS
 10
299.1374444113
 20
6.9917967139
  0
VERTEX
  8
0
 62
7
  6
CONTINUOUS
 10
298.9422367821
 20
5.7512986959
  0
SEQEND
  0
POLYLINE
  8
0
 62
7
  6
CONTINUOUS
 66
1
 70
0
  0
VERTEX
  8
0
 62
7
  6
CONTINUOUS
 10
377.0983298446
 20
185.2039845535
  0
VERTEX
  8
0
 62
7
  6
CONTINUOUS
 10
376.3251511758
 20
185.5708975932
  0
VERTEX
  8
0
 62
7
  6
CONTINUOUS
 10
375.5582256369
 20
186.0388957924
  0
VERTEX
  8
0
 62
7
  6
CONTINUOUS
 10
374.7910866443
 20
186.6281458707
  0
VERTEX
  8
0
 62
7
  6
CONTINUOUS
 10
374.0431339491
 20
187.2781476692
  0
VERTEX
  8
0
 62
7
  6
CONTINUOUS
 10
373.3417904713
 20
187.9333976175
  0
VERTEX
  8
0
 62
7
  6
CONTINUOUS
 10
371.9575618553
 20
189.2751159011
  0
SEQEND
  0
POLYLINE
  8
0
 62
7
  6
CONTINUOUS
 66
1
 70
0
  0
VERTEX
  8
0
 62
7
  6
CONTINUOUS
 10
196.0327030094
 20
303.6215623424
  0
VERTEX
  8
0
 62
7
  6
CONTINUOUS
 10
198.3472158664
 20
302.3472636003
  0
VERTEX
  8
0
 62
7
  6
CONTINUOUS
 10
200.4769461125
 20
300.8401842506
  0
VERTEX
  8
0
 62
7
  6
CONTINUOUS
 10
202.4348745764
 20
299.0863387531
  0
VERTEX
  8
0
 62
7
  6
CONTINUOUS
 10
204.1820563409
 20
297.1277039941
  0
VERTEX
  8
0
 62
7
  6
CONTINUOUS
 10
205.6859869699
 20
294.9933428391
  0
VERTEX
  8
0
 62
7
  6
CONTINUOUS
 10
206.9403265875
 20
292.7080056632
  0
VERTEX
  8
0
 62
7
  6
CONTINUOUS
 10
207.9317988754
 20
290.2951214288
  0
VERTEX
  8
0
 62
7
  6
CONTINUOUS
 10
208.6487113644
 20
287.7876952057
  0
VERTEX
  8
0
 62
7
  6
CONTINUOUS
 10
209.0741403134
 20
285.214041273
  0
VERTEX
  8
0
 62
7
  6
CONTINUOUS
 10
209.2105052783
 20
282.6116437646
  0
VERTEX
  8
0
 62
7
  6
CONTINUOUS
 10
209.0517276564
 20
280.0183281678
  0
VERTEX
  8
0
 62
7
  6
CONTINUOUS
 10
208.6063703161
 20
277.4614504016
  0
VERTEX
  8
0
 62
7
  6
CONTINUOUS
 10
207.8765563938
 20
274.9704373127
  0
VERTEX
  8
0
 62
7
  6
CONTINUOUS
 10
206.8755262312
 20
272.5769037033
  0
VERTEX
  8
0
 62
7
  6
CONTINUOUS
 10
205.6090897162
 20
270.3136003563
  0
VERTEX
  8
0
 62
7
  6
CONTINUOUS
 10
204.1016611712
 20
268.2065476456
  0
VERTEX
  8
0
 62
7
  6
CONTINUOUS
 10
202.374540183
 20
266.2883546138
  0
VERTEX
  8
0
 62
7
  6
CONTINUOUS
 10
200.4428804664
 20
264.5720092278
  0
VERTEX
  8
0
 62
7
  6
CONTINUOUS
 10
198.3317174284
 20
263.0843502344
  0
VERTEX
  8
0
 62
7
  6
CONTINUOUS
 10
196.0327058685
 20
261.8164319349
  0
SEQEND
  0
POLYLINE
  8
0
 62
7
  6
CONTINUOUS
 66
1
 70
0
  0
VERTEX
  8
0
 62
7
  6
CONTINUOUS
 10
321.9961583903
 20
213.4888383625
  0
VERTEX
  8
0
 62
7
  6
CONTINUOUS
 10
322.4087159942
 20
213.1357107893
  0
VERTEX
  8
0
 62
7
  6
CONTINUOUS
 10
322.8121029197
 20
212.4526802362
  0
VERTEX
  8
0
 62
7
  6
CONTINUOUS
 10
323.191647872
 20
211.4808999326
  0
VERTEX
  8
0
 62
7
  6
CONTINUOUS
 10
323.5505024519
 20
210.2293243818
  0
VERTEX
  8
0
 62
7
  6
CONTINUOUS
 10
323.8901944852
 20
208.6881967098
  0
VERTEX
  8
0
 62
7
  6
CONTINUOUS
 10
324.203101998
 20
206.8781693298
  0
VERTEX
  8
0
 62
7
  6
CONTINUOUS
 10
324.4842600532
 20
204.8127795768
  0
VERTEX
  8
0
 62
7
  6
CONTINUOUS
 10
324.7266414449
 20
202.5267819939
  0
VERTEX
  8
0
 62
7
  6
CONTINUOUS
 10
324.9240297485
 20
200.0678770605
  0
VERTEX
  8
0
 62
7
  6
CONTINUOUS
 10
325.073335438
 20
197.4617588469
  0
VERTEX
  8
0
 62
7
  6
CONTINUOUS
 10
325.171177308
 20
194.7334437882
  0
VERTEX
  8
0
 62
7
  6
CONTINUOUS
 10
325.2133004672
 20
191.9742853633
  0
SEQEND
  0
POLYLINE
  8
0
 62
7
  6
CONTINUOUS
 66
1
 70
0
  0
VERTEX
  8
0
 62
7
  6
CONTINUOUS
 10
339.5191392321
 20
-21.1438088644
  0
VERTEX
  8
0
 62
7
  6
CONTINUOUS
 10
339.5083931169
 20
-20.7351882875
  0
VERTEX
  8
0
 62
7
  6
CONTINUOUS
 10
339.4970162562
 20
-20.4065616983
  0
VERTEX
  8
0
 62
7
  6
CONTINUOUS
 10
339.4857840837
 20
-20.1816749433
  0
SEQEND
  0
POLYLINE
  8
0
 62
7
  6
CONTINUOUS
 66
1
 70
0
  0
VERTEX
  8
0
 62
7
  6
CONTINUOUS
 10
339.5449872803
 20
-22.7049172349
  0
VERTEX
  8
0
 62
7
  6
CONTINUOUS
 10
339.5378233632
 20
-22.151864431
  0
VERTEX
  8
0
 62
7
  6
CONTINUOUS
 10
339.5191392321
 20
-21.1438088644
  0
SEQEND
  0
POLYLINE
  8
0
 62
7
  6
CONTINUOUS
 66
1
 70
0
  0
VERTEX
  8
0
 62
7
  6
CONTINUOUS
 10
308.5393174044
 20
37.4079057335
  0
VERTEX
  8
0
 62
7
  6
CONTINUOUS
 10
310.8357759892
 20
51.3458806499
  0
VERTEX
  8
0
 62
7
  6
CONTINUOUS
 10
313.0306073432
 20
65.1534065756
  0
VERTEX
  8
0
 62
7
  6
CONTINUOUS
 10
315.1275274008
 20
78.8671248975
  0
VERTEX
  8
0
 62
7
  6
CONTINUOUS
 10
317.0831817818
 20
92.3423733204
  0
VERTEX
  8
0
 62
7
  6
CONTINUOUS
 10
318.8598991822
 20
105.3587538942
  0
VERTEX
  8
0
 62
7
  6
CONTINUOUS
 10
320.4581539397
 20
118.1889679663
  0
VERTEX
  8
0
 62
7
  6
CONTINUOUS
 10
321.8877828745
 20
131.1790776666
  0
VERTEX
  8
0
 62
7
  6
CONTINUOUS
 10
323.0876933956
 20
143.8974671814
  0
VERTEX
  8
0
 62
7
  6
CONTINUOUS
 10
323.9893439624
 20
155.8231016136
  0
VERTEX
  8
0
 62
7
  6
CONTINUOUS
 10
324.6363400787
 20
167.5837285782
  0
VERTEX
  8
0
 62
7
  6
CONTINUOUS
 10
325.0475258014
 20
179.6893974675
  0
VERTEX
  8
0
 62
7
  6
CONTINUOUS
 10
325.2123762711
 20
191.9744430001
  0
SEQEND
  0
POLYLINE
  8
0
 62
7
  6
CONTINUOUS
 66
1
 70
0
  0
VERTEX
  8
0
 62
7
  6
CONTINUOUS
 10
306.5141243426
 20
5.6548603436
  0
VERTEX
  8
0
 62
7
  6
CONTINUOUS
 10
306.7399832406
 20
6.8854026022
  0
VERTEX
  8
0
 62
7
  6
CONTINUOUS
 10
306.9613219578
 20
8.4386305505
  0
VERTEX
  8
0
 62
7
  6
CONTINUOUS
 10
307.1733294328
 20
10.2713122783
  0
VERTEX
  8
0
 62
7
  6
CONTINUOUS
 10
307.3770650003
 20
12.385874757
  0
VERTEX
  8
0
 62
7
  6
CONTINUOUS
 10
307.5728402877
 20
14.782190883
  0
VERTEX
  8
0
 62
7
  6
CONTINUOUS
 10
307.7580695909
 20
17.4372595577
  0
VERTEX
  8
0
 62
7
  6
CONTINUOUS
 10
307.9309732076
 20
20.3419712877
  0
VERTEX
  8
0
 62
7
  6
CONTINUOUS
 10
308.0893238073
 20
23.4617119696
  0
VERTEX
  8
0
 62
7
  6
CONTINUOUS
 10
308.2308726573
 20
26.7559803378
  0
VERTEX
  8
0
 62
7
  6
CONTINUOUS
 10
308.3538870001
 20
30.2000972364
  0
VERTEX
  8
0
 62
7
  6
CONTINUOUS
 10
308.4574099149
 20
33.7736946619
  0
VERTEX
  8
0
 62
7
  6
CONTINUOUS
 10
308.5393182803
 20
37.4079306581
  0
SEQEND
  0
POLYLINE
  8
0
 62
7
  6
CONTINUOUS
 66
1
 70
0
  0
VERTEX
  8
0
 62
7
  6
CONTINUOUS
 10
371.9575618553
 20
189.2751159011
  0
VERTEX
  8
0
 62
7
  6
CONTINUOUS
 10
371.2700134419
 20
189.9217253745
  0
VERTEX
  8
0
 62
7
  6
CONTINUOUS
 10
370.617696179
 20
190.4962270472
  0
VERTEX
  8
0
 62
7
  6
CONTINUOUS
 10
369.9746784225
 20
191.0071803067
  0
VERTEX
  8
0
 62
7
  6
CONTINUOUS
 10
369.3131449333
 20
191.4575646048
  0
VERTEX
  8
0
 62
7
  6
CONTINUOUS
 10
368.6625677966
 20
191.8214457072
  0
VERTEX
  8
0
 62
7
  6
CONTINUOUS
 10
368.0538463895
 20
192.0710932689
  0
VERTEX
  8
0
 62
7
  6
CONTINUOUS
 10
367.454883597
 20
192.2148750734
  0
VERTEX
  8
0
 62
7
  6
CONTINUOUS
 10
366.8411574313
 20
192.2518059981
  0
VERTEX
  8
0
 62
7
  6
CONTINUOUS
 10
366.2208418883
 20
192.1822144171
  0
SEQEND
  0
POLYLINE
  8
0
 62
7
  6
CONTINUOUS
 66
1
 70
0
  0
VERTEX
  8
0
 62
7
  6
CONTINUOUS
 10
353.6353636171
 20
220.7218308504
  0
VERTEX
  8
0
 62
7
  6
CONTINUOUS
 10
353.6406006265
 20
220.4491104117
  0
VERTEX
  8
0
 62
7
  6
CONTINUOUS
 10
353.6464598966
 20
220.2632735434
  0
VERTEX
  8
0
 62
7
  6
CONTINUOUS
 10
353.6525979249
 20
220.1760838939
  0
SEQEND
  0
LINE
  8
0
 62
7
  6
CONTINUOUS
 10
353.6272802977
 20
221.4754589558
 11
353.6353636171
 21
220.7218308504
  0
POLYLINE
  8
0
 62
7
  6
CONTINUOUS
 66
1
 70
0
  0
VERTEX
  8
0
 62
7
  6
CONTINUOUS
 10
353.6221854777
 20
222.9546958556
  0
VERTEX
  8
0
 62
7
  6
CONTINUOUS
 10
353.6228534033
 20
222.4346989499
  0
VERTEX
  8
0
 62
7
  6
CONTINUOUS
 10
353.6272802977
 20
221.4754589558
  0
SEQEND
  0
POLYLINE
  8
0
 62
7
  6
CONTINUOUS
 66
1
 70
0
  0
VERTEX
  8
0
 62
7
  6
CONTINUOUS
 10
361.673421796
 20
135.6789967508
  0
VERTEX
  8
0
 62
7
  6
CONTINUOUS
 10
358.5174283268
 20
95.9398497453
  0
VERTEX
  8
0
 62
7
  6
CONTINUOUS
 10
357.4863376976
 20
82.8479477021
  0
VERTEX
  8
0
 62
7
  6
CONTINUOUS
 10
356.5259108996
 20
70.4407221941
  0
VERTEX
  8
0
 62
7
  6
CONTINUOUS
 10
355.6108741807
 20
58.2680199313
  0
VERTEX
  8
0
 62
7
  6
CONTINUOUS
 10
354.7289002018
 20
45.9940339465
  0
VERTEX
  8
0
 62
7
  6
CONTINUOUS
 10
353.8840980758
 20
33.7306998956
  0
SEQEND
  0
POLYLINE
  8
0
 62
7
  6
CONTINUOUS
 66
1
 70
0
  0
VERTEX
  8
0
 62
7
  6
CONTINUOUS
 10
366.2208418883
 20
192.1822144171
  0
VERTEX
  8
0
 62
7
  6
CONTINUOUS
 10
365.0554873111
 20
178.058866756
  0
VERTEX
  8
0
 62
7
  6
CONTINUOUS
 10
363.9091324367
 20
163.933881258
  0
VERTEX
  8
0
 62
7
  6
CONTINUOUS
 10
362.7778694856
 20
149.6920146227
  0
VERTEX
  8
0
 62
7
  6
CONTINUOUS
 10
361.673421796
 20
135.6789967508
  0
SEQEND
  0
POLYLINE
  8
0
 62
7
  6
CONTINUOUS
 66
1
 70
0
  0
VERTEX
  8
0
 62
7
  6
CONTINUOUS
 10
344.9873907197
 20
-29.6957239515
  0
VERTEX
  8
0
 62
7
  6
CONTINUOUS
 10
344.9963237765
 20
-29.6334521363
  0
VERTEX
  8
0
 62
7
  6
CONTINUOUS
 10
345.0023173558
 20
-29.4442748276
  0
VERTEX
  8
0
 62
7
  6
CONTINUOUS
 10
345.0049660648
 20
-29.1363001756
  0
VERTEX
  8
0
 62
7
  6
CONTINUOUS
 10
345.0041631856
 20
-28.7064723325
  0
VERTEX
  8
0
 62
7
  6
CONTINUOUS
 10
344.9997004336
 20
-28.164123801
  0
VERTEX
  8
0
 62
7
  6
CONTINUOUS
 10
344.9915112282
 20
-27.5217948894
  0
VERTEX
  8
0
 62
7
  6
CONTINUOUS
 10
344.9796784027
 20
-26.7980633869
  0
VERTEX
  8
0
 62
7
  6
CONTINUOUS
 10
344.9643944503
 20
-26.0142190865
  0
VERTEX
  8
0
 62
7
  6
CONTINUOUS
 10
344.9467464116
 20
-25.2278658899
  0
SEQEND
  0
LINE
  8
0
 62
7
  6
CONTINUOUS
 10
8.3640896847
 20
327.9932102678
 11
86.8499490704
 21
330.1295861296
  0
LINE
  8
0
 62
7
  6
CONTINUOUS
 10
86.8499490704
 20
330.1295861296
 11
176.0442095841
 21
332.5391809952
  0
POLYLINE
  8
0
 62
7
  6
CONTINUOUS
 66
1
 70
0
  0
VERTEX
  8
0
 62
7
  6
CONTINUOUS
 10
-38.3833917141
 20
326.7373859224
  0
VERTEX
  8
0
 62
7
  6
CONTINUOUS
 10
-15.5727862297
 20
327.345217304
  0
VERTEX
  8
0
 62
7
  6
CONTINUOUS
 10
8.3640896847
 20
327.9932102678
  0
SEQEND
  0
LINE
  8
0
 62
7
  6
CONTINUOUS
 10
-42.8133493214
 20
333.3890569945
 11
414.8786133676
 21
333.3890569945
  0
POLYLINE
  8
0
 62
7
  6
CONTINUOUS
 66
1
 70
0
  0
VERTEX
  8
0
 62
7
  6
CONTINUOUS
 10
410.4502019028
 20
326.7373508825
  0
VERTEX
  8
0
 62
7
  6
CONTINUOUS
 10
387.6364052339
 20
327.345018291
  0
VERTEX
  8
0
 62
7
  6
CONTINUOUS
 10
363.7004763867
 20
327.9931170353
  0
VERTEX
  8
0
 62
7
  6
CONTINUOUS
 10
312.4734717534
 20
329.3891538681
  0
SEQEND
  0
LINE
  8
0
 62
7
  6
CONTINUOUS
 10
227.0316036821
 20
331.7039514731
 11
196.040345786
 21
332.5386660721
  0
POLYLINE
  8
0
 62
7
  6
CONTINUOUS
 66
1
 70
0
  0
VERTEX
  8
0
 62
7
  6
CONTINUOUS
 10
312.4734717534
 20
329.3891538681
  0
VERTEX
  8
0
 62
7
  6
CONTINUOUS
 10
285.2143032384
 20
330.1295779953
  0
VERTEX
  8
0
 62
7
  6
CONTINUOUS
 10
227.0316036821
 20
331.7039514731
  0
SEQEND
  0
POLYLINE
  8
0
 62
7
  6
CONTINUOUS
 66
1
 70
0
  0
VERTEX
  8
0
 62
7
  6
CONTINUOUS
 10
389.6938835524
 20
181.2058710988
  0
VERTEX
  8
0
 62
7
  6
CONTINUOUS
 10
389.8372436883
 20
184.8239877261
  0
VERTEX
  8
0
 62
7
  6
CONTINUOUS
 10
389.599763361
 20
188.4862313591
  0
VERTEX
  8
0
 62
7
  6
CONTINUOUS
 10
388.9803071791
 20
192.123256978
  0
VERTEX
  8
0
 62
7
  6
CONTINUOUS
 10
387.9809736156
 20
195.6904713016
  0
VERTEX
  8
0
 62
7
  6
CONTINUOUS
 10
386.6117666357
 20
199.135745101
  0
VERTEX
  8
0
 62
7
  6
CONTINUOUS
 10
384.8860166917
 20
202.4288010571
  0
VERTEX
  8
0
 62
7
  6
CONTINUOUS
 10
382.8117201999
 20
205.5399155753
  0
VERTEX
  8
0
 62
7
  6
CONTINUOUS
 10
380.4171220706
 20
208.4284213425
  0
VERTEX
  8
0
 62
7
  6
CONTINUOUS
 10
377.726090086
 20
211.0582771917
  0
VERTEX
  8
0
 62
7
  6
CONTINUOUS
 10
374.7758070004
 20
213.398834029
  0
VERTEX
  8
0
 62
7
  6
CONTINUOUS
 10
371.6102289839
 20
215.4163811748
  0
VERTEX
  8
0
 62
7
  6
CONTINUOUS
 10
368.2519136906
 20
217.1015636042
  0
VERTEX
  8
0
 62
7
  6
CONTINUOUS
 10
364.7267003452
 20
218.4372150034
  0
VERTEX
  8
0
 62
7
  6
CONTINUOUS
 10
361.0844552502
 20
219.4025600841
  0
VERTEX
  8
0
 62
7
  6
CONTINUOUS
 10
357.3687295364
 20
219.9852308443
  0
VERTEX
  8
0
 62
7
  6
CONTINUOUS
 10
353.6525974163
 20
220.1760869795
  0
SEQEND
  0
POLYLINE
  8
0
 62
7
  6
CONTINUOUS
 66
1
 70
0
  0
VERTEX
  8
0
 62
7
  6
CONTINUOUS
 10
386.939085492
 20
149.3304671746
  0
VERTEX
  8
0
 62
7
  6
CONTINUOUS
 10
387.4862259806
 20
155.7057725703
  0
VERTEX
  8
0
 62
7
  6
CONTINUOUS
 10
388.0242279568
 20
162.081604773
  0
VERTEX
  8
0
 62
7
  6
CONTINUOUS
 10
388.5661083341
 20
168.4572112817
  0
VERTEX
  8
0
 62
7
  6
CONTINUOUS
 10
389.1240093352
 20
174.8318885521
  0
VERTEX
  8
0
 62
7
  6
CONTINUOUS
 10
389.6938835524
 20
181.2058710988
  0
SEQEND
  0
POLYLINE
  8
0
 62
7
  6
CONTINUOUS
 66
1
 70
0
  0
VERTEX
  8
0
 62
7
  6
CONTINUOUS
 10
385.2898593605
 20
130.2050318698
  0
VERTEX
  8
0
 62
7
  6
CONTINUOUS
 10
385.8456128805
 20
136.6678081303
  0
VERTEX
  8
0
 62
7
  6
CONTINUOUS
 10
386.939085492
 20
149.3304671746
  0
SEQEND
  0
POLYLINE
  8
0
 62
7
  6
CONTINUOUS
 66
1
 70
0
  0
VERTEX
  8
0
 62
7
  6
CONTINUOUS
 10
392.5467986967
 20
180.9222596417
  0
VERTEX
  8
0
 62
7
  6
CONTINUOUS
 10
391.4505663155
 20
168.3819919164
  0
VERTEX
  8
0
 62
7
  6
CONTINUOUS
 10
390.3691819681
 20
155.8202588504
  0
VERTEX
  8
0
 62
7
  6
CONTINUOUS
 10
389.3326971446
 20
143.4306242028
  0
VERTEX
  8
0
 62
7
  6
CONTINUOUS
 10
388.2503215527
 20
130.6398329111
  0
VERTEX
  8
0
 62
7
  6
CONTINUOUS
 10
387.018323324
 20
116.6753093796
  0
VERTEX
  8
0
 62
7
  6
CONTINUOUS
 10
385.7065122008
 20
102.325614107
  0
VERTEX
  8
0
 62
7
  6
CONTINUOUS
 10
384.3542969065
 20
88.3865428323
  0
VERTEX
  8
0
 62
7
  6
CONTINUOUS
 10
382.9484924388
 20
74.057822355
  0
VERTEX
  8
0
 62
7
  6
CONTINUOUS
 10
381.4829660869
 20
58.5420914958
  0
VERTEX
  8
0
 62
7
  6
CONTINUOUS
 10
379.9765892412
 20
42.6264209321
  0
VERTEX
  8
0
 62
7
  6
CONTINUOUS
 10
378.44802693
 20
26.8988632812
  0
VERTEX
  8
0
 62
7
  6
CONTINUOUS
 10
376.8910242845
 20
11.16391036
  0
SEQEND
  0
POLYLINE
  8
0
 62
7
  6
CONTINUOUS
 66
1
 70
0
  0
VERTEX
  8
0
 62
7
  6
CONTINUOUS
 10
380.2788749555
 20
73.6279658706
  0
VERTEX
  8
0
 62
7
  6
CONTINUOUS
 10
381.5794367975
 20
87.7656903012
  0
VERTEX
  8
0
 62
7
  6
CONTINUOUS
 10
382.2275997529
 20
94.8348332976
  0
VERTEX
  8
0
 62
7
  6
CONTINUOUS
 10
382.8670604156
 20
101.9051594342
  0
VERTEX
  8
0
 62
7
  6
CONTINUOUS
 10
383.4885176773
 20
108.9779283507
  0
VERTEX
  8
0
 62
7
  6
CONTINUOUS
 10
384.0980039172
 20
116.052348986
  0
VERTEX
  8
0
 62
7
  6
CONTINUOUS
 10
385.2898593605
 20
130.2050318698
  0
SEQEND
  0
LINE
  8
0
 62
7
  6
CONTINUOUS
 10
410.4488004844
 20
326.7373859224
 11
411.0700694736
 21
333.3890578244
  0
POLYLINE
  8
0
 62
7
  6
CONTINUOUS
 66
1
 70
0
  0
VERTEX
  8
0
 62
7
  6
CONTINUOUS
 10
374.4037053935
 20
11.4945748236
  0
VERTEX
  8
0
 62
7
  6
CONTINUOUS
 10
375.1890594218
 20
19.2543312874
  0
VERTEX
  8
0
 62
7
  6
CONTINUOUS
 10
375.9583432013
 20
27.0162692738
  0
VERTEX
  8
0
 62
7
  6
CONTINUOUS
 10
376.7118110241
 20
34.7803543415
  0
VERTEX
  8
0
 62
7
  6
CONTINUOUS
 10
377.4487000144
 20
42.5466898146
  0
VERTEX
  8
0
 62
7
  6
CONTINUOUS
 10
378.1648404019
 20
50.3158412982
  0
VERTEX
  8
0
 62
7
  6
CONTINUOUS
 10
380.2788749555
 20
73.6279658706
  0
SEQEND
  0
POLYLINE
  8
0
 62
7
  6
CONTINUOUS
 66
1
 70
0
  0
VERTEX
  8
0
 62
7
  6
CONTINUOUS
 10
380.4197444072
 20
1.7728305449
  0
VERTEX
  8
0
 62
7
  6
CONTINUOUS
 10
384.1391081147
 20
28.1087685884
  0
VERTEX
  8
0
 62
7
  6
CONTINUOUS
 10
388.1175067463
 20
61.0543453882
  0
VERTEX
  8
0
 62
7
  6
CONTINUOUS
 10
392.1442991688
 20
101.8899936026
  0
VERTEX
  8
0
 62
7
  6
CONTINUOUS
 10
395.6474298624
 20
142.9422415441
  0
VERTEX
  8
0
 62
7
  6
CONTINUOUS
 10
398.4461835046
 20
174.6657107201
  0
VERTEX
  8
0
 62
7
  6
CONTINUOUS
 10
401.4649671591
 20
205.2275446012
  0
VERTEX
  8
0
 62
7
  6
CONTINUOUS
 10
405.4119843903
 20
242.0305964919
  0
VERTEX
  8
0
 62
7
  6
CONTINUOUS
 10
409.2617052832
 20
278.1225265678
  0
VERTEX
  8
0
 62
7
  6
CONTINUOUS
 10
412.419659344
 20
308.3895214435
  0
VERTEX
  8
0
 62
7
  6
CONTINUOUS
 10
414.8800784584
 20
333.3890569945
  0
SEQEND
  0
POLYLINE
  8
0
 62
7
  6
CONTINUOUS
 66
1
 70
0
  0
VERTEX
  8
0
 62
7
  6
CONTINUOUS
 10
375.9961934423
 20
2.2930518233
  0
VERTEX
  8
0
 62
7
  6
CONTINUOUS
 10
377.8612656603
 20
15.3613584981
  0
VERTEX
  8
0
 62
7
  6
CONTINUOUS
 10
379.6413172953
 20
28.4694627203
  0
VERTEX
  8
0
 62
7
  6
CONTINUOUS
 10
381.3351408006
 20
41.6160495157
  0
VERTEX
  8
0
 62
7
  6
CONTINUOUS
 10
382.9449768367
 20
54.8126271132
  0
VERTEX
  8
0
 62
7
  6
CONTINUOUS
 10
384.4690283164
 20
68.0759066526
  0
VERTEX
  8
0
 62
7
  6
CONTINUOUS
 10
385.9193391121
 20
81.3804696918
  0
VERTEX
  8
0
 62
7
  6
CONTINUOUS
 10
387.3122183282
 20
94.6971400145
  0
VERTEX
  8
0
 62
7
  6
CONTINUOUS
 10
388.6329044091
 20
108.0612449373
  0
VERTEX
  8
0
 62
7
  6
CONTINUOUS
 10
389.8596749475
 20
121.511988131
  0
VERTEX
  8
0
 62
7
  6
CONTINUOUS
 10
391.0293534134
 20
135.0016720733
  0
VERTEX
  8
0
 62
7
  6
CONTINUOUS
 10
392.1492543718
 20
148.4845304969
  0
VERTEX
  8
0
 62
7
  6
CONTINUOUS
 10
393.2865085141
 20
161.9988786712
  0
VERTEX
  8
0
 62
7
  6
CONTINUOUS
 10
394.5189620633
 20
175.5748592719
  0
VERTEX
  8
0
 62
7
  6
CONTINUOUS
 10
395.8214153038
 20
189.1757129185
  0
VERTEX
  8
0
 62
7
  6
CONTINUOUS
 10
397.1955860958
 20
202.7614569949
  0
VERTEX
  8
0
 62
7
  6
CONTINUOUS
 10
398.6383824258
 20
216.3843360856
  0
VERTEX
  8
0
 62
7
  6
CONTINUOUS
 10
400.1643328303
 20
230.1107340608
  0
VERTEX
  8
0
 62
7
  6
CONTINUOUS
 10
401.7209114296
 20
243.8611716416
  0
VERTEX
  8
0
 62
7
  6
CONTINUOUS
 10
403.2621386264
 20
257.5460706281
  0
VERTEX
  8
0
 62
7
  6
CONTINUOUS
 10
404.7850946192
 20
271.2503036853
  0
VERTEX
  8
0
 62
7
  6
CONTINUOUS
 10
406.2735692132
 20
285.0389437745
  0
VERTEX
  8
0
 62
7
  6
CONTINUOUS
 10
407.719849496
 20
298.8842846243
  0
VERTEX
  8
0
 62
7
  6
CONTINUOUS
 10
409.1107302569
 20
312.7822098547
  0
VERTEX
  8
0
 62
7
  6
CONTINUOUS
 10
410.4502019028
 20
326.7373508825
  0
SEQEND
  0
POLYLINE
  8
0
 62
7
  6
CONTINUOUS
 66
1
 70
0
  0
VERTEX
  8
0
 62
7
  6
CONTINUOUS
 10
376.8910242845
 20
11.16391036
  0
VERTEX
  8
0
 62
7
  6
CONTINUOUS
 10
376.2909526233
 20
7.2103113876
  0
VERTEX
  8
0
 62
7
  6
CONTINUOUS
 10
375.2994019956
 20
3.395993848
  0
VERTEX
  8
0
 62
7
  6
CONTINUOUS
 10
373.9059009162
 20
-0.2996425897
  0
VERTEX
  8
0
 62
7
  6
CONTINUOUS
 10
372.1421037839
 20
-3.815514971
  0
VERTEX
  8
0
 62
7
  6
CONTINUOUS
 10
370.0297854998
 20
-7.1019545692
  0
VERTEX
  8
0
 62
7
  6
CONTINUOUS
 10
367.5878456037
 20
-10.1452023374
  0
VERTEX
  8
0
 62
7
  6
CONTINUOUS
 10
364.8298480644
 20
-12.9268854176
  0
VERTEX
  8
0
 62
7
  6
CONTINUOUS
 10
361.7934846318
 20
-15.4108535213
  0
VERTEX
  8
0
 62
7
  6
CONTINUOUS
 10
358.508051758
 20
-17.5595060425
  0
VERTEX
  8
0
 62
7
  6
CONTINUOUS
 10
355.012436496
 20
-19.3584219015
  0
VERTEX
  8
0
 62
7
  6
CONTINUOUS
 10
351.3502068595
 20
-20.7838814439
  0
VERTEX
  8
0
 62
7
  6
CONTINUOUS
 10
347.5366407863
 20
-21.8258033761
  0
VERTEX
  8
0
 62
7
  6
CONTINUOUS
 10
343.6052629381
 20
-22.4639903776
  0
VERTEX
  8
0
 62
7
  6
CONTINUOUS
 10
339.5449239217
 20
-22.7049284852
  0
SEQEND
  0
POLYLINE
  8
0
 62
7
  6
CONTINUOUS
 66
1
 70
0
  0
VERTEX
  8
0
 62
7
  6
CONTINUOUS
 10
380.4197425016
 20
1.7728175736
  0
VERTEX
  8
0
 62
7
  6
CONTINUOUS
 10
380.4150547247
 20
1.7676384782
  0
VERTEX
  8
0
 62
7
  6
CONTINUOUS
 10
380.3158611921
 20
1.7584172516
  0
VERTEX
  8
0
 62
7
  6
CONTINUOUS
 10
380.1014408185
 20
1.7679820497
  0
VERTEX
  8
0
 62
7
  6
CONTINUOUS
 10
379.7790429991
 20
1.7951620799
  0
VERTEX
  8
0
 62
7
  6
CONTINUOUS
 10
379.345897166
 20
1.8404318267
  0
VERTEX
  8
0
 62
7
  6
CONTINUOUS
 10
378.8117597868
 20
1.9031994891
  0
VERTEX
  8
0
 62
7
  6
CONTINUOUS
 10
378.1886963458
 20
1.9823706583
  0
VERTEX
  8
0
 62
7
  6
CONTINUOUS
 10
377.4939359425
 20
2.0760522274
  0
VERTEX
  8
0
 62
7
  6
CONTINUOUS
 10
376.7465016359
 20
2.1819820139
  0
VERTEX
  8
0
 62
7
  6
CONTINUOUS
 10
375.9970540596
 20
2.2930572266
  0
SEQEND
  0
CIRCLE
  8
0
 62
7
  6
CONTINUOUS
 10
186.0327043852
 20
151.1911221811
 40
39.5
  0
CIRCLE
  8
0
 62
7
  6
CONTINUOUS
 10
186.0327043852
 20
150.2062115965
 40
33.7
  0
CIRCLE
  8
0
 62
7
  6
CONTINUOUS
 10
186.0327043852
 20
282.7986783695
 40
20.2
  0
ENDSEC
  0
EOF
