999
DXF file: K:\Client\125_Heirloom\001\00\Final_Data\Drawings\BASINS\veloso-361112_2.dxf
999
Pro/ENGINEER 2017110 by Parametric Technology Corporation
  0
SECTION
  2
HEADER
  9
$EXTMAX
 10
420.0
 20
297.0
 30
0.0
  9
$EXTMIN
 10
0.0
 20
0.0
 30
0.0
  9
$LIMMIN
 10
0.0
 20
0.0
  9
$LIMMAX
 10
420.0
 20
297.0
  9
$VIEWCTR
 10
210.0
 20
148.5
  9
$VIEWSIZE
 40
297.0
  9
$CLAYER
  8
0
  9
$LTSCALE
 40
23.1
  9
$CELTYPE
  6
BYLAYER
  9
$DIMSCALE
 40
1.0
  9
$DIMASZ
 40
3.0
  9
$DIMEXO
 40
1.0
  9
$DIMDLI
 40
15.96
  9
$DIMEXE
 40
1.0
  9
$DIMCEN
 40
3.78
  9
$DIMLFAC
 40
1.0
  9
$DIMBLK
  1
_FILLED
  9
$DIMALT
 70
0
  9
$DIMALTF
 40
0.0393700787
  9
$DIMTXT
 40
3.0
  9
$AUNITS
 70
0
  9
$PDMODE
 70
3
  9
$PDSIZE
 40
5.0
  9
$TILEMODE
 70
1
  0
ENDSEC
  0
SECTION
  2
TABLES
  0
TABLE
  2
LTYPE
 70
6
  0
LTYPE
  2
BYBLOCK
 70
0
  3

 72
65
 73
0
 40
0.0
  0
LTYPE
  2
BYLAYER
 70
0
  3

 72
65
 73
0
 40
0.0
  0
LTYPE
  2
CONTINUOUS
 70
64
  3
Solid line
 72
65
 73
0
 40
0.0
  0
LTYPE
  2
CENTER
 70
64
  3
____ _ ____ _ ____ _ ____ _ ____ _ ____ _ ____
 72
65
 73
4
 40
0.6
 49
0.375
 49
-0.075
 49
0.075
 49
-0.075
  0
LTYPE
  2
HIDDEN
 70
64
  3
- - - - - - - - - - - - - - - - - - - -
 72
65
 73
2
 40
0.2
 49
0.1
 49
-0.1
  0
LTYPE
  2
PHANTOM
 70
64
  3
_____ _ _ _____ _ _ _____ _ _ _____
 72
65
 73
6
 40
0.8
 49
0.45
 49
-0.05
 49
0.1
 49
-0.05
 49
0.1
 49
-0.05
  0
LTYPE
  2
DOT
 70
64
  3
. . . . . . . . . . . . . . . . . . . .
 72
65
 73
2
 40
0.2
 49
0.1
 49
-0.1
  0
LTYPE
  2
DASHED
 70
64
  3
- - - - - - - - - - - - - - - - - - - -
 72
65
 73
2
 40
0.2
 49
0.1
 49
-0.1
  0
ENDTAB
  0
TABLE
  2
LAYER
 70
36
  0
LAYER
  2
0
 70
0
 62
7
  6
CONTINUOUS
  0
LAYER
  2
DEFAULT_1
 70
0
 62
7
  6
CENTER
  0
LAYER
  2
DEFAULT_2
 70
0
 62
8
  6
HIDDEN
  0
LAYER
  2
DEFAULT_3
 70
0
 62
7
  6
PHANTOM
  0
LAYER
  2
0000_BOM
 70
0
 62
7
  6
CONTINUOUS
  0
LAYER
  2
0000_REV_TABLE
 70
0
 62
7
  6
CONTINUOUS
  0
LAYER
  2
0000_STEVENS_NOTE
 70
0
 62
7
  6
CONTINUOUS
  0
LAYER
  2
01_DATUM_PLANES
 70
0
 62
7
  6
CONTINUOUS
  0
LAYER
  2
01_DEF_PLANES
 70
0
 62
7
  6
CONTINUOUS
  0
LAYER
  2
02_DATUM_COS
 70
0
 62
7
  6
CONTINUOUS
  0
LAYER
  2
90_IMP_FEAT
 70
0
 62
7
  6
CONTINUOUS
  0
LAYER
  2
95_STL
 70
0
 62
7
  6
CONTINUOUS
  0
LAYER
  2
99_SOLID
 70
0
 62
7
  6
CONTINUOUS
  0
LAYER
  2
CAD-MASTER_ZINC-PL
 70
0
 62
7
  6
CONTINUOUS
  0
LAYER
  2
CURVE
 70
0
 62
7
  6
CONTINUOUS
  0
LAYER
  2
SKEL
 70
0
 62
7
  6
CONTINUOUS
  0
LAYER
  2
SKETCH
 70
0
 62
7
  6
CONTINUOUS
  0
LAYER
  2
SURFACE
 70
0
 62
7
  6
CONTINUOUS
  0
ENDTAB
  0
TABLE
  2
STYLE
 70
1
  0
STYLE
  2
STANDARD
 70
0
 40
0.0
 41
0.75
 50
0.0
 71
0
 42
0.2
  3
txt
  4

  0
STYLE
  2
TEXTSTYLE_1
 70
0
 40
0.0
 41
0.8
 50
0.0
 71
0
 42
0.2
  3
gdt
  4

  0
ENDTAB
  0
ENDSEC
  0
SECTION
  2
BLOCKS
  0
ENDSEC
  0
SECTION
  2
ENTITIES
  0
POLYLINE
  8
0
 62
7
  6
CONTINUOUS
 66
1
 70
0
  0
VERTEX
  8
0
 62
7
  6
CONTINUOUS
 10
-2.8244458311
 20
329.5131042393
  0
VERTEX
  8
0
 62
7
  6
CONTINUOUS
 10
-2.9726411203
 20
329.2488094862
  0
VERTEX
  8
0
 62
7
  6
CONTINUOUS
 10
-3.1514176416
 20
328.8727460337
  0
SEQEND
  0
POLYLINE
  8
0
 62
7
  6
CONTINUOUS
 66
1
 70
0
  0
VERTEX
  8
0
 62
7
  6
CONTINUOUS
 10
-2.7061933878
 20
329.7037585508
  0
VERTEX
  8
0
 62
7
  6
CONTINUOUS
 10
-2.6922428183
 20
329.7266772173
  0
VERTEX
  8
0
 62
7
  6
CONTINUOUS
 10
-2.731918973
 20
329.6638794349
  0
SEQEND
  0
LINE
  8
0
 62
7
  6
CONTINUOUS
 10
-2.7240025345
 20
329.6764092475
 11
-2.8244458311
 21
329.5131042393
  0
POLYLINE
  8
0
 62
7
  6
CONTINUOUS
 66
1
 70
0
  0
VERTEX
  8
0
 62
7
  6
CONTINUOUS
 10
-2.4309286247
 20
330.4998612564
  0
VERTEX
  8
0
 62
7
  6
CONTINUOUS
 10
-2.7556918499
 20
329.9964473441
  0
VERTEX
  8
0
 62
7
  6
CONTINUOUS
 10
-3.0002728221
 20
329.4539056287
  0
VERTEX
  8
0
 62
7
  6
CONTINUOUS
 10
-3.1617294652
 20
328.8806922303
  0
SEQEND
  0
POLYLINE
  8
0
 62
7
  6
CONTINUOUS
 66
1
 70
0
  0
VERTEX
  8
0
 62
7
  6
CONTINUOUS
 10
-2.6229058426
 20
330.1639267149
  0
VERTEX
  8
0
 62
7
  6
CONTINUOUS
 10
-2.2102497633
 20
330.7273844489
  0
VERTEX
  8
0
 62
7
  6
CONTINUOUS
 10
-2.0053633247
 20
330.9443168
  0
SEQEND
  0
LINE
  8
0
 62
7
  6
CONTINUOUS
 10
-2.0394427724
 20
330.9444165281
 11
-2.4309286247
 21
330.4998612564
  0
LINE
  8
0
 62
7
  6
CONTINUOUS
 10
-2.0053633247
 20
330.9443168
 11
-1.9357794355
 21
331.0110624795
  0
LINE
  8
0
 62
7
  6
CONTINUOUS
 10
-1.8023399534
 20
331.1586326183
 11
-2.0394427724
 21
330.9444165281
  0
POLYLINE
  8
0
 62
7
  6
CONTINUOUS
 66
1
 70
0
  0
VERTEX
  8
0
 62
7
  6
CONTINUOUS
 10
-1.6722915497
 20
331.2401912797
  0
VERTEX
  8
0
 62
7
  6
CONTINUOUS
 10
-1.8962265829
 20
331.047987177
  0
VERTEX
  8
0
 62
7
  6
CONTINUOUS
 10
-2.0053633247
 20
330.9443168
  0
SEQEND
  0
LINE
  8
0
 62
7
  6
CONTINUOUS
 10
-1.3988184339
 20
331.4418455712
 11
-1.6758100219
 21
331.2373703251
  0
POLYLINE
  8
0
 62
7
  6
CONTINUOUS
 66
1
 70
0
  0
VERTEX
  8
0
 62
7
  6
CONTINUOUS
 10
-1.0519385042
 20
331.6509184115
  0
VERTEX
  8
0
 62
7
  6
CONTINUOUS
 10
-1.284053977
 20
331.5250877723
  0
VERTEX
  8
0
 62
7
  6
CONTINUOUS
 10
-1.5494469096
 20
331.3528681099
  0
VERTEX
  8
0
 62
7
  6
CONTINUOUS
 10
-1.8023399534
 20
331.1586326183
  0
SEQEND
  0
POLYLINE
  8
0
 62
7
  6
CONTINUOUS
 66
1
 70
0
  0
VERTEX
  8
0
 62
7
  6
CONTINUOUS
 10
-3.0736449992
 20
329.0363438496
  0
VERTEX
  8
0
 62
7
  6
CONTINUOUS
 10
-2.9400674171
 20
329.5143475423
  0
VERTEX
  8
0
 62
7
  6
CONTINUOUS
 10
-2.6229058426
 20
330.1639267149
  0
SEQEND
  0
POLYLINE
  8
0
 62
7
  6
CONTINUOUS
 66
1
 70
0
  0
VERTEX
  8
0
 62
7
  6
CONTINUOUS
 10
-3.1514176416
 20
328.8727460337
  0
VERTEX
  8
0
 62
7
  6
CONTINUOUS
 10
-3.3336481312
 20
328.3727209506
  0
VERTEX
  8
0
 62
7
  6
CONTINUOUS
 10
-3.4751787886
 20
327.775236392
  0
VERTEX
  8
0
 62
7
  6
CONTINUOUS
 10
-3.542441317
 20
327.1228744215
  0
VERTEX
  8
0
 62
7
  6
CONTINUOUS
 10
-3.5176027627
 20
326.4125258696
  0
SEQEND
  0
POLYLINE
  8
0
 62
7
  6
CONTINUOUS
 66
1
 70
0
  0
VERTEX
  8
0
 62
7
  6
CONTINUOUS
 10
-3.1699392441
 20
328.8157475778
  0
VERTEX
  8
0
 62
7
  6
CONTINUOUS
 10
-3.2624971203
 20
328.5884285723
  0
VERTEX
  8
0
 62
7
  6
CONTINUOUS
 10
-3.4138735605
 20
328.0759756145
  0
VERTEX
  8
0
 62
7
  6
CONTINUOUS
 10
-3.5153298318
 20
327.4908945499
  0
SEQEND
  0
LINE
  8
0
 62
7
  6
CONTINUOUS
 10
-0.5371583302
 20
331.8879448349
 11
-1.035572354
 21
331.6616566467
  0
LINE
  8
0
 62
7
  6
CONTINUOUS
 10
-3.5153298318
 20
327.4908945499
 11
-3.5452659587
 21
326.8754449999
  0
POLYLINE
  8
0
 62
7
  6
CONTINUOUS
 66
1
 70
0
  0
VERTEX
  8
0
 62
7
  6
CONTINUOUS
 10
70.7932894079
 20
-24.6397630156
  0
VERTEX
  8
0
 62
7
  6
CONTINUOUS
 10
68.7806710546
 20
-24.6646400806
  0
VERTEX
  8
0
 62
7
  6
CONTINUOUS
 10
67.0813529196
 20
-24.6571167736
  0
VERTEX
  8
0
 62
7
  6
CONTINUOUS
 10
65.7615786828
 20
-24.6096660567
  0
VERTEX
  8
0
 62
7
  6
CONTINUOUS
 10
64.8534874914
 20
-24.5154596755
  0
VERTEX
  8
0
 62
7
  6
CONTINUOUS
 10
64.3848293902
 20
-24.3682275677
  0
VERTEX
  8
0
 62
7
  6
CONTINUOUS
 10
64.3048679381
 20
-24.2524203295
  0
SEQEND
  0
LINE
  8
0
 62
7
  6
CONTINUOUS
 10
64.7478957609
 20
-31.274798334
 11
359.8839032549
 21
-31.274798334
  0
POLYLINE
  8
0
 62
7
  6
CONTINUOUS
 66
1
 70
0
  0
VERTEX
  8
0
 62
7
  6
CONTINUOUS
 10
-3.1244691041
 20
325.4108783975
  0
VERTEX
  8
0
 62
7
  6
CONTINUOUS
 10
-3.2006750862
 20
326.1486657214
  0
VERTEX
  8
0
 62
7
  6
CONTINUOUS
 10
-3.1386058759
 20
326.8920541805
  0
VERTEX
  8
0
 62
7
  6
CONTINUOUS
 10
-2.9494285672
 20
327.5848966546
  0
VERTEX
  8
0
 62
7
  6
CONTINUOUS
 10
-2.6414539152
 20
328.2293586475
  0
VERTEX
  8
0
 62
7
  6
CONTINUOUS
 10
-2.2116260721
 20
328.8227894113
  0
VERTEX
  8
0
 62
7
  6
CONTINUOUS
 10
-1.6692775406
 20
329.3369531049
  0
VERTEX
  8
0
 62
7
  6
CONTINUOUS
 10
-1.026948629
 20
329.748415004
  0
VERTEX
  8
0
 62
7
  6
CONTINUOUS
 10
-0.3032171265
 20
330.0347996243
  0
VERTEX
  8
0
 62
7
  6
CONTINUOUS
 10
0.4806271738
 20
330.1771007429
  0
VERTEX
  8
0
 62
7
  6
CONTINUOUS
 10
1.2669803705
 20
330.1624014507
  0
SEQEND
  0
LINE
  8
0
 62
7
  6
CONTINUOUS
 10
-3.5452659587
 20
326.8754449999
 11
-3.4930124556
 21
326.2173976074
  0
LINE
  8
0
 62
7
  6
CONTINUOUS
 10
-3.5176027627
 20
326.4125258696
 11
-3.4540403614
 21
325.9875165765
  0
LINE
  8
0
 62
7
  6
CONTINUOUS
 10
39.3997934174
 20
182.682251746
 11
39.4178029768
 21
182.4555127391
  0
POLYLINE
  8
0
 62
7
  6
CONTINUOUS
 66
1
 70
0
  0
VERTEX
  8
0
 62
7
  6
CONTINUOUS
 10
28.2907639089
 20
325.97260497
  0
VERTEX
  8
0
 62
7
  6
CONTINUOUS
 10
28.2624847385
 20
326.6907872909
  0
VERTEX
  8
0
 62
7
  6
CONTINUOUS
 10
28.253263512
 20
327.4059626628
  0
VERTEX
  8
0
 62
7
  6
CONTINUOUS
 10
28.26282831
 20
328.0678190073
  0
VERTEX
  8
0
 62
7
  6
CONTINUOUS
 10
28.2900083402
 20
328.6793777514
  0
VERTEX
  8
0
 62
7
  6
CONTINUOUS
 10
28.335278087
 20
329.2386739783
  0
VERTEX
  8
0
 62
7
  6
CONTINUOUS
 10
28.3980457494
 20
329.7202853434
  0
VERTEX
  8
0
 62
7
  6
CONTINUOUS
 10
28.4772169187
 20
330.103639072
  0
VERTEX
  8
0
 62
7
  6
CONTINUOUS
 10
28.5708984877
 20
330.3692584096
  0
VERTEX
  8
0
 62
7
  6
CONTINUOUS
 10
28.6768282742
 20
330.5007924445
  0
VERTEX
  8
0
 62
7
  6
CONTINUOUS
 10
28.7180387257
 20
330.5124792176
  0
SEQEND
  0
POLYLINE
  8
0
 62
7
  6
CONTINUOUS
 66
1
 70
0
  0
VERTEX
  8
0
 62
7
  6
CONTINUOUS
 10
17.8540158047
 20
197.881793827
  0
VERTEX
  8
0
 62
7
  6
CONTINUOUS
 10
18.1766793026
 20
196.6721033517
  0
VERTEX
  8
0
 62
7
  6
CONTINUOUS
 10
18.5933472188
 20
195.6273657697
  0
VERTEX
  8
0
 62
7
  6
CONTINUOUS
 10
19.0606065672
 20
194.7422496471
  0
VERTEX
  8
0
 62
7
  6
CONTINUOUS
 10
19.5480048279
 20
193.998520452
  0
VERTEX
  8
0
 62
7
  6
CONTINUOUS
 10
20.0131527649
 20
193.4019397608
  0
VERTEX
  8
0
 62
7
  6
CONTINUOUS
 10
20.416726298
 20
192.9510300752
  0
VERTEX
  8
0
 62
7
  6
CONTINUOUS
 10
20.7532633608
 20
192.6134120649
  0
VERTEX
  8
0
 62
7
  6
CONTINUOUS
 10
21.0179472536
 20
192.3689919178
  0
VERTEX
  8
0
 62
7
  6
CONTINUOUS
 10
21.2190853723
 20
192.1944007476
  0
VERTEX
  8
0
 62
7
  6
CONTINUOUS
 10
21.3693810335
 20
192.0697306881
  0
VERTEX
  8
0
 62
7
  6
CONTINUOUS
 10
21.4754712098
 20
191.9845167324
  0
VERTEX
  8
0
 62
7
  6
CONTINUOUS
 10
21.5496175728
 20
191.9262452631
  0
VERTEX
  8
0
 62
7
  6
CONTINUOUS
 10
21.5955997276
 20
191.8905990478
  0
VERTEX
  8
0
 62
7
  6
CONTINUOUS
 10
21.6287517175
 20
191.8650956645
  0
SEQEND
  0
POLYLINE
  8
0
 62
7
  6
CONTINUOUS
 66
1
 70
0
  0
VERTEX
  8
0
 62
7
  6
CONTINUOUS
 10
18.148701506
 20
198.0194119479
  0
VERTEX
  8
0
 62
7
  6
CONTINUOUS
 10
18.4403754871
 20
196.8097240111
  0
VERTEX
  8
0
 62
7
  6
CONTINUOUS
 10
18.8792919538
 20
195.6472592584
  0
VERTEX
  8
0
 62
7
  6
CONTINUOUS
 10
19.4465005214
 20
194.5687621195
  0
VERTEX
  8
0
 62
7
  6
CONTINUOUS
 10
20.1387769632
 20
193.5697205889
  0
VERTEX
  8
0
 62
7
  6
CONTINUOUS
 10
20.957712832
 20
192.6516203263
  0
VERTEX
  8
0
 62
7
  6
CONTINUOUS
 10
21.8911826786
 20
191.8349343848
  0
VERTEX
  8
0
 62
7
  6
CONTINUOUS
 10
22.9275662739
 20
191.1348736433
  0
VERTEX
  8
0
 62
7
  6
CONTINUOUS
 10
24.0527280903
 20
190.5656587484
  0
VERTEX
  8
0
 62
7
  6
CONTINUOUS
 10
24.8767418558
 20
190.2544161033
  0
SEQEND
  0
LINE
  8
0
 62
7
  6
CONTINUOUS
 10
-3.3971198271
 20
325.6817265027
 11
-3.3953322958
 21
325.6728295554
  0
LINE
  8
0
 62
7
  6
CONTINUOUS
 10
-3.4562863775
 20
325.9872758266
 11
-3.4594293987
 21
326.0029133337
  0
POLYLINE
  8
0
 62
7
  6
CONTINUOUS
 66
1
 70
0
  0
VERTEX
  8
0
 62
7
  6
CONTINUOUS
 10
17.8104142056
 20
198.1131311145
  0
VERTEX
  8
0
 62
7
  6
CONTINUOUS
 10
17.8887995512
 20
197.7157782424
  0
VERTEX
  8
0
 62
7
  6
CONTINUOUS
 10
18.2505032244
 20
196.4596997633
  0
SEQEND
  0
LINE
  8
0
 62
7
  6
CONTINUOUS
 10
-3.0890816022
 20
325.2308346125
 11
-3.1244026911
 21
325.410504279
  0
LINE
  8
0
 62
7
  6
CONTINUOUS
 10
-3.4594293987
 20
326.0029133337
 11
-3.3974410315
 21
325.6833822712
  0
LINE
  8
0
 62
7
  6
CONTINUOUS
 10
17.8104140555
 20
198.1131319762
 11
17.8540158047
 21
197.881793827
  0
POLYLINE
  8
0
 62
7
  6
CONTINUOUS
 66
1
 70
0
  0
VERTEX
  8
0
 62
7
  6
CONTINUOUS
 10
-3.3898712043
 20
325.6737199253
  0
VERTEX
  8
0
 62
7
  6
CONTINUOUS
 10
-0.8713623918
 20
312.274275149
  0
VERTEX
  8
0
 62
7
  6
CONTINUOUS
 10
1.6572552746
 20
297.9744288538
  0
VERTEX
  8
0
 62
7
  6
CONTINUOUS
 10
4.0073322793
 20
283.8635503346
  0
VERTEX
  8
0
 62
7
  6
CONTINUOUS
 10
6.2088555875
 20
270.031004312
  0
VERTEX
  8
0
 62
7
  6
CONTINUOUS
 10
8.2976726812
 20
256.5910141886
  0
VERTEX
  8
0
 62
7
  6
CONTINUOUS
 10
10.333196884
 20
243.453398692
  0
VERTEX
  8
0
 62
7
  6
CONTINUOUS
 10
12.3687490756
 20
230.5321149616
  0
VERTEX
  8
0
 62
7
  6
CONTINUOUS
 10
14.4222787624
 20
217.9230298926
  0
VERTEX
  8
0
 62
7
  6
CONTINUOUS
 10
16.4896296352
 20
205.6945461889
  0
VERTEX
  8
0
 62
7
  6
CONTINUOUS
 10
17.8123532179
 20
198.1034008988
  0
SEQEND
  0
LINE
  8
0
 62
7
  6
CONTINUOUS
 10
-3.022341739
 20
327.3974888806
 11
-3.0226300144
 21
327.3991835601
  0
POLYLINE
  8
0
 62
7
  6
CONTINUOUS
 66
1
 70
0
  0
VERTEX
  8
0
 62
7
  6
CONTINUOUS
 10
18.1509074885
 20
198.0197639528
  0
VERTEX
  8
0
 62
7
  6
CONTINUOUS
 10
14.8831191945
 20
217.4225053626
  0
VERTEX
  8
0
 62
7
  6
CONTINUOUS
 10
11.6416287631
 20
237.5701593475
  0
VERTEX
  8
0
 62
7
  6
CONTINUOUS
 10
8.3696850557
 20
258.4564005021
  0
VERTEX
  8
0
 62
7
  6
CONTINUOUS
 10
4.951375196
 20
280.0533731599
  0
VERTEX
  8
0
 62
7
  6
CONTINUOUS
 10
1.1896320971
 20
302.3199540095
  0
VERTEX
  8
0
 62
7
  6
CONTINUOUS
 10
-3.0890694008
 20
325.2308366018
  0
SEQEND
  0
POLYLINE
  8
0
 62
7
  6
CONTINUOUS
 66
1
 70
0
  0
VERTEX
  8
0
 62
7
  6
CONTINUOUS
 10
70.7932894078
 20
-24.6397630156
  0
VERTEX
  8
0
 62
7
  6
CONTINUOUS
 10
68.8051582904
 20
-5.9519220489
  0
VERTEX
  8
0
 62
7
  6
CONTINUOUS
 10
66.5646343248
 20
12.7242136438
  0
VERTEX
  8
0
 62
7
  6
CONTINUOUS
 10
64.0252307317
 20
31.5634255095
  0
VERTEX
  8
0
 62
7
  6
CONTINUOUS
 10
61.2840925835
 20
50.0351905776
  0
VERTEX
  8
0
 62
7
  6
CONTINUOUS
 10
58.5672962083
 20
67.4363973532
  0
VERTEX
  8
0
 62
7
  6
CONTINUOUS
 10
55.8709162574
 20
84.5148295498
  0
VERTEX
  8
0
 62
7
  6
CONTINUOUS
 10
53.1305744547
 20
102.0119663804
  0
VERTEX
  8
0
 62
7
  6
CONTINUOUS
 10
50.4433370413
 20
119.2041977903
  0
VERTEX
  8
0
 62
7
  6
CONTINUOUS
 10
47.8945130941
 20
135.4001844329
  0
VERTEX
  8
0
 62
7
  6
CONTINUOUS
 10
45.3612221131
 20
151.2326260314
  0
VERTEX
  8
0
 62
7
  6
CONTINUOUS
 10
42.7407837888
 20
167.1544411764
  0
VERTEX
  8
0
 62
7
  6
CONTINUOUS
 10
40.0253030748
 20
183.0091551789
  0
SEQEND
  0
LINE
  8
0
 62
7
  6
CONTINUOUS
 10
71.2310169568
 20
-29.0624909546
 11
70.7932894079
 21
-24.6397630156
  0
LINE
  8
0
 62
7
  6
CONTINUOUS
 10
71.4454143214
 20
-31.2747687614
 11
71.2310169568
 21
-29.0624909546
  0
LINE
  8
0
 62
7
  6
CONTINUOUS
 10
61.1899514702
 20
20.4444754
 11
61.7421827958
 21
13.320889294
  0
POLYLINE
  8
0
 62
7
  6
CONTINUOUS
 66
1
 70
0
  0
VERTEX
  8
0
 62
7
  6
CONTINUOUS
 10
61.7421827958
 20
13.320889294
  0
VERTEX
  8
0
 62
7
  6
CONTINUOUS
 10
61.9206388309
 20
10.9446852836
  0
VERTEX
  8
0
 62
7
  6
CONTINUOUS
 10
62.5316335198
 20
2.5181374282
  0
VERTEX
  8
0
 62
7
  6
CONTINUOUS
 10
63.142956133
 20
-6.3526262971
  0
VERTEX
  8
0
 62
7
  6
CONTINUOUS
 10
63.7563935973
 20
-15.6559662336
  0
SEQEND
  0
LINE
  8
0
 62
7
  6
CONTINUOUS
 10
63.7563935973
 20
-15.6559662336
 11
64.4070101648
 21
-25.8770147511
  0
POLYLINE
  8
0
 62
7
  6
CONTINUOUS
 66
1
 70
0
  0
VERTEX
  8
0
 62
7
  6
CONTINUOUS
 10
64.4070101648
 20
-25.8770147511
  0
VERTEX
  8
0
 62
7
  6
CONTINUOUS
 10
64.7090050629
 20
-30.7376048109
  0
VERTEX
  8
0
 62
7
  6
CONTINUOUS
 10
64.7420025091
 20
-31.274798334
  0
SEQEND
  0
POLYLINE
  8
0
 62
7
  6
CONTINUOUS
 66
1
 70
0
  0
VERTEX
  8
0
 62
7
  6
CONTINUOUS
 10
49.2222935554
 20
194.3158700931
  0
VERTEX
  8
0
 62
7
  6
CONTINUOUS
 10
49.0895591045
 20
193.0269607274
  0
VERTEX
  8
0
 62
7
  6
CONTINUOUS
 10
48.9882619049
 20
191.8021414583
  0
VERTEX
  8
0
 62
7
  6
CONTINUOUS
 10
48.9210833196
 20
190.6871426517
  0
VERTEX
  8
0
 62
7
  6
CONTINUOUS
 10
48.8863109239
 20
189.6736017695
  0
VERTEX
  8
0
 62
7
  6
CONTINUOUS
 10
48.8843917323
 20
188.7613313068
  0
VERTEX
  8
0
 62
7
  6
CONTINUOUS
 10
48.9165894265
 20
187.9754250955
  0
VERTEX
  8
0
 62
7
  6
CONTINUOUS
 10
48.9832471656
 20
187.3344082754
  0
VERTEX
  8
0
 62
7
  6
CONTINUOUS
 10
49.0843689678
 20
186.8530872963
  0
VERTEX
  8
0
 62
7
  6
CONTINUOUS
 10
49.2200493507
 20
186.545225656
  0
VERTEX
  8
0
 62
7
  6
CONTINUOUS
 10
49.3836612257
 20
186.4269307108
  0
SEQEND
  0
LINE
  8
0
 62
7
  6
CONTINUOUS
 10
17.8125586427
 20
198.102976554
 11
17.8123532179
 21
198.1034008988
  0
LINE
  8
0
 62
7
  6
CONTINUOUS
 10
18.2505032244
 20
196.4596997633
 11
18.7014895195
 21
195.4024499412
  0
POLYLINE
  8
0
 62
7
  6
CONTINUOUS
 66
1
 70
0
  0
VERTEX
  8
0
 62
7
  6
CONTINUOUS
 10
19.2291729129
 20
194.485031428
  0
VERTEX
  8
0
 62
7
  6
CONTINUOUS
 10
19.3586985676
 20
194.1800807509
  0
VERTEX
  8
0
 62
7
  6
CONTINUOUS
 10
20.1601397403
 20
192.8862441757
  0
SEQEND
  0
POLYLINE
  8
0
 62
7
  6
CONTINUOUS
 66
1
 70
0
  0
VERTEX
  8
0
 62
7
  6
CONTINUOUS
 10
33.8945537604
 20
187.606835485
  0
VERTEX
  8
0
 62
7
  6
CONTINUOUS
 10
33.7631407651
 20
187.9888807521
  0
VERTEX
  8
0
 62
7
  6
CONTINUOUS
 10
33.7041301792
 20
188.2912289452
  0
VERTEX
  8
0
 62
7
  6
CONTINUOUS
 10
33.7162308643
 20
188.5144338323
  0
VERTEX
  8
0
 62
7
  6
CONTINUOUS
 10
33.8018215238
 20
188.6602771701
  0
VERTEX
  8
0
 62
7
  6
CONTINUOUS
 10
33.8761478002
 20
188.6922671889
  0
SEQEND
  0
LINE
  8
0
 62
7
  6
CONTINUOUS
 10
39.3297155904
 20
182.8570558953
 11
39.2830824711
 21
182.9970082265
  0
POLYLINE
  8
0
 62
7
  6
CONTINUOUS
 66
1
 70
0
  0
VERTEX
  8
0
 62
7
  6
CONTINUOUS
 10
39.3071223028
 20
182.9284302864
  0
VERTEX
  8
0
 62
7
  6
CONTINUOUS
 10
39.3154050234
 20
182.9003655992
  0
VERTEX
  8
0
 62
7
  6
CONTINUOUS
 10
39.3522910678
 20
182.7615071128
  0
SEQEND
  0
LINE
  8
0
 62
7
  6
CONTINUOUS
 10
-3.4266601367
 20
325.8724290831
 11
-3.4562863775
 21
325.9872758266
  0
LINE
  8
0
 62
7
  6
CONTINUOUS
 10
39.3522910678
 20
182.7615071128
 11
39.4146269621
 21
182.472442271
  0
POLYLINE
  8
0
 62
7
  6
CONTINUOUS
 66
1
 70
0
  0
VERTEX
  8
0
 62
7
  6
CONTINUOUS
 10
39.4178029768
 20
182.4555127391
  0
VERTEX
  8
0
 62
7
  6
CONTINUOUS
 10
39.8810214932
 20
179.9559849917
  0
VERTEX
  8
0
 62
7
  6
CONTINUOUS
 10
40.3213173011
 20
177.5605201097
  0
VERTEX
  8
0
 62
7
  6
CONTINUOUS
 10
40.7260190745
 20
175.3413469564
  0
VERTEX
  8
0
 62
7
  6
CONTINUOUS
 10
41.098464873
 20
173.2839013276
  0
SEQEND
  0
LINE
  8
0
 62
7
  6
CONTINUOUS
 10
41.098464873
 20
173.2839013276
 11
41.7412116307
 21
169.6975680185
  0
LINE
  8
0
 62
7
  6
CONTINUOUS
 10
41.7412116307
 20
169.6975680185
 11
42.2376505605
 21
166.8944372629
  0
LINE
  8
0
 62
7
  6
CONTINUOUS
 10
42.2376505605
 20
166.8944372629
 11
42.6951955257
 21
164.281444158
  0
LINE
  8
0
 62
7
  6
CONTINUOUS
 10
42.6951955257
 20
164.281444158
 11
42.8598872846
 21
163.3315535577
  0
POLYLINE
  8
0
 62
7
  6
CONTINUOUS
 66
1
 70
0
  0
VERTEX
  8
0
 62
7
  6
CONTINUOUS
 10
42.8598872846
 20
163.3315535577
  0
VERTEX
  8
0
 62
7
  6
CONTINUOUS
 10
44.2788417181
 20
154.9850822135
  0
VERTEX
  8
0
 62
7
  6
CONTINUOUS
 10
46.2716356462
 20
142.8572103017
  0
VERTEX
  8
0
 62
7
  6
CONTINUOUS
 10
48.0560229283
 20
131.5472480131
  0
VERTEX
  8
0
 62
7
  6
CONTINUOUS
 10
49.6579029668
 20
120.9801784595
  0
VERTEX
  8
0
 62
7
  6
CONTINUOUS
 10
51.097134451
 20
111.0945830774
  0
VERTEX
  8
0
 62
7
  6
CONTINUOUS
 10
52.3923549455
 20
101.825321119
  0
VERTEX
  8
0
 62
7
  6
CONTINUOUS
 10
53.5608867819
 20
93.1069279198
  0
VERTEX
  8
0
 62
7
  6
CONTINUOUS
 10
54.6152591294
 20
84.9009472688
  0
VERTEX
  8
0
 62
7
  6
CONTINUOUS
 10
55.5802611235
 20
77.0601810125
  0
VERTEX
  8
0
 62
7
  6
CONTINUOUS
 10
56.4792867563
 20
69.4177710541
  0
VERTEX
  8
0
 62
7
  6
CONTINUOUS
 10
57.3112857517
 20
61.9920008245
  0
VERTEX
  8
0
 62
7
  6
CONTINUOUS
 10
58.0796596534
 20
54.7642665718
  0
VERTEX
  8
0
 62
7
  6
CONTINUOUS
 10
58.7918766844
 20
47.6780465369
  0
VERTEX
  8
0
 62
7
  6
CONTINUOUS
 10
59.4599629882
 20
40.6470439702
  0
VERTEX
  8
0
 62
7
  6
CONTINUOUS
 10
60.0811801723
 20
33.7429289961
  0
VERTEX
  8
0
 62
7
  6
CONTINUOUS
 10
60.6566838542
 20
27.0039156096
  0
VERTEX
  8
0
 62
7
  6
CONTINUOUS
 10
61.1899514702
 20
20.4444754
  0
SEQEND
  0
POLYLINE
  8
0
 62
7
  6
CONTINUOUS
 66
1
 70
0
  0
VERTEX
  8
0
 62
7
  6
CONTINUOUS
 10
42.8594657961
 20
163.331483888
  0
VERTEX
  8
0
 62
7
  6
CONTINUOUS
 10
46.7821758033
 20
139.5998223706
  0
VERTEX
  8
0
 62
7
  6
CONTINUOUS
 10
50.504590045
 20
115.0389868031
  0
VERTEX
  8
0
 62
7
  6
CONTINUOUS
 10
53.9184972944
 20
90.1661823464
  0
VERTEX
  8
0
 62
7
  6
CONTINUOUS
 10
56.9590458813
 20
64.9806507363
  0
VERTEX
  8
0
 62
7
  6
CONTINUOUS
 10
59.5513059556
 20
39.4760882797
  0
VERTEX
  8
0
 62
7
  6
CONTINUOUS
 10
61.7115995716
 20
13.6640710149
  0
SEQEND
  0
POLYLINE
  8
0
 62
7
  6
CONTINUOUS
 66
1
 70
0
  0
VERTEX
  8
0
 62
7
  6
CONTINUOUS
 10
18.7014895195
 20
195.4024499412
  0
VERTEX
  8
0
 62
7
  6
CONTINUOUS
 10
19.1903310805
 20
194.5297837406
  0
VERTEX
  8
0
 62
7
  6
CONTINUOUS
 10
19.241952794
 20
194.4549429225
  0
SEQEND
  0
LINE
  8
0
 62
7
  6
CONTINUOUS
 10
-3.3953322958
 20
325.6728295554
 11
-3.334300161
 21
325.502696475
  0
POLYLINE
  8
0
 62
7
  6
CONTINUOUS
 66
1
 70
0
  0
VERTEX
  8
0
 62
7
  6
CONTINUOUS
 10
66.3948230064
 20
177.7213600027
  0
VERTEX
  8
0
 62
7
  6
CONTINUOUS
 10
69.7520679758
 20
158.8780228983
  0
VERTEX
  8
0
 62
7
  6
CONTINUOUS
 10
73.0221001243
 20
139.9940894519
  0
VERTEX
  8
0
 62
7
  6
CONTINUOUS
 10
76.2245664371
 20
120.8640892837
  0
VERTEX
  8
0
 62
7
  6
CONTINUOUS
 10
79.3094000183
 20
102.1126667148
  0
VERTEX
  8
0
 62
7
  6
CONTINUOUS
 10
82.2095670382
 20
84.5581204129
  0
VERTEX
  8
0
 62
7
  6
CONTINUOUS
 10
84.9905775737
 20
67.4094879986
  0
VERTEX
  8
0
 62
7
  6
CONTINUOUS
 10
87.7534621813
 20
49.8987833372
  0
VERTEX
  8
0
 62
7
  6
CONTINUOUS
 10
90.3179180932
 20
32.7685789996
  0
VERTEX
  8
0
 62
7
  6
CONTINUOUS
 10
92.491568344
 20
16.7491326642
  0
VERTEX
  8
0
 62
7
  6
CONTINUOUS
 10
94.4046259778
 20
1.1027319162
  0
VERTEX
  8
0
 62
7
  6
CONTINUOUS
 10
96.134558765
 20
-14.7236807096
  0
VERTEX
  8
0
 62
7
  6
CONTINUOUS
 10
97.6535551651
 20
-30.5475350491
  0
SEQEND
  0
POLYLINE
  8
0
 62
7
  6
CONTINUOUS
 66
1
 70
0
  0
VERTEX
  8
0
 62
7
  6
CONTINUOUS
 10
28.2908015275
 20
325.9726412338
  0
VERTEX
  8
0
 62
7
  6
CONTINUOUS
 10
30.2932011241
 20
314.6118576934
  0
VERTEX
  8
0
 62
7
  6
CONTINUOUS
 10
32.2110996672
 20
303.2450774427
  0
VERTEX
  8
0
 62
7
  6
CONTINUOUS
 10
34.0423954836
 20
291.8186995808
  0
VERTEX
  8
0
 62
7
  6
CONTINUOUS
 10
35.7926197389
 20
280.4924133909
  0
VERTEX
  8
0
 62
7
  6
CONTINUOUS
 10
37.4463751598
 20
269.4866043749
  0
VERTEX
  8
0
 62
7
  6
CONTINUOUS
 10
39.0667691884
 20
258.5691903051
  0
VERTEX
  8
0
 62
7
  6
CONTINUOUS
 10
40.7222477178
 20
247.4948849395
  0
VERTEX
  8
0
 62
7
  6
CONTINUOUS
 10
42.3827525698
 20
236.5252938669
  0
VERTEX
  8
0
 62
7
  6
CONTINUOUS
 10
44.026458634
 20
225.9240889551
  0
VERTEX
  8
0
 62
7
  6
CONTINUOUS
 10
45.6962914349
 20
215.4378747441
  0
VERTEX
  8
0
 62
7
  6
CONTINUOUS
 10
47.432384299
 20
204.8806205529
  0
VERTEX
  8
0
 62
7
  6
CONTINUOUS
 10
49.222555721
 20
194.3162200828
  0
SEQEND
  0
LINE
  8
0
 62
7
  6
CONTINUOUS
 10
97.7193899628
 20
-31.2747974687
 11
97.6536671077
 21
-30.5475468762
  0
POLYLINE
  8
0
 62
7
  6
CONTINUOUS
 66
1
 70
0
  0
VERTEX
  8
0
 62
7
  6
CONTINUOUS
 10
20.1601397403
 20
192.8862441757
  0
VERTEX
  8
0
 62
7
  6
CONTINUOUS
 10
21.14704243
 20
191.730532628
  0
VERTEX
  8
0
 62
7
  6
CONTINUOUS
 10
22.2976696063
 20
190.7376670229
  0
VERTEX
  8
0
 62
7
  6
CONTINUOUS
 10
23.5871472387
 20
189.9297135796
  0
SEQEND
  0
POLYLINE
  8
0
 62
7
  6
CONTINUOUS
 66
1
 70
0
  0
VERTEX
  8
0
 62
7
  6
CONTINUOUS
 10
26.112438828
 20
189.9319805313
  0
VERTEX
  8
0
 62
7
  6
CONTINUOUS
 10
26.1877295202
 20
189.8355985294
  0
VERTEX
  8
0
 62
7
  6
CONTINUOUS
 10
26.3439723714
 20
189.6232345577
  0
VERTEX
  8
0
 62
7
  6
CONTINUOUS
 10
26.4203069349
 20
189.3303018951
  0
VERTEX
  8
0
 62
7
  6
CONTINUOUS
 10
26.4642517289
 20
188.9413971302
  0
SEQEND
  0
POLYLINE
  8
0
 62
7
  6
CONTINUOUS
 66
1
 70
0
  0
VERTEX
  8
0
 62
7
  6
CONTINUOUS
 10
3.7899177752
 20
329.9451545591
  0
VERTEX
  8
0
 62
7
  6
CONTINUOUS
 10
3.5195367917
 20
330.4724218389
  0
VERTEX
  8
0
 62
7
  6
CONTINUOUS
 10
3.2556938741
 20
331.0162339034
  0
SEQEND
  0
POLYLINE
  8
0
 62
7
  6
CONTINUOUS
 66
1
 70
0
  0
VERTEX
  8
0
 62
7
  6
CONTINUOUS
 10
18.1487990919
 20
198.0194473513
  0
VERTEX
  8
0
 62
7
  6
CONTINUOUS
 10
18.4315097294
 20
197.8321941576
  0
VERTEX
  8
0
 62
7
  6
CONTINUOUS
 10
19.0699000889
 20
197.6179725843
  0
VERTEX
  8
0
 62
7
  6
CONTINUOUS
 10
20.05614992
 20
197.3849929879
  0
VERTEX
  8
0
 62
7
  6
CONTINUOUS
 10
21.3803912136
 20
197.1358094824
  0
VERTEX
  8
0
 62
7
  6
CONTINUOUS
 10
23.0235831088
 20
196.8725582324
  0
VERTEX
  8
0
 62
7
  6
CONTINUOUS
 10
24.9754957045
 20
196.5974528722
  0
VERTEX
  8
0
 62
7
  6
CONTINUOUS
 10
27.2296643356
 20
196.3120802512
  0
VERTEX
  8
0
 62
7
  6
CONTINUOUS
 10
29.7592998831
 20
196.0213614652
  0
VERTEX
  8
0
 62
7
  6
CONTINUOUS
 10
32.5351841439
 20
195.7270171292
  0
VERTEX
  8
0
 62
7
  6
CONTINUOUS
 10
35.5323137311
 20
195.4335900522
  0
VERTEX
  8
0
 62
7
  6
CONTINUOUS
 10
38.7145351803
 20
195.1445456846
  0
VERTEX
  8
0
 62
7
  6
CONTINUOUS
 10
42.0707567826
 20
194.8607142649
  0
VERTEX
  8
0
 62
7
  6
CONTINUOUS
 10
45.5953989854
 20
194.5867364015
  0
VERTEX
  8
0
 62
7
  6
CONTINUOUS
 10
49.222018611
 20
194.3159056525
  0
SEQEND
  0
POLYLINE
  8
0
 62
7
  6
CONTINUOUS
 66
1
 70
0
  0
VERTEX
  8
0
 62
7
  6
CONTINUOUS
 10
66.5217064284
 20
184.0014210919
  0
VERTEX
  8
0
 62
7
  6
CONTINUOUS
 10
66.6192360641
 20
183.9103080644
  0
VERTEX
  8
0
 62
7
  6
CONTINUOUS
 10
66.6940398278
 20
183.6746708344
  0
VERTEX
  8
0
 62
7
  6
CONTINUOUS
 10
66.7436215926
 20
183.3109100964
  0
VERTEX
  8
0
 62
7
  6
CONTINUOUS
 10
66.7691713313
 20
182.8240653878
  0
VERTEX
  8
0
 62
7
  6
CONTINUOUS
 10
66.770224337
 20
182.211845978
  0
VERTEX
  8
0
 62
7
  6
CONTINUOUS
 10
66.7457133071
 20
181.4851106242
  0
VERTEX
  8
0
 62
7
  6
CONTINUOUS
 10
66.6952612084
 20
180.6553156572
  0
VERTEX
  8
0
 62
7
  6
CONTINUOUS
 10
66.6190826268
 20
179.7374329541
  0
VERTEX
  8
0
 62
7
  6
CONTINUOUS
 10
66.5176449141
 20
178.745959161
  0
VERTEX
  8
0
 62
7
  6
CONTINUOUS
 10
66.3948214143
 20
177.721352792
  0
SEQEND
  0
LINE
  8
0
 62
7
  6
CONTINUOUS
 10
5.0601787141
 20
330.3685946473
 11
4.9848470688
 21
330.485872318
  0
POLYLINE
  8
0
 62
7
  6
CONTINUOUS
 66
1
 70
0
  0
VERTEX
  8
0
 62
7
  6
CONTINUOUS
 10
3.2556938741
 20
331.0162339034
  0
VERTEX
  8
0
 62
7
  6
CONTINUOUS
 10
2.98813289
 20
331.4407690093
  0
VERTEX
  8
0
 62
7
  6
CONTINUOUS
 10
2.7521873376
 20
331.7893146733
  0
VERTEX
  8
0
 62
7
  6
CONTINUOUS
 10
2.5844006998
 20
332.0088762535
  0
VERTEX
  8
0
 62
7
  6
CONTINUOUS
 10
2.5415481048
 20
332.0291392806
  0
SEQEND
  0
LINE
  8
0
 62
7
  6
CONTINUOUS
 10
5.125901945
 20
330.2617490628
 11
5.0582539377
 21
330.3716964547
  0
LINE
  8
0
 62
7
  6
CONTINUOUS
 10
5.1860998047
 20
330.1607420691
 11
5.124369244
 21
330.2643711178
  0
LINE
  8
0
 62
7
  6
CONTINUOUS
 10
5.242005803
 20
330.0648979544
 11
5.1850606342
 21
330.1626206245
  0
POLYLINE
  8
0
 62
7
  6
CONTINUOUS
 66
1
 70
0
  0
VERTEX
  8
0
 62
7
  6
CONTINUOUS
 10
5.3529254577
 20
329.870192185
  0
VERTEX
  8
0
 62
7
  6
CONTINUOUS
 10
5.2971605749
 20
329.968697745
  0
VERTEX
  8
0
 62
7
  6
CONTINUOUS
 10
5.2426421608
 20
330.0636981462
  0
SEQEND
  0
LINE
  8
0
 62
7
  6
CONTINUOUS
 10
5.3549217967
 20
329.8665669168
 11
5.3523010377
 21
329.8712834321
  0
POLYLINE
  8
0
 62
7
  6
CONTINUOUS
 66
1
 70
0
  0
VERTEX
  8
0
 62
7
  6
CONTINUOUS
 10
4.8982454411
 20
330.613103376
  0
VERTEX
  8
0
 62
7
  6
CONTINUOUS
 10
4.7860388331
 20
330.7653921434
  0
VERTEX
  8
0
 62
7
  6
CONTINUOUS
 10
4.639360828
 20
330.9438315172
  0
VERTEX
  8
0
 62
7
  6
CONTINUOUS
 10
4.4181278395
 20
331.174063013
  0
VERTEX
  8
0
 62
7
  6
CONTINUOUS
 10
4.0964249807
 20
331.4417267132
  0
SEQEND
  0
LINE
  8
0
 62
7
  6
CONTINUOUS
 10
4.9848470688
 20
330.485872318
 11
4.8982454411
 21
330.613103376
  0
LINE
  8
0
 62
7
  6
CONTINUOUS
 10
5.0582539377
 20
330.3716964547
 11
4.9825436653
 21
330.4893258115
  0
LINE
  8
0
 62
7
  6
CONTINUOUS
 10
23.5871472387
 20
189.9297135796
 11
24.9958894841
 21
189.3227735508
  0
POLYLINE
  8
0
 62
7
  6
CONTINUOUS
 66
1
 70
0
  0
VERTEX
  8
0
 62
7
  6
CONTINUOUS
 10
-3.1456594123
 20
325.4262921253
  0
VERTEX
  8
0
 62
7
  6
CONTINUOUS
 10
-3.2679307594
 20
325.5590005103
  0
VERTEX
  8
0
 62
7
  6
CONTINUOUS
 10
-3.3604308927
 20
325.7060967217
  0
VERTEX
  8
0
 62
7
  6
CONTINUOUS
 10
-3.4266601367
 20
325.8724290831
  0
SEQEND
  0
LINE
  8
0
 62
7
  6
CONTINUOUS
 10
-3.334300161
 20
325.502696475
 11
-3.0890816022
 21
325.2308346125
  0
POLYLINE
  8
0
 62
7
  6
CONTINUOUS
 66
1
 70
0
  0
VERTEX
  8
0
 62
7
  6
CONTINUOUS
 10
66.3948695576
 20
177.7213167962
  0
VERTEX
  8
0
 62
7
  6
CONTINUOUS
 10
63.2047998777
 20
178.3930228226
  0
VERTEX
  8
0
 62
7
  6
CONTINUOUS
 10
60.1154485267
 20
179.0249894622
  0
VERTEX
  8
0
 62
7
  6
CONTINUOUS
 10
57.1921748154
 20
179.6289268593
  0
VERTEX
  8
0
 62
7
  6
CONTINUOUS
 10
49.4968559067
 20
181.2150627983
  0
SEQEND
  0
POLYLINE
  8
0
 62
7
  6
CONTINUOUS
 66
1
 70
0
  0
VERTEX
  8
0
 62
7
  6
CONTINUOUS
 10
35.1344135627
 20
188.502702475
  0
VERTEX
  8
0
 62
7
  6
CONTINUOUS
 10
35.2379645446
 20
188.4777083566
  0
VERTEX
  8
0
 62
7
  6
CONTINUOUS
 10
36.2430464239
 20
188.0724175743
  0
VERTEX
  8
0
 62
7
  6
CONTINUOUS
 10
37.1608024668
 20
187.5257879756
  0
VERTEX
  8
0
 62
7
  6
CONTINUOUS
 10
37.9868252356
 20
186.8437957785
  0
VERTEX
  8
0
 62
7
  6
CONTINUOUS
 10
38.7093359033
 20
186.0302759127
  0
VERTEX
  8
0
 62
7
  6
CONTINUOUS
 10
39.3020061066
 20
185.1053539414
  0
VERTEX
  8
0
 62
7
  6
CONTINUOUS
 10
39.7470401939
 20
184.0864883939
  0
VERTEX
  8
0
 62
7
  6
CONTINUOUS
 10
40.0237460212
 20
183.0180051021
  0
SEQEND
  0
POLYLINE
  8
0
 62
7
  6
CONTINUOUS
 66
1
 70
0
  0
VERTEX
  8
0
 62
7
  6
CONTINUOUS
 10
33.8945730907
 20
187.6069358486
  0
VERTEX
  8
0
 62
7
  6
CONTINUOUS
 10
34.9199995287
 20
187.3425397187
  0
VERTEX
  8
0
 62
7
  6
CONTINUOUS
 10
35.9031853208
 20
186.9216115668
  0
VERTEX
  8
0
 62
7
  6
CONTINUOUS
 10
36.8027270351
 20
186.3617380777
  0
VERTEX
  8
0
 62
7
  6
CONTINUOUS
 10
37.6061012032
 20
185.6739186174
  0
VERTEX
  8
0
 62
7
  6
CONTINUOUS
 10
38.2971695157
 20
184.8723489879
  0
VERTEX
  8
0
 62
7
  6
CONTINUOUS
 10
38.8598767446
 20
183.975175647
  0
VERTEX
  8
0
 62
7
  6
CONTINUOUS
 10
39.2831020045
 20
182.9969513729
  0
SEQEND
  0
LINE
  8
0
 62
7
  6
CONTINUOUS
 10
24.9958894841
 20
189.3227735508
 11
26.4642550828
 21
188.9414032913
  0
POLYLINE
  8
0
 62
7
  6
CONTINUOUS
 66
1
 70
0
  0
VERTEX
  8
0
 62
7
  6
CONTINUOUS
 10
24.8767418558
 20
190.2544161033
  0
VERTEX
  8
0
 62
7
  6
CONTINUOUS
 10
25.1513905315
 20
190.1686056533
  0
VERTEX
  8
0
 62
7
  6
CONTINUOUS
 10
25.4828104953
 20
190.0762475788
  0
VERTEX
  8
0
 62
7
  6
CONTINUOUS
 10
25.7439761233
 20
190.0117194918
  0
VERTEX
  8
0
 62
7
  6
CONTINUOUS
 10
25.9500554483
 20
189.9656045777
  0
VERTEX
  8
0
 62
7
  6
CONTINUOUS
 10
26.1038437348
 20
189.9336739378
  0
VERTEX
  8
0
 62
7
  6
CONTINUOUS
 10
26.2277608447
 20
189.9092597708
  0
VERTEX
  8
0
 62
7
  6
CONTINUOUS
 10
26.3417089737
 20
189.8876504945
  0
VERTEX
  8
0
 62
7
  6
CONTINUOUS
 10
26.4494717287
 20
189.8677974573
  0
VERTEX
  8
0
 62
7
  6
CONTINUOUS
 10
26.6766699462
 20
189.8272646805
  0
SEQEND
  0
LINE
  8
0
 62
7
  6
CONTINUOUS
 10
24.815652351
 20
190.274457411
 11
24.8009807377
 21
190.2790755668
  0
POLYLINE
  8
0
 62
7
  6
CONTINUOUS
 66
1
 70
0
  0
VERTEX
  8
0
 62
7
  6
CONTINUOUS
 10
24.7995940816
 20
190.279515822
  0
VERTEX
  8
0
 62
7
  6
CONTINUOUS
 10
24.8747660904
 20
190.2550580723
  0
VERTEX
  8
0
 62
7
  6
CONTINUOUS
 10
24.8843944031
 20
190.2519084174
  0
SEQEND
  0
POLYLINE
  8
0
 62
7
  6
CONTINUOUS
 66
1
 70
0
  0
VERTEX
  8
0
 62
7
  6
CONTINUOUS
 10
1.1810398951
 20
332.1424758283
  0
VERTEX
  8
0
 62
7
  6
CONTINUOUS
 10
1.2011998282
 20
332.1203225019
  0
VERTEX
  8
0
 62
7
  6
CONTINUOUS
 10
1.2028992697
 20
331.8917948843
  0
VERTEX
  8
0
 62
7
  6
CONTINUOUS
 10
1.0656315638
 20
331.568123979
  0
VERTEX
  8
0
 62
7
  6
CONTINUOUS
 10
0.9560158477
 20
331.1909239863
  0
VERTEX
  8
0
 62
7
  6
CONTINUOUS
 10
1.0424376427
 20
330.6613819352
  0
VERTEX
  8
0
 62
7
  6
CONTINUOUS
 10
1.2668554011
 20
330.1643251484
  0
SEQEND
  0
POLYLINE
  8
0
 62
7
  6
CONTINUOUS
 66
1
 70
0
  0
VERTEX
  8
0
 62
7
  6
CONTINUOUS
 10
359.8839042141
 20
140.9178308281
  0
VERTEX
  8
0
 62
7
  6
CONTINUOUS
 10
337.7996544599
 20
143.7688239771
  0
VERTEX
  8
0
 62
7
  6
CONTINUOUS
 10
315.6795495081
 20
146.6019012162
  0
VERTEX
  8
0
 62
7
  6
CONTINUOUS
 10
293.8053040588
 20
149.3833947428
  0
VERTEX
  8
0
 62
7
  6
CONTINUOUS
 10
271.3131023169
 20
152.1898857658
  0
VERTEX
  8
0
 62
7
  6
CONTINUOUS
 10
247.0420794785
 20
155.1328976889
  0
VERTEX
  8
0
 62
7
  6
CONTINUOUS
 10
222.1951914895
 20
158.1056643628
  0
VERTEX
  8
0
 62
7
  6
CONTINUOUS
 10
197.9971733104
 20
160.9890951054
  0
VERTEX
  8
0
 62
7
  6
CONTINUOUS
 10
173.2639845449
 20
163.9728134774
  0
VERTEX
  8
0
 62
7
  6
CONTINUOUS
 10
146.8177560792
 20
167.2297092837
  0
VERTEX
  8
0
 62
7
  6
CONTINUOUS
 10
119.8138479598
 20
170.6414253019
  0
VERTEX
  8
0
 62
7
  6
CONTINUOUS
 10
93.1026732305
 20
174.1321910557
  0
VERTEX
  8
0
 62
7
  6
CONTINUOUS
 10
66.3948230064
 20
177.7213600027
  0
SEQEND
  0
POLYLINE
  8
0
 62
7
  6
CONTINUOUS
 66
1
 70
0
  0
VERTEX
  8
0
 62
7
  6
CONTINUOUS
 10
359.8839230427
 20
147.3380216012
  0
VERTEX
  8
0
 62
7
  6
CONTINUOUS
 10
333.0604083221
 20
150.8572744898
  0
VERTEX
  8
0
 62
7
  6
CONTINUOUS
 10
306.2319141481
 20
154.296237129
  0
VERTEX
  8
0
 62
7
  6
CONTINUOUS
 10
279.2784270344
 20
157.632530325
  0
VERTEX
  8
0
 62
7
  6
CONTINUOUS
 10
252.5480763251
 20
160.8137320449
  0
VERTEX
  8
0
 62
7
  6
CONTINUOUS
 10
226.5131870536
 20
163.8370238911
  0
VERTEX
  8
0
 62
7
  6
CONTINUOUS
 10
200.7190150635
 20
166.8473983458
  0
VERTEX
  8
0
 62
7
  6
CONTINUOUS
 10
174.7064704787
 20
169.9583521543
  0
VERTEX
  8
0
 62
7
  6
CONTINUOUS
 10
148.9444928444
 20
173.1318488513
  0
VERTEX
  8
0
 62
7
  6
CONTINUOUS
 10
123.8977249509
 20
176.3161369367
  0
VERTEX
  8
0
 62
7
  6
CONTINUOUS
 10
99.1076939162
 20
179.5725613575
  0
VERTEX
  8
0
 62
7
  6
CONTINUOUS
 10
74.2331180121
 20
182.9522086579
  0
VERTEX
  8
0
 62
7
  6
CONTINUOUS
 10
58.0902580334
 20
185.2066492614
  0
SEQEND
  0
LINE
  8
0
 62
7
  6
CONTINUOUS
 10
49.3836612257
 20
186.4269307108
 11
49.386132272
 21
186.4265967012
  0
POLYLINE
  8
0
 62
7
  6
CONTINUOUS
 66
1
 70
0
  0
VERTEX
  8
0
 62
7
  6
CONTINUOUS
 10
66.5232345135
 20
184.0122641955
  0
VERTEX
  8
0
 62
7
  6
CONTINUOUS
 10
93.1896230243
 20
180.3245695838
  0
VERTEX
  8
0
 62
7
  6
CONTINUOUS
 10
119.8834681056
 20
176.7604440123
  0
VERTEX
  8
0
 62
7
  6
CONTINUOUS
 10
146.890948934
 20
173.2760381138
  0
VERTEX
  8
0
 62
7
  6
CONTINUOUS
 10
173.3497585678
 20
169.9677854045
  0
VERTEX
  8
0
 62
7
  6
CONTINUOUS
 10
198.106670988
 20
166.9519753559
  0
VERTEX
  8
0
 62
7
  6
CONTINUOUS
 10
222.3130205017
 20
164.067532992
  0
VERTEX
  8
0
 62
7
  6
CONTINUOUS
 10
247.1287976782
 20
161.134838435
  0
VERTEX
  8
0
 62
7
  6
CONTINUOUS
 10
271.362676506
 20
158.2298784224
  0
VERTEX
  8
0
 62
7
  6
CONTINUOUS
 10
293.8321028424
 20
155.473347092
  0
VERTEX
  8
0
 62
7
  6
CONTINUOUS
 10
315.6926516916
 20
152.7281499311
  0
VERTEX
  8
0
 62
7
  6
CONTINUOUS
 10
337.8040156842
 20
149.9114369742
  0
VERTEX
  8
0
 62
7
  6
CONTINUOUS
 10
359.8839330579
 20
147.0892378318
  0
SEQEND
  0
LINE
  8
0
 62
7
  6
CONTINUOUS
 10
58.0902580334
 20
185.2066492614
 11
49.3882762173
 21
186.4416714037
  0
LINE
  8
0
 62
7
  6
CONTINUOUS
 10
41.594440522
 20
187.5486617349
 11
49.3836575233
 21
186.4269312389
  0
LINE
  8
0
 62
7
  6
CONTINUOUS
 10
35.2218360116
 20
188.4895696808
 11
41.594440522
 21
187.5486617349
  0
LINE
  8
0
 62
7
  6
CONTINUOUS
 10
30.9900403267
 20
189.1335860421
 11
35.2218360116
 21
188.4895696808
  0
LINE
  8
0
 62
7
  6
CONTINUOUS
 10
28.7150913577
 20
189.4908289372
 11
30.9900403267
 21
189.1335860421
  0
LINE
  8
0
 62
7
  6
CONTINUOUS
 10
27.5839334482
 20
189.6740108505
 11
28.7150913577
 21
189.4908289372
  0
LINE
  8
0
 62
7
  6
CONTINUOUS
 10
27.077829908
 20
189.758342152
 11
27.5839334482
 21
189.6740108505
  0
POLYLINE
  8
0
 62
7
  6
CONTINUOUS
 66
1
 70
0
  0
VERTEX
  8
0
 62
7
  6
CONTINUOUS
 10
17.8123532179
 20
198.1034008988
  0
VERTEX
  8
0
 62
7
  6
CONTINUOUS
 10
17.8518664038
 20
198.0965473603
  0
VERTEX
  8
0
 62
7
  6
CONTINUOUS
 10
18.1509074885
 20
198.0197639528
  0
SEQEND
  0
LINE
  8
0
 62
7
  6
CONTINUOUS
 10
26.6766699462
 20
189.8272646805
 11
27.077829908
 21
189.758342152
  0
LINE
  8
0
 62
7
  6
CONTINUOUS
 10
26.4634908326
 20
188.9406777955
 11
33.8999964952
 21
187.6073145596
  0
POLYLINE
  8
0
 62
7
  6
CONTINUOUS
 66
1
 70
0
  0
VERTEX
  8
0
 62
7
  6
CONTINUOUS
 10
40.0253030748
 20
183.0091551789
  0
VERTEX
  8
0
 62
7
  6
CONTINUOUS
 10
39.7781254749
 20
183.0574978288
  0
VERTEX
  8
0
 62
7
  6
CONTINUOUS
 10
39.5910251777
 20
183.0190710096
  0
VERTEX
  8
0
 62
7
  6
CONTINUOUS
 10
39.4580217098
 20
182.8951737243
  0
VERTEX
  8
0
 62
7
  6
CONTINUOUS
 10
39.3997934174
 20
182.682251746
  0
SEQEND
  0
POLYLINE
  8
0
 62
7
  6
CONTINUOUS
 66
1
 70
0
  0
VERTEX
  8
0
 62
7
  6
CONTINUOUS
 10
45.466963719
 20
182.0352754797
  0
VERTEX
  8
0
 62
7
  6
CONTINUOUS
 10
43.847592266
 20
182.3599970116
  0
VERTEX
  8
0
 62
7
  6
CONTINUOUS
 10
42.5037382682
 20
182.6239137662
  0
VERTEX
  8
0
 62
7
  6
CONTINUOUS
 10
41.4412072289
 20
182.8227968383
  0
VERTEX
  8
0
 62
7
  6
CONTINUOUS
 10
40.672584866
 20
182.9566600239
  0
VERTEX
  8
0
 62
7
  6
CONTINUOUS
 10
40.2008191852
 20
183.0226746176
  0
VERTEX
  8
0
 62
7
  6
CONTINUOUS
 10
40.0237333582
 20
183.0179996076
  0
SEQEND
  0
LINE
  8
0
 62
7
  6
CONTINUOUS
 10
49.4968559067
 20
181.2150627983
 11
45.466963719
 21
182.0352754797
  0
POLYLINE
  8
0
 62
7
  6
CONTINUOUS
 66
1
 70
0
  0
VERTEX
  8
0
 62
7
  6
CONTINUOUS
 10
353.2321971429
 20
335.0189082266
  0
VERTEX
  8
0
 62
7
  6
CONTINUOUS
 10
353.8398645513
 20
335.8609751542
  0
VERTEX
  8
0
 62
7
  6
CONTINUOUS
 10
354.2077928467
 20
335.9594480584
  0
SEQEND
  0
POLYLINE
  8
0
 62
7
  6
CONTINUOUS
 66
1
 70
0
  0
VERTEX
  8
0
 62
7
  6
CONTINUOUS
 10
252.2735006289
 20
168.8782553979
  0
VERTEX
  8
0
 62
7
  6
CONTINUOUS
 10
279.1020901961
 20
165.6940735299
  0
VERTEX
  8
0
 62
7
  6
CONTINUOUS
 10
306.1541301885
 20
162.378837556
  0
VERTEX
  8
0
 62
7
  6
CONTINUOUS
 10
333.0396674495
 20
158.9564948172
  0
VERTEX
  8
0
 62
7
  6
CONTINUOUS
 10
359.8839006955
 20
155.4128537764
  0
SEQEND
  0
POLYLINE
  8
0
 62
7
  6
CONTINUOUS
 66
1
 70
0
  0
VERTEX
  8
0
 62
7
  6
CONTINUOUS
 10
49.222555721
 20
194.3162200828
  0
VERTEX
  8
0
 62
7
  6
CONTINUOUS
 10
74.044195688
 20
190.8085256942
  0
VERTEX
  8
0
 62
7
  6
CONTINUOUS
 10
98.8855296774
 20
187.4265401227
  0
VERTEX
  8
0
 62
7
  6
CONTINUOUS
 10
123.6171909903
 20
184.1766253205
  0
VERTEX
  8
0
 62
7
  6
CONTINUOUS
 10
148.60527584
 20
181.0089279154
  0
VERTEX
  8
0
 62
7
  6
CONTINUOUS
 10
174.3394558643
 20
177.8848981004
  0
VERTEX
  8
0
 62
7
  6
CONTINUOUS
 10
200.3491345067
 20
174.8203199479
  0
VERTEX
  8
0
 62
7
  6
CONTINUOUS
 10
252.2735006289
 20
168.8782553979
  0
SEQEND
  0
POLYLINE
  8
0
 62
7
  6
CONTINUOUS
 66
1
 70
0
  0
VERTEX
  8
0
 62
7
  6
CONTINUOUS
 10
-3.1457159464
 20
325.4263593176
  0
VERTEX
  8
0
 62
7
  6
CONTINUOUS
 10
-3.1422202473
 20
325.4237132333
  0
VERTEX
  8
0
 62
7
  6
CONTINUOUS
 10
-3.1387058034
 20
325.4210905125
  0
VERTEX
  8
0
 62
7
  6
CONTINUOUS
 10
-3.1351721573
 20
325.4184889614
  0
VERTEX
  8
0
 62
7
  6
CONTINUOUS
 10
-3.131620815
 20
325.4159162775
  0
VERTEX
  8
0
 62
7
  6
CONTINUOUS
 10
-3.1280532829
 20
325.4133801555
  0
VERTEX
  8
0
 62
7
  6
CONTINUOUS
 10
-3.1244691041
 20
325.4108783975
  0
SEQEND
  0
LINE
  8
0
 62
7
  6
CONTINUOUS
 10
4.099661984
 20
331.4392481624
 11
3.5541561023
 21
331.7584223215
  0
LINE
  8
0
 62
7
  6
CONTINUOUS
 10
3.8846810948
 20
329.9140225399
 11
3.7899177752
 21
329.9451545591
  0
LINE
  8
0
 62
7
  6
CONTINUOUS
 10
3.7899290254
 20
329.9438819468
 11
3.9422633635
 21
329.911585203
  0
POLYLINE
  8
0
 62
7
  6
CONTINUOUS
 66
1
 70
0
  0
VERTEX
  8
0
 62
7
  6
CONTINUOUS
 10
1.2668554011
 20
330.1643251484
  0
VERTEX
  8
0
 62
7
  6
CONTINUOUS
 10
1.4849595105
 20
330.1087945871
  0
VERTEX
  8
0
 62
7
  6
CONTINUOUS
 10
1.9645243836
 20
330.0465138245
  0
SEQEND
  0
LINE
  8
0
 62
7
  6
CONTINUOUS
 10
3.5608896589
 20
331.7553750148
 11
2.6521681275
 21
332.0122601089
  0
LINE
  8
0
 62
7
  6
CONTINUOUS
 10
1.1805853892
 20
332.1425037807
 11
1.1810398951
 21
332.1424758283
  0
LINE
  8
0
 62
7
  6
CONTINUOUS
 10
1.113598639
 20
332.1396375803
 11
1.0633636586
 21
332.1428335618
  0
POLYLINE
  8
0
 62
7
  6
CONTINUOUS
 66
1
 70
0
  0
VERTEX
  8
0
 62
7
  6
CONTINUOUS
 10
1.2199955059
 20
332.1328685702
  0
VERTEX
  8
0
 62
7
  6
CONTINUOUS
 10
1.1193776541
 20
332.1399734001
  0
VERTEX
  8
0
 62
7
  6
CONTINUOUS
 10
0.1871088594
 20
332.0857990654
  0
VERTEX
  8
0
 62
7
  6
CONTINUOUS
 10
-0.5143257117
 20
331.8964404043
  0
VERTEX
  8
0
 62
7
  6
CONTINUOUS
 10
-1.0226924497
 20
331.6685457089
  0
VERTEX
  8
0
 62
7
  6
CONTINUOUS
 10
-1.4056273324
 20
331.437225951
  0
SEQEND
  0
LINE
  8
0
 62
7
  6
CONTINUOUS
 10
2.5405947955
 20
332.0292235357
 11
1.1810398951
 21
332.1424758283
  0
LINE
  8
0
 62
7
  6
CONTINUOUS
 10
2.5415481048
 20
332.0291392806
 11
2.5405947955
 21
332.0292235357
  0
LINE
  8
0
 62
7
  6
CONTINUOUS
 10
2.0576737692
 20
330.0346553862
 11
1.9791571043
 21
330.0426190571
  0
LINE
  8
0
 62
7
  6
CONTINUOUS
 10
2.6521681275
 20
332.0122601089
 11
2.5375024989
 21
332.0239527885
  0
LINE
  8
0
 62
7
  6
CONTINUOUS
 10
1.9645243836
 20
330.0465138245
 11
1.9801109819
 21
330.0448663653
  0
LINE
  8
0
 62
7
  6
CONTINUOUS
 10
359.8839032549
 20
335.798977295
 11
359.8839032549
 21
335.7137697155
  0
LINE
  8
0
 62
7
  6
CONTINUOUS
 10
359.8839032549
 20
-31.274798334
 11
359.8839032549
 21
335.7013553009
  0
LINE
  8
0
 62
7
  6
CONTINUOUS
 10
1.0633636586
 20
332.1428335618
 11
0.1494004228
 21
332.0789896539
  0
POLYLINE
  8
0
 62
7
  6
CONTINUOUS
 66
1
 70
0
  0
VERTEX
  8
0
 62
7
  6
CONTINUOUS
 10
275.9643671177
 20
334.560521013
  0
VERTEX
  8
0
 62
7
  6
CONTINUOUS
 10
273.2450148689
 20
334.3909211343
  0
VERTEX
  8
0
 62
7
  6
CONTINUOUS
 10
271.9546327021
 20
334.3145793863
  0
VERTEX
  8
0
 62
7
  6
CONTINUOUS
 10
270.5240360739
 20
334.2340561535
  0
VERTEX
  8
0
 62
7
  6
CONTINUOUS
 10
268.9452266392
 20
334.1502009228
  0
VERTEX
  8
0
 62
7
  6
CONTINUOUS
 10
267.1799863545
 20
334.06217068
  0
VERTEX
  8
0
 62
7
  6
CONTINUOUS
 10
265.1800392864
 20
333.9685605113
  0
SEQEND
  0
POLYLINE
  8
0
 62
7
  6
CONTINUOUS
 66
1
 70
0
  0
VERTEX
  8
0
 62
7
  6
CONTINUOUS
 10
24.6953245721
 20
325.79201051
  0
VERTEX
  8
0
 62
7
  6
CONTINUOUS
 10
17.7841982825
 20
325.4361838079
  0
VERTEX
  8
0
 62
7
  6
CONTINUOUS
 10
14.5541334
 20
325.2794940121
  0
VERTEX
  8
0
 62
7
  6
CONTINUOUS
 10
11.5081937154
 20
325.1494567249
  0
VERTEX
  8
0
 62
7
  6
CONTINUOUS
 10
8.6788681303
 20
325.0513162632
  0
VERTEX
  8
0
 62
7
  6
CONTINUOUS
 10
6.0902792654
 20
324.9919902624
  0
VERTEX
  8
0
 62
7
  6
CONTINUOUS
 10
3.781590089
 20
324.9714393398
  0
VERTEX
  8
0
 62
7
  6
CONTINUOUS
 10
1.7847637304
 20
324.9912610293
  0
VERTEX
  8
0
 62
7
  6
CONTINUOUS
 10
0.1088087941
 20
325.0430174259
  0
VERTEX
  8
0
 62
7
  6
CONTINUOUS
 10
-1.2351300471
 20
325.1218434953
  0
VERTEX
  8
0
 62
7
  6
CONTINUOUS
 10
-2.2270692221
 20
325.2171011316
  0
VERTEX
  8
0
 62
7
  6
CONTINUOUS
 10
-2.8574422392
 20
325.3139581758
  0
VERTEX
  8
0
 62
7
  6
CONTINUOUS
 10
-3.1244380974
 20
325.4107679288
  0
SEQEND
  0
LINE
  8
0
 62
7
  6
CONTINUOUS
 10
28.2905529894
 20
325.9725925399
 11
24.6953245721
 21
325.79201051
  0
LINE
  8
0
 62
7
  6
CONTINUOUS
 10
265.1796409803
 20
333.9685424071
 11
262.8748288558
 21
333.8663002996
  0
POLYLINE
  8
0
 62
7
  6
CONTINUOUS
 66
1
 70
0
  0
VERTEX
  8
0
 62
7
  6
CONTINUOUS
 10
244.9980578724
 20
333.0652693781
  0
VERTEX
  8
0
 62
7
  6
CONTINUOUS
 10
256.6055803212
 20
333.5713989869
  0
VERTEX
  8
0
 62
7
  6
CONTINUOUS
 10
270.356017902
 20
333.9672409157
  0
VERTEX
  8
0
 62
7
  6
CONTINUOUS
 10
284.0409168885
 20
334.1916328754
  0
VERTEX
  8
0
 62
7
  6
CONTINUOUS
 10
297.7451499457
 20
334.3909368603
  0
VERTEX
  8
0
 62
7
  6
CONTINUOUS
 10
311.5337900349
 20
334.6686676026
  0
VERTEX
  8
0
 62
7
  6
CONTINUOUS
 10
325.3791308847
 20
335.0001351373
  0
VERTEX
  8
0
 62
7
  6
CONTINUOUS
 10
339.2770561151
 20
335.1808269415
  0
VERTEX
  8
0
 62
7
  6
CONTINUOUS
 10
353.2321971429
 20
335.0189082266
  0
SEQEND
  0
POLYLINE
  8
0
 62
7
  6
CONTINUOUS
 66
1
 70
0
  0
VERTEX
  8
0
 62
7
  6
CONTINUOUS
 10
262.8748288558
 20
333.8663002996
  0
VERTEX
  8
0
 62
7
  6
CONTINUOUS
 10
257.4152726327
 20
333.6313956193
  0
VERTEX
  8
0
 62
7
  6
CONTINUOUS
 10
254.307123878
 20
333.4952680855
  0
VERTEX
  8
0
 62
7
  6
CONTINUOUS
 10
251.0239177873
 20
333.3474861986
  0
VERTEX
  8
0
 62
7
  6
CONTINUOUS
 10
247.5725174407
 20
333.1874613577
  0
VERTEX
  8
0
 62
7
  6
CONTINUOUS
 10
244.9980578724
 20
333.0652693781
  0
SEQEND
  0
LINE
  8
0
 62
7
  6
CONTINUOUS
 10
24.8883764809
 20
330.3739802656
 11
18.2879040531
 21
330.1126826855
  0
LINE
  8
0
 62
7
  6
CONTINUOUS
 10
18.2879040531
 20
330.1126826855
 11
16.2931759468
 21
330.0377603565
  0
LINE
  8
0
 62
7
  6
CONTINUOUS
 10
27.2913110456
 20
330.463215308
 11
24.8883764809
 21
330.3739802656
  0
LINE
  8
0
 62
7
  6
CONTINUOUS
 10
28.7183359174
 20
330.512489663
 11
27.2913110456
 21
330.463215308
  0
POLYLINE
  8
0
 62
7
  6
CONTINUOUS
 66
1
 70
0
  0
VERTEX
  8
0
 62
7
  6
CONTINUOUS
 10
16.2931759468
 20
330.0377603565
  0
VERTEX
  8
0
 62
7
  6
CONTINUOUS
 10
14.425936404
 20
329.9735984026
  0
VERTEX
  8
0
 62
7
  6
CONTINUOUS
 10
13.5440851892
 20
329.9461476631
  0
VERTEX
  8
0
 62
7
  6
CONTINUOUS
 10
12.6950908271
 20
329.9218950345
  0
VERTEX
  8
0
 62
7
  6
CONTINUOUS
 10
11.8778890766
 20
329.9008816748
  0
VERTEX
  8
0
 62
7
  6
CONTINUOUS
 10
11.0921741211
 20
329.8831298608
  0
VERTEX
  8
0
 62
7
  6
CONTINUOUS
 10
10.3375700976
 20
329.8686512255
  0
VERTEX
  8
0
 62
7
  6
CONTINUOUS
 10
9.6136668644
 20
329.857449659
  0
VERTEX
  8
0
 62
7
  6
CONTINUOUS
 10
8.9201000057
 20
329.849522377
  0
VERTEX
  8
0
 62
7
  6
CONTINUOUS
 10
8.2570451966
 20
329.8448229081
  0
VERTEX
  8
0
 62
7
  6
CONTINUOUS
 10
7.6263996088
 20
329.8432166763
  0
VERTEX
  8
0
 62
7
  6
CONTINUOUS
 10
7.0303488598
 20
329.8445578226
  0
VERTEX
  8
0
 62
7
  6
CONTINUOUS
 10
6.4694756753
 20
329.8486699744
  0
VERTEX
  8
0
 62
7
  6
CONTINUOUS
 10
5.9422092249
 20
329.8553410703
  0
VERTEX
  8
0
 62
7
  6
CONTINUOUS
 10
5.4468104248
 20
329.8643646739
  0
VERTEX
  8
0
 62
7
  6
CONTINUOUS
 10
4.9827570553
 20
329.875486379
  0
VERTEX
  8
0
 62
7
  6
CONTINUOUS
 10
4.5495496515
 20
329.8884294887
  0
VERTEX
  8
0
 62
7
  6
CONTINUOUS
 10
4.147644845
 20
329.9028918349
  0
VERTEX
  8
0
 62
7
  6
CONTINUOUS
 10
3.7773366632
 20
329.918566205
  0
VERTEX
  8
0
 62
7
  6
CONTINUOUS
 10
3.4377949589
 20
329.9351924825
  0
VERTEX
  8
0
 62
7
  6
CONTINUOUS
 10
3.1284543693
 20
329.9525081386
  0
VERTEX
  8
0
 62
7
  6
CONTINUOUS
 10
2.8490226154
 20
329.9701933744
  0
VERTEX
  8
0
 62
7
  6
CONTINUOUS
 10
2.5991133878
 20
329.9879081142
  0
VERTEX
  8
0
 62
7
  6
CONTINUOUS
 10
2.3793859761
 20
330.0052482175
  0
VERTEX
  8
0
 62
7
  6
CONTINUOUS
 10
2.1894542064
 20
330.0218791117
  0
VERTEX
  8
0
 62
7
  6
CONTINUOUS
 10
2.0293320517
 20
330.0374031503
  0
SEQEND
  0
LINE
  8
0
 62
7
  6
CONTINUOUS
 10
79.8152359947
 20
332.1028008496
 11
60.5217401883
 21
331.6684128843
  0
POLYLINE
  8
0
 62
7
  6
CONTINUOUS
 66
1
 70
0
  0
VERTEX
  8
0
 62
7
  6
CONTINUOUS
 10
212.3850429546
 20
331.6988575641
  0
VERTEX
  8
0
 62
7
  6
CONTINUOUS
 10
210.9806460627
 20
331.6719673259
  0
VERTEX
  8
0
 62
7
  6
CONTINUOUS
 10
206.609024394
 20
331.6143221182
  0
VERTEX
  8
0
 62
7
  6
CONTINUOUS
 10
202.2713237564
 20
331.5934408113
  0
VERTEX
  8
0
 62
7
  6
CONTINUOUS
 10
198.0047405499
 20
331.6046163762
  0
VERTEX
  8
0
 62
7
  6
CONTINUOUS
 10
193.8520510451
 20
331.6391726824
  0
VERTEX
  8
0
 62
7
  6
CONTINUOUS
 10
189.827457202
 20
331.6878116814
  0
VERTEX
  8
0
 62
7
  6
CONTINUOUS
 10
182.2479087079
 20
331.7931603807
  0
SEQEND
  0
LINE
  8
0
 62
7
  6
CONTINUOUS
 10
359.8839032549
 20
335.7989660778
 11
358.0304028216
 21
335.7673389791
  0
LINE
  8
0
 62
7
  6
CONTINUOUS
 10
293.7357073402
 20
334.0256829201
 11
292.0177844342
 21
333.9984631663
  0
LINE
  8
0
 62
7
  6
CONTINUOUS
 10
359.8839040417
 20
335.7135527753
 11
359.2464216192
 21
335.7069888909
  0
POLYLINE
  8
0
 62
7
  6
CONTINUOUS
 66
1
 70
0
  0
VERTEX
  8
0
 62
7
  6
CONTINUOUS
 10
96.856778035
 20
327.8001477803
  0
VERTEX
  8
0
 62
7
  6
CONTINUOUS
 10
77.1569865263
 20
327.6271814919
  0
VERTEX
  8
0
 62
7
  6
CONTINUOUS
 10
67.3644626366
 20
327.4804384421
  0
VERTEX
  8
0
 62
7
  6
CONTINUOUS
 10
57.583297778
 20
327.1959214048
  0
VERTEX
  8
0
 62
7
  6
CONTINUOUS
 10
47.8111961605
 20
326.8330215134
  0
VERTEX
  8
0
 62
7
  6
CONTINUOUS
 10
38.0466866107
 20
326.4295642322
  0
VERTEX
  8
0
 62
7
  6
CONTINUOUS
 10
28.2908015275
 20
325.9726412338
  0
SEQEND
  0
POLYLINE
  8
0
 62
7
  6
CONTINUOUS
 66
1
 70
0
  0
VERTEX
  8
0
 62
7
  6
CONTINUOUS
 10
115.0275389892
 20
332.3192440159
  0
VERTEX
  8
0
 62
7
  6
CONTINUOUS
 10
79.4393044823
 20
332.1000332011
  0
VERTEX
  8
0
 62
7
  6
CONTINUOUS
 10
50.8713231559
 20
331.448230413
  0
VERTEX
  8
0
 62
7
  6
CONTINUOUS
 10
28.7180367856
 20
330.512479146
  0
SEQEND
  0
LINE
  8
0
 62
7
  6
CONTINUOUS
 10
136.4781740546
 20
332.2884932191
 11
114.9980141278
 21
332.3192863416
  0
LINE
  8
0
 62
7
  6
CONTINUOUS
 10
136.9545182027
 20
332.2825843888
 11
125.7457650266
 21
332.3038787836
  0
LINE
  8
0
 62
7
  6
CONTINUOUS
 10
178.7795583816
 20
331.8348048172
 11
157.1346791715
 21
331.9960459748
  0
POLYLINE
  8
0
 62
7
  6
CONTINUOUS
 66
1
 70
0
  0
VERTEX
  8
0
 62
7
  6
CONTINUOUS
 10
174.9793767573
 20
331.859231914
  0
VERTEX
  8
0
 62
7
  6
CONTINUOUS
 10
188.4937249316
 20
331.7055220216
  0
VERTEX
  8
0
 62
7
  6
CONTINUOUS
 10
202.0697055323
 20
331.5925405736
  0
VERTEX
  8
0
 62
7
  6
CONTINUOUS
 10
212.3850429546
 20
331.6988575641
  0
SEQEND
  0
LINE
  8
0
 62
7
  6
CONTINUOUS
 10
182.2479087079
 20
331.7931603807
 11
178.2147096377
 21
331.8407234425
  0
LINE
  8
0
 62
7
  6
CONTINUOUS
 10
139.9583314452
 20
332.2373489897
 11
138.3819883628
 21
332.2568394298
  0
POLYLINE
  8
0
 62
7
  6
CONTINUOUS
 66
1
 70
0
  0
VERTEX
  8
0
 62
7
  6
CONTINUOUS
 10
157.1346791715
 20
331.9960459748
  0
VERTEX
  8
0
 62
7
  6
CONTINUOUS
 10
143.17015564
 20
332.2005185856
  0
VERTEX
  8
0
 62
7
  6
CONTINUOUS
 10
139.9583314452
 20
332.2373489897
  0
SEQEND
  0
POLYLINE
  8
0
 62
7
  6
CONTINUOUS
 66
1
 70
0
  0
VERTEX
  8
0
 62
7
  6
CONTINUOUS
 10
138.3819883628
 20
332.2568394298
  0
VERTEX
  8
0
 62
7
  6
CONTINUOUS
 10
148.0068343914
 20
332.0993209258
  0
VERTEX
  8
0
 62
7
  6
CONTINUOUS
 10
161.4965183336
 20
331.9150364702
  0
VERTEX
  8
0
 62
7
  6
CONTINUOUS
 10
174.9793767573
 20
331.859231914
  0
SEQEND
  0
POLYLINE
  8
0
 62
7
  6
CONTINUOUS
 66
1
 70
0
  0
VERTEX
  8
0
 62
7
  6
CONTINUOUS
 10
353.2322321828
 20
335.0191431219
  0
VERTEX
  8
0
 62
7
  6
CONTINUOUS
 10
354.3495804782
 20
334.9901047691
  0
VERTEX
  8
0
 62
7
  6
CONTINUOUS
 10
355.4634436638
 20
334.9589044443
  0
VERTEX
  8
0
 62
7
  6
CONTINUOUS
 10
356.5738310567
 20
334.9254870244
  0
VERTEX
  8
0
 62
7
  6
CONTINUOUS
 10
357.6807153561
 20
334.8897875309
  0
VERTEX
  8
0
 62
7
  6
CONTINUOUS
 10
358.7840695969
 20
334.8517454495
  0
VERTEX
  8
0
 62
7
  6
CONTINUOUS
 10
359.8839040848
 20
334.8113178984
  0
SEQEND
  0
POLYLINE
  8
0
 62
7
  6
CONTINUOUS
 66
1
 70
0
  0
VERTEX
  8
0
 62
7
  6
CONTINUOUS
 10
359.8839059234
 20
330.3168755088
  0
VERTEX
  8
0
 62
7
  6
CONTINUOUS
 10
353.107595433
 20
330.546711525
  0
VERTEX
  8
0
 62
7
  6
CONTINUOUS
 10
346.3324710715
 20
330.6851430908
  0
VERTEX
  8
0
 62
7
  6
CONTINUOUS
 10
339.5587013873
 20
330.7249104196
  0
VERTEX
  8
0
 62
7
  6
CONTINUOUS
 10
332.78591111
 20
330.6879712594
  0
VERTEX
  8
0
 62
7
  6
CONTINUOUS
 10
326.0138615173
 20
330.5842070611
  0
VERTEX
  8
0
 62
7
  6
CONTINUOUS
 10
319.2423604182
 20
330.4426505604
  0
VERTEX
  8
0
 62
7
  6
CONTINUOUS
 10
312.5661962545
 20
330.2927802904
  0
VERTEX
  8
0
 62
7
  6
CONTINUOUS
 10
305.7001991669
 20
330.1431540387
  0
VERTEX
  8
0
 62
7
  6
CONTINUOUS
 10
298.2638851377
 20
330.0148164346
  0
VERTEX
  8
0
 62
7
  6
CONTINUOUS
 10
290.6380202227
 20
329.8998336274
  0
VERTEX
  8
0
 62
7
  6
CONTINUOUS
 10
283.107927438
 20
329.8087787122
  0
VERTEX
  8
0
 62
7
  6
CONTINUOUS
 10
275.5791433561
 20
329.7067599858
  0
VERTEX
  8
0
 62
7
  6
CONTINUOUS
 10
268.0520969382
 20
329.5658729783
  0
VERTEX
  8
0
 62
7
  6
CONTINUOUS
 10
260.5269465048
 20
329.3750776626
  0
VERTEX
  8
0
 62
7
  6
CONTINUOUS
 10
253.0999990305
 20
329.1075443729
  0
VERTEX
  8
0
 62
7
  6
CONTINUOUS
 10
245.4829551883
 20
328.7823569304
  0
VERTEX
  8
0
 62
7
  6
CONTINUOUS
 10
237.292364148
 20
328.384700859
  0
VERTEX
  8
0
 62
7
  6
CONTINUOUS
 10
228.9094775112
 20
327.9887573177
  0
VERTEX
  8
0
 62
7
  6
CONTINUOUS
 10
220.6205771268
 20
327.6558375844
  0
VERTEX
  8
0
 62
7
  6
CONTINUOUS
 10
212.3286668533
 20
327.4118072753
  0
VERTEX
  8
0
 62
7
  6
CONTINUOUS
 10
204.0319802285
 20
327.3220629726
  0
VERTEX
  8
0
 62
7
  6
CONTINUOUS
 10
195.7312048056
 20
327.3294469492
  0
VERTEX
  8
0
 62
7
  6
CONTINUOUS
 10
187.5199931116
 20
327.4196707681
  0
VERTEX
  8
0
 62
7
  6
CONTINUOUS
 10
179.1182480771
 20
327.5302879265
  0
VERTEX
  8
0
 62
7
  6
CONTINUOUS
 10
170.1527821503
 20
327.5678383329
  0
VERTEX
  8
0
 62
7
  6
CONTINUOUS
 10
160.996548972
 20
327.6111224402
  0
VERTEX
  8
0
 62
7
  6
CONTINUOUS
 10
151.9289117793
 20
327.7315729218
  0
VERTEX
  8
0
 62
7
  6
CONTINUOUS
 10
142.8582644093
 20
327.8589106109
  0
VERTEX
  8
0
 62
7
  6
CONTINUOUS
 10
133.7859577454
 20
327.9507235722
  0
VERTEX
  8
0
 62
7
  6
CONTINUOUS
 10
124.7135460302
 20
327.9962183624
  0
VERTEX
  8
0
 62
7
  6
CONTINUOUS
 10
115.7360495883
 20
327.9535315528
  0
VERTEX
  8
0
 62
7
  6
CONTINUOUS
 10
106.5745033315
 20
327.8735841479
  0
VERTEX
  8
0
 62
7
  6
CONTINUOUS
 10
96.856778035
 20
327.8001477803
  0
SEQEND
  0
POLYLINE
  8
0
 62
7
  6
CONTINUOUS
 66
1
 70
0
  0
VERTEX
  8
0
 62
7
  6
CONTINUOUS
 10
354.2077928467
 20
335.9594480584
  0
VERTEX
  8
0
 62
7
  6
CONTINUOUS
 10
351.6659230032
 20
336.059250666
  0
VERTEX
  8
0
 62
7
  6
CONTINUOUS
 10
348.013523325
 20
336.1815876462
  0
VERTEX
  8
0
 62
7
  6
CONTINUOUS
 10
344.3748771928
 20
336.2787935331
  0
VERTEX
  8
0
 62
7
  6
CONTINUOUS
 10
340.7653218984
 20
336.3511520948
  0
VERTEX
  8
0
 62
7
  6
CONTINUOUS
 10
337.1953475735
 20
336.4002234606
  0
VERTEX
  8
0
 62
7
  6
CONTINUOUS
 10
333.6743021219
 20
336.4285407158
  0
VERTEX
  8
0
 62
7
  6
CONTINUOUS
 10
330.2170185381
 20
336.4388134111
  0
VERTEX
  8
0
 62
7
  6
CONTINUOUS
 10
326.8175154055
 20
336.4333488112
  0
VERTEX
  8
0
 62
7
  6
CONTINUOUS
 10
323.4755914348
 20
336.4132002914
  0
VERTEX
  8
0
 62
7
  6
CONTINUOUS
 10
320.1888103193
 20
336.3791600524
  0
VERTEX
  8
0
 62
7
  6
CONTINUOUS
 10
316.954472035
 20
336.3319102644
  0
VERTEX
  8
0
 62
7
  6
CONTINUOUS
 10
313.7731754921
 20
336.2721140732
  0
VERTEX
  8
0
 62
7
  6
CONTINUOUS
 10
310.6448017594
 20
336.2003983454
  0
VERTEX
  8
0
 62
7
  6
CONTINUOUS
 10
307.5688068471
 20
336.1173565094
  0
VERTEX
  8
0
 62
7
  6
CONTINUOUS
 10
304.541086726
 20
336.0234431569
  0
VERTEX
  8
0
 62
7
  6
CONTINUOUS
 10
301.572204155
 20
335.9195816261
  0
VERTEX
  8
0
 62
7
  6
CONTINUOUS
 10
298.664121172
 20
335.8065016007
  0
VERTEX
  8
0
 62
7
  6
CONTINUOUS
 10
295.8385284136
 20
335.6858394551
  0
VERTEX
  8
0
 62
7
  6
CONTINUOUS
 10
293.118174211
 20
335.5596098048
  0
VERTEX
  8
0
 62
7
  6
CONTINUOUS
 10
290.5018285636
 20
335.4289191356
  0
VERTEX
  8
0
 62
7
  6
CONTINUOUS
 10
287.9911820943
 20
335.2950338664
  0
VERTEX
  8
0
 62
7
  6
CONTINUOUS
 10
285.6002148641
 20
335.1599996986
  0
VERTEX
  8
0
 62
7
  6
CONTINUOUS
 10
283.3347196385
 20
335.0256095454
  0
VERTEX
  8
0
 62
7
  6
CONTINUOUS
 10
281.2209310785
 20
334.8953158717
  0
VERTEX
  8
0
 62
7
  6
CONTINUOUS
 10
275.964145944
 20
334.5605069316
  0
SEQEND
  0
LINE
  8
0
 62
7
  6
CONTINUOUS
 10
355.7485581863
 20
335.8745407516
 11
354.2277752538
 21
335.9409099257
  0
POLYLINE
  8
0
 62
7
  6
CONTINUOUS
 66
1
 70
0
  0
VERTEX
  8
0
 62
7
  6
CONTINUOUS
 10
359.8839032549
 20
335.6744858997
  0
VERTEX
  8
0
 62
7
  6
CONTINUOUS
 10
358.7214902673
 20
335.733753331
  0
VERTEX
  8
0
 62
7
  6
CONTINUOUS
 10
357.2060028739
 20
335.807403383
  0
VERTEX
  8
0
 62
7
  6
CONTINUOUS
 10
355.7485581863
 20
335.8745407516
  0
SEQEND
  0
LINE
  8
0
 62
7
  6
CONTINUOUS
 10
354.2077928467
 20
335.9594480584
 11
354.2275985558
 21
335.9583618431
  0
LINE
  8
0
 62
7
  6
CONTINUOUS
 10
0.1494004228
 20
332.0789896539
 11
-0.5371583302
 21
331.8879448349
  0
ENDSEC
  0
EOF
