999
DXF file: K:\Client\125_Heirloom\001\00\Final_Data\Drawings\BASINS\veloso-361112_1.dxf
999
Pro/ENGINEER 2017110 by Parametric Technology Corporation
  0
SECTION
  2
HEADER
  9
$EXTMAX
 10
420.0
 20
297.0
 30
0.0
  9
$EXTMIN
 10
0.0
 20
0.0
 30
0.0
  9
$LIMMIN
 10
0.0
 20
0.0
  9
$LIMMAX
 10
420.0
 20
297.0
  9
$VIEWCTR
 10
210.0
 20
148.5
  9
$VIEWSIZE
 40
297.0
  9
$CLAYER
  8
0
  9
$LTSCALE
 40
23.1
  9
$CELTYPE
  6
BYLAYER
  9
$DIMSCALE
 40
1.0
  9
$DIMASZ
 40
3.0
  9
$DIMEXO
 40
1.0
  9
$DIMDLI
 40
15.96
  9
$DIMEXE
 40
1.0
  9
$DIMCEN
 40
3.78
  9
$DIMLFAC
 40
1.0
  9
$DIMBLK
  1
_FILLED
  9
$DIMALT
 70
0
  9
$DIMALTF
 40
0.0393700787
  9
$DIMTXT
 40
3.0
  9
$AUNITS
 70
0
  9
$PDMODE
 70
3
  9
$PDSIZE
 40
5.0
  9
$TILEMODE
 70
1
  0
ENDSEC
  0
SECTION
  2
TABLES
  0
TABLE
  2
LTYPE
 70
6
  0
LTYPE
  2
BYBLOCK
 70
0
  3

 72
65
 73
0
 40
0.0
  0
LTYPE
  2
BYLAYER
 70
0
  3

 72
65
 73
0
 40
0.0
  0
LTYPE
  2
CONTINUOUS
 70
64
  3
Solid line
 72
65
 73
0
 40
0.0
  0
LTYPE
  2
CENTER
 70
64
  3
____ _ ____ _ ____ _ ____ _ ____ _ ____ _ ____
 72
65
 73
4
 40
0.6
 49
0.375
 49
-0.075
 49
0.075
 49
-0.075
  0
LTYPE
  2
HIDDEN
 70
64
  3
- - - - - - - - - - - - - - - - - - - -
 72
65
 73
2
 40
0.2
 49
0.1
 49
-0.1
  0
LTYPE
  2
PHANTOM
 70
64
  3
_____ _ _ _____ _ _ _____ _ _ _____
 72
65
 73
6
 40
0.8
 49
0.45
 49
-0.05
 49
0.1
 49
-0.05
 49
0.1
 49
-0.05
  0
LTYPE
  2
DOT
 70
64
  3
. . . . . . . . . . . . . . . . . . . .
 72
65
 73
2
 40
0.2
 49
0.1
 49
-0.1
  0
LTYPE
  2
DASHED
 70
64
  3
- - - - - - - - - - - - - - - - - - - -
 72
65
 73
2
 40
0.2
 49
0.1
 49
-0.1
  0
ENDTAB
  0
TABLE
  2
LAYER
 70
36
  0
LAYER
  2
0
 70
0
 62
7
  6
CONTINUOUS
  0
LAYER
  2
DEFAULT_1
 70
0
 62
7
  6
CENTER
  0
LAYER
  2
DEFAULT_2
 70
0
 62
8
  6
HIDDEN
  0
LAYER
  2
DEFAULT_3
 70
0
 62
7
  6
PHANTOM
  0
LAYER
  2
0000_BOM
 70
0
 62
7
  6
CONTINUOUS
  0
LAYER
  2
0000_REV_TABLE
 70
0
 62
7
  6
CONTINUOUS
  0
LAYER
  2
0000_STEVENS_NOTE
 70
0
 62
7
  6
CONTINUOUS
  0
LAYER
  2
01_DATUM_PLANES
 70
0
 62
7
  6
CONTINUOUS
  0
LAYER
  2
01_DEF_PLANES
 70
0
 62
7
  6
CONTINUOUS
  0
LAYER
  2
02_DATUM_COS
 70
0
 62
7
  6
CONTINUOUS
  0
LAYER
  2
90_IMP_FEAT
 70
0
 62
7
  6
CONTINUOUS
  0
LAYER
  2
95_STL
 70
0
 62
7
  6
CONTINUOUS
  0
LAYER
  2
99_SOLID
 70
0
 62
7
  6
CONTINUOUS
  0
LAYER
  2
CAD-MASTER_ZINC-PL
 70
0
 62
7
  6
CONTINUOUS
  0
LAYER
  2
CURVE
 70
0
 62
7
  6
CONTINUOUS
  0
LAYER
  2
SKEL
 70
0
 62
7
  6
CONTINUOUS
  0
LAYER
  2
SKETCH
 70
0
 62
7
  6
CONTINUOUS
  0
LAYER
  2
SURFACE
 70
0
 62
7
  6
CONTINUOUS
  0
ENDTAB
  0
TABLE
  2
STYLE
 70
1
  0
STYLE
  2
STANDARD
 70
0
 40
0.0
 41
0.75
 50
0.0
 71
0
 42
0.2
  3
txt
  4

  0
STYLE
  2
TEXTSTYLE_1
 70
0
 40
0.0
 41
0.8
 50
0.0
 71
0
 42
0.2
  3
gdt
  4

  0
ENDTAB
  0
ENDSEC
  0
SECTION
  2
BLOCKS
  0
ENDSEC
  0
SECTION
  2
ENTITIES
  0
POLYLINE
  8
0
 62
7
  6
CONTINUOUS
 66
1
 70
0
  0
VERTEX
  8
0
 62
7
  6
CONTINUOUS
 10
-42.0617983704
 20
333.9130456685
  0
VERTEX
  8
0
 62
7
  6
CONTINUOUS
 10
-42.639229583
 20
333.6210924038
  0
VERTEX
  8
0
 62
7
  6
CONTINUOUS
 10
-43.1727828869
 20
333.2344912885
  0
VERTEX
  8
0
 62
7
  6
CONTINUOUS
 10
-43.6344742515
 20
332.7651564516
  0
VERTEX
  8
0
 62
7
  6
CONTINUOUS
 10
-44.0148510228
 20
332.2290677736
  0
VERTEX
  8
0
 62
7
  6
CONTINUOUS
 10
-44.300177055
 20
331.6388920288
  0
VERTEX
  8
0
 62
7
  6
CONTINUOUS
 10
-44.4871693023
 20
331.0116910579
  0
VERTEX
  8
0
 62
7
  6
CONTINUOUS
 10
-44.5669832837
 20
330.371409472
  0
VERTEX
  8
0
 62
7
  6
CONTINUOUS
 10
-44.5425671594
 20
329.7100657343
  0
SEQEND
  0
POLYLINE
  8
0
 62
7
  6
CONTINUOUS
 66
1
 70
0
  0
VERTEX
  8
0
 62
7
  6
CONTINUOUS
 10
-19.1070304031
 20
154.80605281
  0
VERTEX
  8
0
 62
7
  6
CONTINUOUS
 10
-18.778385563
 20
153.5387836946
  0
VERTEX
  8
0
 62
7
  6
CONTINUOUS
 10
-18.3015349486
 20
152.3465649616
  0
VERTEX
  8
0
 62
7
  6
CONTINUOUS
 10
-17.670955766
 20
151.2211379821
  0
VERTEX
  8
0
 62
7
  6
CONTINUOUS
 10
-16.9032163975
 20
150.1872786428
  0
VERTEX
  8
0
 62
7
  6
CONTINUOUS
 10
-16.006412159
 20
149.2623115332
  0
VERTEX
  8
0
 62
7
  6
CONTINUOUS
 10
-15.0004394562
 20
148.4603319169
  0
VERTEX
  8
0
 62
7
  6
CONTINUOUS
 10
-13.901541791
 20
147.7993216545
  0
VERTEX
  8
0
 62
7
  6
CONTINUOUS
 10
-12.72877319
 20
147.2849455451
  0
VERTEX
  8
0
 62
7
  6
CONTINUOUS
 10
-11.509660746
 20
146.9303196856
  0
VERTEX
  8
0
 62
7
  6
CONTINUOUS
 10
-10.2350287614
 20
146.7310720438
  0
SEQEND
  0
POLYLINE
  8
0
 62
7
  6
CONTINUOUS
 66
1
 70
0
  0
VERTEX
  8
0
 62
7
  6
CONTINUOUS
 10
-44.5425671594
 20
329.7100657343
  0
VERTEX
  8
0
 62
7
  6
CONTINUOUS
 10
-40.5417665172
 20
297.8150097754
  0
VERTEX
  8
0
 62
7
  6
CONTINUOUS
 10
-36.4958380869
 20
267.0081967028
  0
VERTEX
  8
0
 62
7
  6
CONTINUOUS
 10
-32.4518953737
 20
237.2807090457
  0
VERTEX
  8
0
 62
7
  6
CONTINUOUS
 10
-28.2685978622
 20
208.6592992167
  0
VERTEX
  8
0
 62
7
  6
CONTINUOUS
 10
-23.8046050369
 20
181.1707196284
  0
VERTEX
  8
0
 62
7
  6
CONTINUOUS
 10
-19.1070304031
 20
154.80605281
  0
SEQEND
  0
POLYLINE
  8
0
 62
7
  6
CONTINUOUS
 66
1
 70
0
  0
VERTEX
  8
0
 62
7
  6
CONTINUOUS
 10
-1.2153702362
 20
140.3110236069
  0
VERTEX
  8
0
 62
7
  6
CONTINUOUS
 10
1.9174640275
 20
110.3841531349
  0
VERTEX
  8
0
 62
7
  6
CONTINUOUS
 10
4.8132611185
 20
80.952974764
  0
VERTEX
  8
0
 62
7
  6
CONTINUOUS
 10
7.5432059759
 20
52.0216626898
  0
VERTEX
  8
0
 62
7
  6
CONTINUOUS
 10
9.8937437829
 20
23.5776943253
  0
VERTEX
  8
0
 62
7
  6
CONTINUOUS
 10
11.6513197229
 20
-4.3914529169
  0
VERTEX
  8
0
 62
7
  6
CONTINUOUS
 10
12.8871187347
 20
-31.8816048409
  0
SEQEND
  0
POLYLINE
  8
0
 62
9
  6
CONTINUOUS
 66
1
 70
0
  0
VERTEX
  8
0
 62
9
  6
CONTINUOUS
 10
-10.077711268
 20
325.3658133185
  0
VERTEX
  8
0
 62
9
  6
CONTINUOUS
 10
-10.1069580016
 20
326.0839868589
  0
VERTEX
  8
0
 62
9
  6
CONTINUOUS
 10
-10.0077647633
 20
326.7991561559
  0
VERTEX
  8
0
 62
9
  6
CONTINUOUS
 10
-9.7933448258
 20
327.4610114675
  0
VERTEX
  8
0
 62
9
  6
CONTINUOUS
 10
-9.4709465704
 20
328.0725712445
  0
VERTEX
  8
0
 62
9
  6
CONTINUOUS
 10
-9.0378007373
 20
328.6318674715
  0
VERTEX
  8
0
 62
9
  6
CONTINUOUS
 10
-8.5036633581
 20
329.1134788366
  0
VERTEX
  8
0
 62
9
  6
CONTINUOUS
 10
-7.8805984587
 20
329.4968332865
  0
VERTEX
  8
0
 62
9
  6
CONTINUOUS
 10
-7.1858395137
 20
329.7624519028
  0
VERTEX
  8
0
 62
9
  6
CONTINUOUS
 10
-6.4384139532
 20
329.8939852591
  0
VERTEX
  8
0
 62
9
  6
CONTINUOUS
 10
-5.6889790238
 20
329.8802121032
  0
SEQEND
  0
POLYLINE
  8
0
 62
9
  6
CONTINUOUS
 66
1
 70
0
  0
VERTEX
  8
0
 62
9
  6
CONTINUOUS
 10
-19.1070595736
 20
154.8060472696
  0
VERTEX
  8
0
 62
9
  6
CONTINUOUS
 10
-17.4427977569
 20
158.3497028363
  0
VERTEX
  8
0
 62
9
  6
CONTINUOUS
 10
-15.8158665978
 20
161.7720593038
  0
VERTEX
  8
0
 62
9
  6
CONTINUOUS
 10
-14.2075614098
 20
165.087309854
  0
VERTEX
  8
0
 62
9
  6
CONTINUOUS
 10
-12.5257993734
 20
168.2715028874
  0
VERTEX
  8
0
 62
9
  6
CONTINUOUS
 10
-10.6452232683
 20
171.2575636362
  0
VERTEX
  8
0
 62
9
  6
CONTINUOUS
 10
-8.4669017431
 20
174.2135672639
  0
VERTEX
  8
0
 62
9
  6
CONTINUOUS
 10
-5.9854988433
 20
177.2781490731
  0
SEQEND
  0
POLYLINE
  8
0
 62
9
  6
CONTINUOUS
 66
1
 70
0
  0
VERTEX
  8
0
 62
9
  6
CONTINUOUS
 10
294.9987554913
 20
-25.2465695224
  0
VERTEX
  8
0
 62
9
  6
CONTINUOUS
 10
276.9493345301
 20
-25.2714465874
  0
VERTEX
  8
0
 62
9
  6
CONTINUOUS
 10
259.4815186112
 20
-25.2639232804
  0
VERTEX
  8
0
 62
9
  6
CONTINUOUS
 10
242.6655323627
 20
-25.2164725636
  0
VERTEX
  8
0
 62
9
  6
CONTINUOUS
 10
226.2874986988
 20
-25.1222661824
  0
VERTEX
  8
0
 62
9
  6
CONTINUOUS
 10
210.13360144
 20
-24.9750340745
  0
VERTEX
  8
0
 62
9
  6
CONTINUOUS
 10
194.2753998017
 20
-24.7794989452
  0
SEQEND
  0
LINE
  8
0
 62
7
  6
CONTINUOUS
 10
12.8870907267
 20
-31.8816048409
 11
355.6636933604
 21
-31.8816048409
  0
POLYLINE
  8
0
 62
9
  6
CONTINUOUS
 66
1
 70
0
  0
VERTEX
  8
0
 62
9
  6
CONTINUOUS
 10
73.5516745213
 20
-25.246568745
  0
VERTEX
  8
0
 62
9
  6
CONTINUOUS
 10
91.6013165711
 20
-25.271446514
  0
VERTEX
  8
0
 62
9
  6
CONTINUOUS
 10
109.0692651164
 20
-25.263923281
  0
VERTEX
  8
0
 62
9
  6
CONTINUOUS
 10
125.885273283
 20
-25.2164724728
  0
VERTEX
  8
0
 62
9
  6
CONTINUOUS
 10
142.2632847049
 20
-25.1222661874
  0
VERTEX
  8
0
 62
9
  6
CONTINUOUS
 10
158.4171821794
 20
-24.9750340796
  0
VERTEX
  8
0
 62
9
  6
CONTINUOUS
 10
174.2753842854
 20
-24.7794989452
  0
SEQEND
  0
POLYLINE
  8
0
 62
9
  6
CONTINUOUS
 66
1
 70
0
  0
VERTEX
  8
0
 62
9
  6
CONTINUOUS
 10
25.3338667773
 20
324.8039595759
  0
VERTEX
  8
0
 62
9
  6
CONTINUOUS
 10
25.3213278729
 20
325.5418125111
  0
VERTEX
  8
0
 62
9
  6
CONTINUOUS
 10
25.3117726522
 20
326.2852476736
  0
VERTEX
  8
0
 62
9
  6
CONTINUOUS
 10
25.3057790204
 20
326.9780982782
  0
VERTEX
  8
0
 62
9
  6
CONTINUOUS
 10
25.303130364
 20
327.6225521406
  0
VERTEX
  8
0
 62
9
  6
CONTINUOUS
 10
25.3039332431
 20
328.2159829045
  0
VERTEX
  8
0
 62
9
  6
CONTINUOUS
 10
25.3083959951
 20
328.730146598
  0
VERTEX
  8
0
 62
9
  6
CONTINUOUS
 10
25.3165852986
 20
329.1416119415
  0
VERTEX
  8
0
 62
9
  6
CONTINUOUS
 10
25.328418026
 20
329.4279931174
  0
VERTEX
  8
0
 62
9
  6
CONTINUOUS
 10
25.3437011312
 20
329.5702910079
  0
VERTEX
  8
0
 62
9
  6
CONTINUOUS
 10
25.350548448
 20
329.5830241618
  0
SEQEND
  0
LINE
  8
0
 62
9
  6
CONTINUOUS
 10
16.6859109494
 20
331.9022657305
 11
16.6587135975
 21
329.4000693934
  0
POLYLINE
  8
0
 62
9
  6
CONTINUOUS
 66
1
 70
0
  0
VERTEX
  8
0
 62
9
  6
CONTINUOUS
 10
-5.031032223
 20
157.0256986186
  0
VERTEX
  8
0
 62
9
  6
CONTINUOUS
 10
-8.4768268774
 20
150.2504593087
  0
VERTEX
  8
0
 62
9
  6
CONTINUOUS
 10
-10.2350159466
 20
146.7312150944
  0
SEQEND
  0
POLYLINE
  8
0
 62
9
  6
CONTINUOUS
 66
1
 70
0
  0
VERTEX
  8
0
 62
9
  6
CONTINUOUS
 10
-5.9854988433
 20
177.2781490731
  0
VERTEX
  8
0
 62
9
  6
CONTINUOUS
 10
-0.6299088634
 20
183.5698654116
  0
VERTEX
  8
0
 62
9
  6
CONTINUOUS
 10
2.150044376
 20
186.8197647008
  0
VERTEX
  8
0
 62
9
  6
CONTINUOUS
 10
5.1043634827
 20
190.2017353333
  0
VERTEX
  8
0
 62
9
  6
CONTINUOUS
 10
8.2802538776
 20
193.709413576
  0
SEQEND
  0
LINE
  8
0
 62
9
  6
CONTINUOUS
 10
194.2830334444
 20
335.0975744624
 11
194.2715734673
 21
335.0911246925
  0
POLYLINE
  8
0
 62
9
  6
CONTINUOUS
 66
1
 70
0
  0
VERTEX
  8
0
 62
9
  6
CONTINUOUS
 10
194.2869127806
 20
335.1067462684
  0
VERTEX
  8
0
 62
9
  6
CONTINUOUS
 10
194.2830731813
 20
335.1053323389
  0
VERTEX
  8
0
 62
9
  6
CONTINUOUS
 10
194.2792354811
 20
335.1038935017
  0
VERTEX
  8
0
 62
9
  6
CONTINUOUS
 10
194.2754007322
 20
335.1024303556
  0
VERTEX
  8
0
 62
9
  6
CONTINUOUS
 10
194.271565779
 20
335.1009418797
  0
VERTEX
  8
0
 62
9
  6
CONTINUOUS
 10
194.2677274658
 20
335.0994269696
  0
VERTEX
  8
0
 62
9
  6
CONTINUOUS
 10
194.2638868447
 20
335.0978861412
  0
SEQEND
  0
LINE
  8
0
 62
9
  6
CONTINUOUS
 10
194.0298789833
 20
334.2108837097
 11
194.2754217296
 21
334.2843613454
  0
POLYLINE
  8
0
 62
9
  6
CONTINUOUS
 66
1
 70
0
  0
VERTEX
  8
0
 62
9
  6
CONTINUOUS
 10
8.2802538776
 20
193.709413576
  0
VERTEX
  8
0
 62
9
  6
CONTINUOUS
 10
6.4271438127
 20
204.2756646633
  0
VERTEX
  8
0
 62
9
  6
CONTINUOUS
 10
4.6716812507
 20
214.8347632832
  0
VERTEX
  8
0
 62
9
  6
CONTINUOUS
 10
3.0148892443
 20
225.3230410473
  0
VERTEX
  8
0
 62
9
  6
CONTINUOUS
 10
1.4175369784
 20
235.9258497349
  0
VERTEX
  8
0
 62
9
  6
CONTINUOUS
 10
-0.1655922775
 20
246.8956740212
  0
VERTEX
  8
0
 62
9
  6
CONTINUOUS
 10
-1.7029766732
 20
257.9697542879
  0
VERTEX
  8
0
 62
9
  6
CONTINUOUS
 10
-3.1684882051
 20
268.8874057056
  0
VERTEX
  8
0
 62
9
  6
CONTINUOUS
 10
-4.5991207497
 20
279.8929892551
  0
VERTEX
  8
0
 62
9
  6
CONTINUOUS
 10
-6.0271590304
 20
291.2176573185
  0
VERTEX
  8
0
 62
9
  6
CONTINUOUS
 10
-7.4274922766
 20
302.6419546886
  0
VERTEX
  8
0
 62
9
  6
CONTINUOUS
 10
-8.7756738505
 20
314.0068912133
  0
VERTEX
  8
0
 62
9
  6
CONTINUOUS
 10
-10.0774462191
 20
325.3658347269
  0
SEQEND
  0
POLYLINE
  8
0
 62
9
  6
CONTINUOUS
 66
1
 70
0
  0
VERTEX
  8
0
 62
9
  6
CONTINUOUS
 10
49.0515746347
 20
-31.8815840994
  0
VERTEX
  8
0
 62
9
  6
CONTINUOUS
 10
46.936988371
 20
-15.330500784
  0
VERTEX
  8
0
 62
9
  6
CONTINUOUS
 10
44.9375646567
 20
0.4958982449
  0
VERTEX
  8
0
 62
9
  6
CONTINUOUS
 10
42.9927004969
 20
16.1422836502
  0
VERTEX
  8
0
 62
9
  6
CONTINUOUS
 10
41.0559944637
 20
32.1617180249
  0
VERTEX
  8
0
 62
9
  6
CONTINUOUS
 10
39.0728565712
 20
49.2919206124
  0
VERTEX
  8
0
 62
9
  6
CONTINUOUS
 10
37.1557772021
 20
66.8026269521
  0
VERTEX
  8
0
 62
9
  6
CONTINUOUS
 10
35.4033412931
 20
83.951257712
  0
VERTEX
  8
0
 62
9
  6
CONTINUOUS
 10
33.7415350247
 20
101.5058057797
  0
VERTEX
  8
0
 62
9
  6
CONTINUOUS
 10
32.086856048
 20
120.2572403187
  0
VERTEX
  8
0
 62
9
  6
CONTINUOUS
 10
30.5071477433
 20
139.38725584
  0
VERTEX
  8
0
 62
9
  6
CONTINUOUS
 10
29.0407132529
 20
158.2712028687
  0
VERTEX
  8
0
 62
9
  6
CONTINUOUS
 10
27.6487169908
 20
177.1145534959
  0
SEQEND
  0
LINE
  8
0
 62
9
  6
CONTINUOUS
 10
25.3533435391
 20
324.6240330481
 11
25.3338713465
 21
324.8039614221
  0
POLYLINE
  8
0
 62
9
  6
CONTINUOUS
 66
1
 70
0
  0
VERTEX
  8
0
 62
9
  6
CONTINUOUS
 10
27.6487169908
 20
177.1145534959
  0
VERTEX
  8
0
 62
9
  6
CONTINUOUS
 10
24.7515000576
 20
173.5253884245
  0
VERTEX
  8
0
 62
9
  6
CONTINUOUS
 10
21.9149319927
 20
170.0346263828
  0
VERTEX
  8
0
 62
9
  6
CONTINUOUS
 10
19.1316887443
 20
166.6229142983
  0
VERTEX
  8
0
 62
9
  6
CONTINUOUS
 10
16.5834643598
 20
163.3660213851
  0
VERTEX
  8
0
 62
9
  6
CONTINUOUS
 10
14.4266551304
 20
160.3823032329
  0
VERTEX
  8
0
 62
9
  6
CONTINUOUS
 10
12.4994962093
 20
157.4988719477
  0
VERTEX
  8
0
 62
9
  6
CONTINUOUS
 10
10.576601085
 20
154.5261059041
  0
VERTEX
  8
0
 62
9
  6
CONTINUOUS
 10
8.5642710353
 20
151.5830938349
  0
VERTEX
  8
0
 62
9
  6
CONTINUOUS
 10
6.4538139673
 20
148.7765998406
  0
VERTEX
  8
0
 62
9
  6
CONTINUOUS
 10
4.1317497406
 20
145.9951022742
  0
VERTEX
  8
0
 62
9
  6
CONTINUOUS
 10
1.545804608
 20
143.1620213129
  0
VERTEX
  8
0
 62
9
  6
CONTINUOUS
 10
-1.2153635024
 20
140.3110243213
  0
SEQEND
  0
POLYLINE
  8
0
 62
9
  6
CONTINUOUS
 66
1
 70
0
  0
VERTEX
  8
0
 62
9
  6
CONTINUOUS
 10
17.9660954619
 20
185.8348648969
  0
VERTEX
  8
0
 62
9
  6
CONTINUOUS
 10
14.7635091316
 20
182.3453930081
  0
VERTEX
  8
0
 62
9
  6
CONTINUOUS
 10
11.7268339037
 20
178.9657371584
  0
VERTEX
  8
0
 62
9
  6
CONTINUOUS
 10
8.8760504177
 20
175.7093036753
  0
VERTEX
  8
0
 62
9
  6
CONTINUOUS
 10
6.1516082908
 20
172.5250091505
  0
VERTEX
  8
0
 62
9
  6
CONTINUOUS
 10
3.4497698452
 20
169.3515123845
  0
VERTEX
  8
0
 62
9
  6
CONTINUOUS
 10
0.9229632477
 20
166.2405604369
  0
VERTEX
  8
0
 62
9
  6
CONTINUOUS
 10
-1.2734304034
 20
163.2301855467
  0
VERTEX
  8
0
 62
9
  6
CONTINUOUS
 10
-3.2507777229
 20
160.2068943367
  0
VERTEX
  8
0
 62
9
  6
CONTINUOUS
 10
-5.031032223
 20
157.0256986186
  0
SEQEND
  0
LINE
  8
0
 62
9
  6
CONTINUOUS
 10
193.7892695765
 20
334.0267968315
 11
194.0298789833
 21
334.2108837097
  0
POLYLINE
  8
0
 62
9
  6
CONTINUOUS
 66
1
 70
0
  0
VERTEX
  8
0
 62
9
  6
CONTINUOUS
 10
27.6487116757
 20
177.1145462855
  0
VERTEX
  8
0
 62
9
  6
CONTINUOUS
 10
27.465440632
 20
178.109033427
  0
VERTEX
  8
0
 62
9
  6
CONTINUOUS
 10
27.1399554149
 20
179.0679891818
  0
VERTEX
  8
0
 62
9
  6
CONTINUOUS
 10
26.6926433696
 20
179.949307509
  0
VERTEX
  8
0
 62
9
  6
CONTINUOUS
 10
26.1281308457
 20
180.7578431101
  0
VERTEX
  8
0
 62
9
  6
CONTINUOUS
 10
25.4442501463
 20
181.4920846119
  0
VERTEX
  8
0
 62
9
  6
CONTINUOUS
 10
24.6540090262
 20
182.1294754407
  0
VERTEX
  8
0
 62
9
  6
CONTINUOUS
 10
23.7705032405
 20
182.6530277569
  0
VERTEX
  8
0
 62
9
  6
CONTINUOUS
 10
22.8102578438
 20
183.0469695905
  0
VERTEX
  8
0
 62
9
  6
CONTINUOUS
 10
21.7890562799
 20
183.2983905592
  0
VERTEX
  8
0
 62
9
  6
CONTINUOUS
 10
20.7487918587
 20
183.394614585
  0
SEQEND
  0
POLYLINE
  8
0
 62
9
  6
CONTINUOUS
 66
1
 70
0
  0
VERTEX
  8
0
 62
9
  6
CONTINUOUS
 10
25.3533294945
 20
324.6240300949
  0
VERTEX
  8
0
 62
9
  6
CONTINUOUS
 10
27.9848025269
 20
301.6955708281
  0
VERTEX
  8
0
 62
9
  6
CONTINUOUS
 10
30.7147385439
 20
279.4183875796
  0
VERTEX
  8
0
 62
9
  6
CONTINUOUS
 10
33.5317784706
 20
257.8178989834
  0
VERTEX
  8
0
 62
9
  6
CONTINUOUS
 10
36.4700650016
 20
236.9352176064
  0
VERTEX
  8
0
 62
9
  6
CONTINUOUS
 10
39.5637340473
 20
216.7981406383
  0
VERTEX
  8
0
 62
9
  6
CONTINUOUS
 10
42.8014145678
 20
197.4129574451
  0
SEQEND
  0
POLYLINE
  8
0
 62
9
  6
CONTINUOUS
 66
1
 70
0
  0
VERTEX
  8
0
 62
9
  6
CONTINUOUS
 10
43.048860077
 20
189.2620595309
  0
VERTEX
  8
0
 62
9
  6
CONTINUOUS
 10
43.0196111822
 20
189.5245147053
  0
VERTEX
  8
0
 62
9
  6
CONTINUOUS
 10
42.9902521199
 20
189.9353419142
  0
VERTEX
  8
0
 62
9
  6
CONTINUOUS
 10
42.9617509717
 20
190.4764789175
  0
VERTEX
  8
0
 62
9
  6
CONTINUOUS
 10
42.9340326729
 20
191.1445928104
  0
VERTEX
  8
0
 62
9
  6
CONTINUOUS
 10
42.9071177535
 20
191.9413109615
  0
VERTEX
  8
0
 62
9
  6
CONTINUOUS
 10
42.8815579694
 20
192.8550029099
  0
VERTEX
  8
0
 62
9
  6
CONTINUOUS
 10
42.8577838678
 20
193.8744164265
  0
VERTEX
  8
0
 62
9
  6
CONTINUOUS
 10
42.8362237929
 20
194.9857601045
  0
VERTEX
  8
0
 62
9
  6
CONTINUOUS
 10
42.8172350471
 20
196.176612354
  0
VERTEX
  8
0
 62
9
  6
CONTINUOUS
 10
42.8014142085
 20
197.412605441
  0
SEQEND
  0
LINE
  8
0
 62
9
  6
CONTINUOUS
 10
74.143446024
 20
-30.7753808123
 11
74.2621382278
 21
-31.8815752682
  0
LINE
  8
0
 62
9
  6
CONTINUOUS
 10
73.9063921694
 20
-28.5634339917
 11
74.143446024
 21
-30.7753808123
  0
LINE
  8
0
 62
9
  6
CONTINUOUS
 10
73.5520285958
 20
-25.2465695224
 11
73.9063921694
 21
-28.5634339917
  0
POLYLINE
  8
0
 62
9
  6
CONTINUOUS
 66
1
 70
0
  0
VERTEX
  8
0
 62
9
  6
CONTINUOUS
 10
55.3475590146
 20
182.4025897031
  0
VERTEX
  8
0
 62
9
  6
CONTINUOUS
 10
56.580990451
 20
166.4475663017
  0
VERTEX
  8
0
 62
9
  6
CONTINUOUS
 10
57.8418428497
 20
150.4244783956
  0
VERTEX
  8
0
 62
9
  6
CONTINUOUS
 10
59.1213878348
 20
134.4770650091
  0
VERTEX
  8
0
 62
9
  6
CONTINUOUS
 10
60.4475912445
 20
118.1909143531
  0
VERTEX
  8
0
 62
9
  6
CONTINUOUS
 10
61.8593621523
 20
100.9840364066
  0
VERTEX
  8
0
 62
9
  6
CONTINUOUS
 10
63.3146880119
 20
83.4983617562
  0
VERTEX
  8
0
 62
9
  6
CONTINUOUS
 10
64.7542042239
 20
66.4085702474
  0
VERTEX
  8
0
 62
9
  6
CONTINUOUS
 10
66.2675065723
 20
49.0218337105
  0
VERTEX
  8
0
 62
9
  6
CONTINUOUS
 10
67.9396140607
 20
30.6401021511
  0
VERTEX
  8
0
 62
9
  6
CONTINUOUS
 10
69.7207517291
 20
11.9158336042
  0
VERTEX
  8
0
 62
9
  6
CONTINUOUS
 10
71.5889298867
 20
-6.6590993793
  0
VERTEX
  8
0
 62
9
  6
CONTINUOUS
 10
73.5516745213
 20
-25.246568745
  0
SEQEND
  0
POLYLINE
  8
0
 62
9
  6
CONTINUOUS
 66
1
 70
0
  0
VERTEX
  8
0
 62
9
  6
CONTINUOUS
 10
55.3468859681
 20
182.4111985954
  0
VERTEX
  8
0
 62
9
  6
CONTINUOUS
 10
55.3403200968
 20
183.4518102839
  0
VERTEX
  8
0
 62
9
  6
CONTINUOUS
 10
55.3314913048
 20
184.4476777668
  0
VERTEX
  8
0
 62
9
  6
CONTINUOUS
 10
55.3208274021
 20
185.3530693184
  0
VERTEX
  8
0
 62
9
  6
CONTINUOUS
 10
55.3084289924
 20
186.1637119329
  0
VERTEX
  8
0
 62
9
  6
CONTINUOUS
 10
55.2943860586
 20
186.8679143695
  0
VERTEX
  8
0
 62
9
  6
CONTINUOUS
 10
55.2790700252
 20
187.4398023566
  0
VERTEX
  8
0
 62
9
  6
CONTINUOUS
 10
55.2627887672
 20
187.8619734787
  0
VERTEX
  8
0
 62
9
  6
CONTINUOUS
 10
55.2462543826
 20
188.1147304931
  0
SEQEND
  0
POLYLINE
  8
0
 62
9
  6
CONTINUOUS
 66
1
 70
0
  0
VERTEX
  8
0
 62
9
  6
CONTINUOUS
 10
-7.4809181326
 20
146.482431325
  0
VERTEX
  8
0
 62
9
  6
CONTINUOUS
 10
-4.7535296466
 20
149.304629199
  0
VERTEX
  8
0
 62
9
  6
CONTINUOUS
 10
-2.25533632
 20
152.1213409022
  0
VERTEX
  8
0
 62
9
  6
CONTINUOUS
 10
-0.0124587758
 20
154.8665367066
  0
VERTEX
  8
0
 62
9
  6
CONTINUOUS
 10
2.0548485914
 20
157.6230670694
  0
VERTEX
  8
0
 62
9
  6
CONTINUOUS
 10
3.9847132373
 20
160.5280270397
  0
VERTEX
  8
0
 62
9
  6
CONTINUOUS
 10
5.8755279002
 20
163.460721753
  0
VERTEX
  8
0
 62
9
  6
CONTINUOUS
 10
7.7844584644
 20
166.345163888
  0
VERTEX
  8
0
 62
9
  6
CONTINUOUS
 10
9.8703062709
 20
169.3609739736
  0
VERTEX
  8
0
 62
9
  6
CONTINUOUS
 10
12.3857601915
 20
172.6692276495
  0
VERTEX
  8
0
 62
9
  6
CONTINUOUS
 10
15.1070100327
 20
176.1536348915
  0
VERTEX
  8
0
 62
9
  6
CONTINUOUS
 10
17.8773396275
 20
179.7177617254
  0
VERTEX
  8
0
 62
9
  6
CONTINUOUS
 10
20.7488156356
 20
183.4054576887
  0
SEQEND
  0
POLYLINE
  8
0
 62
9
  6
CONTINUOUS
 66
1
 70
0
  0
VERTEX
  8
0
 62
9
  6
CONTINUOUS
 10
20.7488156356
 20
183.4054576887
  0
VERTEX
  8
0
 62
9
  6
CONTINUOUS
 10
21.3861680515
 20
183.9571218963
  0
VERTEX
  8
0
 62
9
  6
CONTINUOUS
 10
22.3811102829
 20
184.4857316388
  0
VERTEX
  8
0
 62
9
  6
CONTINUOUS
 10
23.7438915739
 20
184.9930157007
  0
VERTEX
  8
0
 62
9
  6
CONTINUOUS
 10
25.4437379548
 20
185.4751964694
  0
VERTEX
  8
0
 62
9
  6
CONTINUOUS
 10
27.4620037963
 20
185.9302901538
  0
VERTEX
  8
0
 62
9
  6
CONTINUOUS
 10
29.7725794462
 20
186.3533016626
  0
VERTEX
  8
0
 62
9
  6
CONTINUOUS
 10
32.355910209
 20
186.7391666738
  0
VERTEX
  8
0
 62
9
  6
CONTINUOUS
 10
35.1737107612
 20
187.0845736449
  0
VERTEX
  8
0
 62
9
  6
CONTINUOUS
 10
38.1885062333
 20
187.3848717147
  0
VERTEX
  8
0
 62
9
  6
CONTINUOUS
 10
41.3783257749
 20
187.6377993312
  0
VERTEX
  8
0
 62
9
  6
CONTINUOUS
 10
44.7279418503
 20
187.840209372
  0
VERTEX
  8
0
 62
9
  6
CONTINUOUS
 10
48.1796525038
 20
187.9894892372
  0
VERTEX
  8
0
 62
9
  6
CONTINUOUS
 10
51.6628241415
 20
188.082046255
  0
VERTEX
  8
0
 62
9
  6
CONTINUOUS
 10
55.2010165669
 20
188.1176979305
  0
SEQEND
  0
LINE
  8
0
 62
9
  6
CONTINUOUS
 10
374.2388811007
 20
329.882508894
 11
376.1039533187
 21
330.4155122149
  0
LINE
  8
0
 62
7
  6
CONTINUOUS
 10
374.4559883751
 20
330.0172988517
 11
374.413372774
 21
330.0009968237
  0
POLYLINE
  8
0
 62
9
  6
CONTINUOUS
 66
1
 70
0
  0
VERTEX
  8
0
 62
9
  6
CONTINUOUS
 10
8.2787046278
 20
193.7090991449
  0
VERTEX
  8
0
 62
9
  6
CONTINUOUS
 10
8.997046305
 20
193.979962997
  0
VERTEX
  8
0
 62
9
  6
CONTINUOUS
 10
10.0660327394
 20
194.2540209055
  0
VERTEX
  8
0
 62
9
  6
CONTINUOUS
 10
11.4575508347
 20
194.5381782395
  0
VERTEX
  8
0
 62
9
  6
CONTINUOUS
 10
13.1623357064
 20
194.8277051862
  0
VERTEX
  8
0
 62
9
  6
CONTINUOUS
 10
15.1737072871
 20
195.1216413987
  0
VERTEX
  8
0
 62
9
  6
CONTINUOUS
 10
17.4688232484
 20
195.4165379395
  0
VERTEX
  8
0
 62
9
  6
CONTINUOUS
 10
20.0278152123
 20
195.7076901221
  0
VERTEX
  8
0
 62
9
  6
CONTINUOUS
 10
22.8191420973
 20
195.9934140804
  0
VERTEX
  8
0
 62
9
  6
CONTINUOUS
 10
25.8035377497
 20
196.2686074152
  0
VERTEX
  8
0
 62
9
  6
CONTINUOUS
 10
28.9648653734
 20
196.5317577283
  0
VERTEX
  8
0
 62
9
  6
CONTINUOUS
 10
32.287243916
 20
196.7805491005
  0
VERTEX
  8
0
 62
9
  6
CONTINUOUS
 10
35.7274037798
 20
197.0129245845
  0
VERTEX
  8
0
 62
9
  6
CONTINUOUS
 10
39.2511830251
 20
197.2264426431
  0
VERTEX
  8
0
 62
9
  6
CONTINUOUS
 10
42.8016427077
 20
197.4126408239
  0
SEQEND
  0
POLYLINE
  8
0
 62
7
  6
CONTINUOUS
 66
1
 70
0
  0
VERTEX
  8
0
 62
7
  6
CONTINUOUS
 10
374.4608983079
 20
330.018887462
  0
VERTEX
  8
0
 62
7
  6
CONTINUOUS
 10
374.4677146992
 20
330.0211968999
  0
VERTEX
  8
0
 62
7
  6
CONTINUOUS
 10
374.4348930306
 20
330.0114305297
  0
SEQEND
  0
LINE
  8
0
 62
7
  6
CONTINUOUS
 10
377.8585776543
 20
331.088830175
 11
374.4559877129
 21
330.0172986042
  0
POLYLINE
  8
0
 62
9
  6
CONTINUOUS
 66
1
 70
0
  0
VERTEX
  8
0
 62
9
  6
CONTINUOUS
 10
376.1039533187
 20
330.4155122149
  0
VERTEX
  8
0
 62
9
  6
CONTINUOUS
 10
377.8840049537
 20
330.9598123716
  0
VERTEX
  8
0
 62
9
  6
CONTINUOUS
 10
379.5778284589
 20
331.3186162076
  0
VERTEX
  8
0
 62
9
  6
CONTINUOUS
 10
379.9288384468
 20
331.3657578597
  0
SEQEND
  0
POLYLINE
  8
0
 62
9
  6
CONTINUOUS
 66
1
 70
0
  0
VERTEX
  8
0
 62
9
  6
CONTINUOUS
 10
193.3659396456
 20
333.3394804734
  0
VERTEX
  8
0
 62
9
  6
CONTINUOUS
 10
193.3773875909
 20
333.3716433367
  0
VERTEX
  8
0
 62
9
  6
CONTINUOUS
 10
193.5700153337
 20
333.7437922632
  0
VERTEX
  8
0
 62
9
  6
CONTINUOUS
 10
193.7892695765
 20
334.0267968315
  0
SEQEND
  0
POLYLINE
  8
0
 62
7
  6
CONTINUOUS
 66
1
 70
0
  0
VERTEX
  8
0
 62
7
  6
CONTINUOUS
 10
378.7858128485
 20
146.7310720438
  0
VERTEX
  8
0
 62
7
  6
CONTINUOUS
 10
380.0659065735
 20
146.9319788205
  0
VERTEX
  8
0
 62
7
  6
CONTINUOUS
 10
381.2883801445
 20
147.2882329638
  0
VERTEX
  8
0
 62
7
  6
CONTINUOUS
 10
382.4620564896
 20
147.8042903989
  0
VERTEX
  8
0
 62
7
  6
CONTINUOUS
 10
383.5604668245
 20
148.4667833505
  0
VERTEX
  8
0
 62
7
  6
CONTINUOUS
 10
384.5654834249
 20
149.2698061492
  0
VERTEX
  8
0
 62
7
  6
CONTINUOUS
 10
385.4609060383
 20
150.1954284028
  0
VERTEX
  8
0
 62
7
  6
CONTINUOUS
 10
386.2272525266
 20
151.2299368324
  0
VERTEX
  8
0
 62
7
  6
CONTINUOUS
 10
386.8562408218
 20
152.3547744282
  0
VERTEX
  8
0
 62
7
  6
CONTINUOUS
 10
387.3312477954
 20
153.5439220745
  0
VERTEX
  8
0
 62
7
  6
CONTINUOUS
 10
387.6578144902
 20
154.80605281
  0
SEQEND
  0
POLYLINE
  8
0
 62
7
  6
CONTINUOUS
 66
1
 70
0
  0
VERTEX
  8
0
 62
7
  6
CONTINUOUS
 10
376.031721673
 20
146.4822177392
  0
VERTEX
  8
0
 62
7
  6
CONTINUOUS
 10
378.3273754387
 20
146.6900313667
  0
VERTEX
  8
0
 62
7
  6
CONTINUOUS
 10
378.7858128485
 20
146.7310720438
  0
SEQEND
  0
POLYLINE
  8
0
 62
7
  6
CONTINUOUS
 66
1
 70
0
  0
VERTEX
  8
0
 62
7
  6
CONTINUOUS
 10
-10.2350287614
 20
146.7310720438
  0
VERTEX
  8
0
 62
7
  6
CONTINUOUS
 10
-7.940528428
 20
146.52414917
  0
VERTEX
  8
0
 62
7
  6
CONTINUOUS
 10
-7.4809375859
 20
146.4822177392
  0
SEQEND
  0
POLYLINE
  8
0
 62
7
  6
CONTINUOUS
 66
1
 70
0
  0
VERTEX
  8
0
 62
7
  6
CONTINUOUS
 10
-7.4809375859
 20
146.4822177392
  0
VERTEX
  8
0
 62
7
  6
CONTINUOUS
 10
-6.5293645627
 20
146.328026556
  0
VERTEX
  8
0
 62
7
  6
CONTINUOUS
 10
-5.6259910179
 20
146.0531883929
  0
VERTEX
  8
0
 62
7
  6
CONTINUOUS
 10
-4.7634976651
 20
145.6537410455
  0
VERTEX
  8
0
 62
7
  6
CONTINUOUS
 10
-3.9638423631
 20
145.1415711271
  0
VERTEX
  8
0
 62
7
  6
CONTINUOUS
 10
-3.2424650129
 20
144.5221845204
  0
VERTEX
  8
0
 62
7
  6
CONTINUOUS
 10
-2.6116002004
 20
143.8107612129
  0
VERTEX
  8
0
 62
7
  6
CONTINUOUS
 10
-2.0866972391
 20
143.0193693279
  0
VERTEX
  8
0
 62
7
  6
CONTINUOUS
 10
-1.6735518468
 20
142.1628503404
  0
VERTEX
  8
0
 62
7
  6
CONTINUOUS
 10
-1.3844776986
 20
141.2624264563
  0
VERTEX
  8
0
 62
7
  6
CONTINUOUS
 10
-1.2153702362
 20
140.3110236069
  0
SEQEND
  0
LINE
  8
0
 62
9
  6
CONTINUOUS
 10
174.2753921326
 20
332.0914468808
 11
174.2762691946
 21
331.5749293653
  0
LINE
  8
0
 62
9
  6
CONTINUOUS
 10
174.2753962663
 20
332.0887532575
 11
174.2753905603
 21
333.343377792
  0
LINE
  8
0
 62
9
  6
CONTINUOUS
 10
174.2753882207
 20
335.1069701754
 11
174.2753890213
 21
335.0977027992
  0
LINE
  8
0
 62
9
  6
CONTINUOUS
 10
174.2762691946
 20
331.5749293653
 11
174.2762687636
 21
330.8200323199
  0
LINE
  8
0
 62
9
  6
CONTINUOUS
 10
174.2753965595
 20
-31.8815631922
 11
174.274295857
 21
185.7548113277
  0
LINE
  8
0
 62
9
  6
CONTINUOUS
 10
174.274295857
 20
185.7548113277
 11
174.2753966117
 21
326.7729929732
  0
LINE
  8
0
 62
9
  6
CONTINUOUS
 10
174.2753934193
 20
334.288339864
 11
174.2792106197
 21
335.0911246926
  0
LINE
  8
0
 62
9
  6
CONTINUOUS
 10
174.2753931074
 20
326.7729318114
 11
174.284608305
 21
328.205401095
  0
LINE
  8
0
 62
9
  6
CONTINUOUS
 10
174.2753890213
 20
335.0977027992
 11
174.275331647
 21
335.0910900832
  0
LINE
  8
0
 62
9
  6
CONTINUOUS
 10
174.284608305
 20
328.205401095
 11
174.2968184679
 21
329.5567696537
  0
POLYLINE
  8
0
 62
9
  6
CONTINUOUS
 66
1
 70
0
  0
VERTEX
  8
0
 62
9
  6
CONTINUOUS
 10
174.2968184679
 20
329.5567696537
  0
VERTEX
  8
0
 62
9
  6
CONTINUOUS
 10
174.3098945802
 20
330.6065635929
  0
VERTEX
  8
0
 62
9
  6
CONTINUOUS
 10
174.3167295441
 20
331.0121612153
  0
VERTEX
  8
0
 62
9
  6
CONTINUOUS
 10
174.3233842297
 20
331.3032703486
  0
VERTEX
  8
0
 62
9
  6
CONTINUOUS
 10
174.3295569542
 20
331.4599732307
  0
VERTEX
  8
0
 62
9
  6
CONTINUOUS
 10
174.3327121626
 20
331.4839087415
  0
SEQEND
  0
POLYLINE
  8
0
 62
9
  6
CONTINUOUS
 66
1
 70
0
  0
VERTEX
  8
0
 62
9
  6
CONTINUOUS
 10
194.293445501
 20
331.0125869114
  0
VERTEX
  8
0
 62
9
  6
CONTINUOUS
 10
194.2867608817
 20
331.3036835389
  0
VERTEX
  8
0
 62
9
  6
CONTINUOUS
 10
194.2805959735
 20
331.4603605995
  0
VERTEX
  8
0
 62
9
  6
CONTINUOUS
 10
194.2774624056
 20
331.4843204277
  0
SEQEND
  0
LINE
  8
0
 62
9
  6
CONTINUOUS
 10
194.3070532595
 20
330.120577942
 11
194.293445501
 21
331.0125869114
  0
LINE
  8
0
 62
9
  6
CONTINUOUS
 10
194.3201173709
 20
328.9075410354
 11
194.3070532595
 21
330.120577942
  0
LINE
  8
0
 62
9
  6
CONTINUOUS
 10
194.3357178276
 20
326.7701778775
 11
194.3201173709
 21
328.9075410354
  0
LINE
  8
0
 62
9
  6
CONTINUOUS
 10
194.2715734673
 20
335.0911246925
 11
194.2753906678
 21
334.288339864
  0
LINE
  8
0
 62
9
  6
CONTINUOUS
 10
194.2753874754
 20
326.7729929732
 11
194.2771534524
 21
192.2794376688
  0
LINE
  8
0
 62
9
  6
CONTINUOUS
 10
194.2750858039
 20
188.3338712887
 11
194.2754119122
 21
-31.884119965
  0
LINE
  8
0
 62
9
  6
CONTINUOUS
 10
194.2753935268
 20
333.3433778004
 11
194.2742449048
 21
330.8472382235
  0
LINE
  8
0
 62
9
  6
CONTINUOUS
 10
194.2771534524
 20
192.2794376688
 11
194.2752194538
 21
188.3345967844
  0
POLYLINE
  8
0
 62
9
  6
CONTINUOUS
 66
1
 70
0
  0
VERTEX
  8
0
 62
9
  6
CONTINUOUS
 10
347.8019922284
 20
183.394614585
  0
VERTEX
  8
0
 62
9
  6
CONTINUOUS
 10
346.7925176131
 20
183.3035015575
  0
VERTEX
  8
0
 62
9
  6
CONTINUOUS
 10
345.8055031385
 20
183.0678643276
  0
VERTEX
  8
0
 62
9
  6
CONTINUOUS
 10
344.8848434826
 20
182.7041035896
  0
VERTEX
  8
0
 62
9
  6
CONTINUOUS
 10
344.0261175972
 20
182.2172588809
  0
VERTEX
  8
0
 62
9
  6
CONTINUOUS
 10
343.2306377735
 20
181.6050394712
  0
VERTEX
  8
0
 62
9
  6
CONTINUOUS
 10
342.5221094857
 20
180.8783041173
  0
VERTEX
  8
0
 62
9
  6
CONTINUOUS
 10
341.918688395
 20
180.0485091504
  0
VERTEX
  8
0
 62
9
  6
CONTINUOUS
 10
341.4376286313
 20
179.1306264473
  0
VERTEX
  8
0
 62
9
  6
CONTINUOUS
 10
341.0932611837
 20
178.1391526541
  0
VERTEX
  8
0
 62
9
  6
CONTINUOUS
 10
340.9020724113
 20
177.1145462852
  0
SEQEND
  0
POLYLINE
  8
0
 62
9
  6
CONTINUOUS
 66
1
 70
0
  0
VERTEX
  8
0
 62
9
  6
CONTINUOUS
 10
17.9661516634
 20
185.8197901958
  0
VERTEX
  8
0
 62
9
  6
CONTINUOUS
 10
16.6253026425
 20
185.9331071646
  0
VERTEX
  8
0
 62
9
  6
CONTINUOUS
 10
15.3142312688
 20
186.2245976116
  0
VERTEX
  8
0
 62
9
  6
CONTINUOUS
 10
14.0841167267
 20
186.6744247439
  0
VERTEX
  8
0
 62
9
  6
CONTINUOUS
 10
12.9263223173
 20
187.2768955521
  0
VERTEX
  8
0
 62
9
  6
CONTINUOUS
 10
11.838719839
 20
188.0360077844
  0
VERTEX
  8
0
 62
9
  6
CONTINUOUS
 10
10.84978
 20
188.9396311234
  0
VERTEX
  8
0
 62
9
  6
CONTINUOUS
 10
9.9808656124
 20
189.9749476242
  0
VERTEX
  8
0
 62
9
  6
CONTINUOUS
 10
9.2504623104
 20
191.1283517238
  0
VERTEX
  8
0
 62
9
  6
CONTINUOUS
 10
8.6749777088
 20
192.3875814147
  0
VERTEX
  8
0
 62
9
  6
CONTINUOUS
 10
8.2786583615
 20
193.7090636402
  0
SEQEND
  0
POLYLINE
  8
0
 62
9
  6
CONTINUOUS
 66
1
 70
0
  0
VERTEX
  8
0
 62
9
  6
CONTINUOUS
 10
194.2751231029
 20
187.0000289781
  0
VERTEX
  8
0
 62
9
  6
CONTINUOUS
 10
213.8512533361
 20
187.3820742452
  0
VERTEX
  8
0
 62
9
  6
CONTINUOUS
 10
233.5318755037
 20
187.6844224383
  0
VERTEX
  8
0
 62
9
  6
CONTINUOUS
 10
253.3137214042
 20
187.9076273254
  0
VERTEX
  8
0
 62
9
  6
CONTINUOUS
 10
273.2099841065
 20
188.0534706632
  0
VERTEX
  8
0
 62
9
  6
CONTINUOUS
 10
293.2332777262
 20
188.1230446107
  0
VERTEX
  8
0
 62
9
  6
CONTINUOUS
 10
313.3779852765
 20
188.1171902147
  0
SEQEND
  0
POLYLINE
  8
0
 62
9
  6
CONTINUOUS
 66
1
 70
0
  0
VERTEX
  8
0
 62
9
  6
CONTINUOUS
 10
43.0488447803
 20
189.2662344449
  0
VERTEX
  8
0
 62
9
  6
CONTINUOUS
 10
39.9931944744
 20
189.2156021057
  0
VERTEX
  8
0
 62
9
  6
CONTINUOUS
 10
37.0387974712
 20
189.1135703948
  0
VERTEX
  8
0
 62
9
  6
CONTINUOUS
 10
34.1694943453
 20
188.9601040452
  0
VERTEX
  8
0
 62
9
  6
CONTINUOUS
 10
31.4337098764
 20
188.7588026638
  0
VERTEX
  8
0
 62
9
  6
CONTINUOUS
 10
28.8639054834
 20
188.5116173252
  0
VERTEX
  8
0
 62
9
  6
CONTINUOUS
 10
26.4918093392
 20
188.2231908055
  0
VERTEX
  8
0
 62
9
  6
CONTINUOUS
 10
24.3528048359
 20
187.8972000641
  0
VERTEX
  8
0
 62
9
  6
CONTINUOUS
 10
22.4683978164
 20
187.537616174
  0
VERTEX
  8
0
 62
9
  6
CONTINUOUS
 10
20.8642108367
 20
187.1479940744
  0
VERTEX
  8
0
 62
9
  6
CONTINUOUS
 10
19.563296846
 20
186.7320803648
  0
VERTEX
  8
0
 62
9
  6
CONTINUOUS
 10
18.6012070664
 20
186.2950428874
  0
VERTEX
  8
0
 62
9
  6
CONTINUOUS
 10
17.9660954619
 20
185.8348648969
  0
SEQEND
  0
POLYLINE
  8
0
 62
9
  6
CONTINUOUS
 66
1
 70
0
  0
VERTEX
  8
0
 62
9
  6
CONTINUOUS
 10
55.2010165669
 20
188.1176979305
  0
VERTEX
  8
0
 62
9
  6
CONTINUOUS
 10
75.3280784274
 20
188.1235042696
  0
VERTEX
  8
0
 62
9
  6
CONTINUOUS
 10
95.3407898738
 20
188.0539572442
  0
VERTEX
  8
0
 62
9
  6
CONTINUOUS
 10
115.2353026229
 20
187.9081376957
  0
VERTEX
  8
0
 62
9
  6
CONTINUOUS
 10
135.0189245893
 20
187.684928465
  0
VERTEX
  8
0
 62
9
  6
CONTINUOUS
 10
154.6995440754
 20
187.3825898613
  0
VERTEX
  8
0
 62
9
  6
CONTINUOUS
 10
174.2756610225
 20
187.000554368
  0
SEQEND
  0
LINE
  8
0
 62
9
  6
CONTINUOUS
 10
194.2750860171
 20
187.0005080527
 11
184.2768016557
 21
186.9995483484
  0
LINE
  8
0
 62
9
  6
CONTINUOUS
 10
174.2752494865
 20
181.3666061988
 11
194.2753892567
 21
181.3666061413
  0
LINE
  8
0
 62
9
  6
CONTINUOUS
 10
184.2768016557
 20
186.9995483484
 11
174.2756984307
 21
187.0019782015
  0
LINE
  8
0
 62
9
  6
CONTINUOUS
 10
174.2756982175
 20
188.3353414375
 11
194.2750858039
 21
188.3338712887
  0
POLYLINE
  8
0
 62
9
  6
CONTINUOUS
 66
1
 70
0
  0
VERTEX
  8
0
 62
9
  6
CONTINUOUS
 10
55.3468218309
 20
182.4111930947
  0
VERTEX
  8
0
 62
9
  6
CONTINUOUS
 10
52.5358660782
 20
182.4156457441
  0
VERTEX
  8
0
 62
9
  6
CONTINUOUS
 10
49.7248804786
 20
182.3494045194
  0
VERTEX
  8
0
 62
9
  6
CONTINUOUS
 10
46.9592642104
 20
182.2150986111
  0
VERTEX
  8
0
 62
9
  6
CONTINUOUS
 10
44.2727560262
 20
182.0157659918
  0
VERTEX
  8
0
 62
9
  6
CONTINUOUS
 10
41.7072763451
 20
181.7515870312
  0
VERTEX
  8
0
 62
9
  6
CONTINUOUS
 10
39.2784065699
 20
181.4267460577
  0
VERTEX
  8
0
 62
9
  6
CONTINUOUS
 10
37.0048301282
 20
181.0432793318
  0
VERTEX
  8
0
 62
9
  6
CONTINUOUS
 10
34.9196896045
 20
180.6069732157
  0
VERTEX
  8
0
 62
9
  6
CONTINUOUS
 10
33.0526147667
 20
180.1203897641
  0
VERTEX
  8
0
 62
9
  6
CONTINUOUS
 10
31.4224266043
 20
179.5902088698
  0
VERTEX
  8
0
 62
9
  6
CONTINUOUS
 10
30.052875868
 20
179.0221636199
  0
VERTEX
  8
0
 62
9
  6
CONTINUOUS
 10
28.9545161163
 20
178.4184970993
  0
VERTEX
  8
0
 62
9
  6
CONTINUOUS
 10
28.1422956675
 20
177.7864841693
  0
VERTEX
  8
0
 62
9
  6
CONTINUOUS
 10
27.6484268103
 20
177.1145102881
  0
SEQEND
  0
POLYLINE
  8
0
 62
9
  6
CONTINUOUS
 66
1
 70
0
  0
VERTEX
  8
0
 62
9
  6
CONTINUOUS
 10
313.2032063418
 20
182.4023486721
  0
VERTEX
  8
0
 62
9
  6
CONTINUOUS
 10
294.1810697669
 20
182.450691322
  0
VERTEX
  8
0
 62
9
  6
CONTINUOUS
 10
274.838884474
 20
182.4122645028
  0
VERTEX
  8
0
 62
9
  6
CONTINUOUS
 10
255.1762822112
 20
182.2883672174
  0
VERTEX
  8
0
 62
9
  6
CONTINUOUS
 10
235.1943296976
 20
182.0754452392
  0
VERTEX
  8
0
 62
9
  6
CONTINUOUS
 10
214.8941286303
 20
181.7696262101
  0
VERTEX
  8
0
 62
9
  6
CONTINUOUS
 10
194.2753866241
 20
181.3715124788
  0
SEQEND
  0
POLYLINE
  8
0
 62
9
  6
CONTINUOUS
 66
1
 70
0
  0
VERTEX
  8
0
 62
9
  6
CONTINUOUS
 10
325.5019393068
 20
189.2662344449
  0
VERTEX
  8
0
 62
9
  6
CONTINUOUS
 10
305.0841992157
 20
189.3523384145
  0
VERTEX
  8
0
 62
9
  6
CONTINUOUS
 10
284.0840779335
 20
189.3456366807
  0
VERTEX
  8
0
 62
9
  6
CONTINUOUS
 10
262.5031845819
 20
189.2287920226
  0
VERTEX
  8
0
 62
9
  6
CONTINUOUS
 10
240.341165357
 20
189.0164280508
  0
VERTEX
  8
0
 62
9
  6
CONTINUOUS
 10
217.5984325562
 20
188.7234953882
  0
VERTEX
  8
0
 62
9
  6
CONTINUOUS
 10
194.275050752
 20
188.3345906234
  0
SEQEND
  0
POLYLINE
  8
0
 62
9
  6
CONTINUOUS
 66
1
 70
0
  0
VERTEX
  8
0
 62
9
  6
CONTINUOUS
 10
313.3779852765
 20
188.1171902147
  0
VERTEX
  8
0
 62
9
  6
CONTINUOUS
 10
316.9062712122
 20
188.0816565628
  0
VERTEX
  8
0
 62
9
  6
CONTINUOUS
 10
320.3841376759
 20
187.9890374698
  0
VERTEX
  8
0
 62
9
  6
CONTINUOUS
 10
323.8367004089
 20
187.8394419193
  0
VERTEX
  8
0
 62
9
  6
CONTINUOUS
 10
327.1886580147
 20
187.6366710216
  0
VERTEX
  8
0
 62
9
  6
CONTINUOUS
 10
330.3773944833
 20
187.3835332324
  0
VERTEX
  8
0
 62
9
  6
CONTINUOUS
 10
333.3899769148
 20
187.0831436182
  0
VERTEX
  8
0
 62
9
  6
CONTINUOUS
 10
336.2049507354
 20
186.7378118262
  0
VERTEX
  8
0
 62
9
  6
CONTINUOUS
 10
338.785261951
 20
186.3521349649
  0
VERTEX
  8
0
 62
9
  6
CONTINUOUS
 10
341.0931910203
 20
185.929409805
  0
VERTEX
  8
0
 62
9
  6
CONTINUOUS
 10
343.1092648638
 20
185.4746374678
  0
VERTEX
  8
0
 62
9
  6
CONTINUOUS
 10
344.8077047029
 20
184.9927724505
  0
VERTEX
  8
0
 62
9
  6
CONTINUOUS
 10
346.1696830948
 20
184.4857275711
  0
VERTEX
  8
0
 62
9
  6
CONTINUOUS
 10
347.1643456379
 20
183.9571871272
  0
VERTEX
  8
0
 62
9
  6
CONTINUOUS
 10
347.8019684515
 20
183.4054576887
  0
SEQEND
  0
POLYLINE
  8
0
 62
9
  6
CONTINUOUS
 66
1
 70
0
  0
VERTEX
  8
0
 62
9
  6
CONTINUOUS
 10
174.2757333351
 20
188.3345906234
  0
VERTEX
  8
0
 62
9
  6
CONTINUOUS
 10
150.9523581766
 20
188.723495287
  0
VERTEX
  8
0
 62
9
  6
CONTINUOUS
 10
128.2096293652
 20
189.0164279321
  0
VERTEX
  8
0
 62
9
  6
CONTINUOUS
 10
106.0476114706
 20
189.2287919373
  0
VERTEX
  8
0
 62
9
  6
CONTINUOUS
 10
84.4667167893
 20
189.3456366457
  0
VERTEX
  8
0
 62
9
  6
CONTINUOUS
 10
63.4665915185
 20
189.3523384158
  0
VERTEX
  8
0
 62
9
  6
CONTINUOUS
 10
43.0488447803
 20
189.2662344449
  0
SEQEND
  0
POLYLINE
  8
0
 62
9
  6
CONTINUOUS
 66
1
 70
0
  0
VERTEX
  8
0
 62
9
  6
CONTINUOUS
 10
174.275397438
 20
181.3717510411
  0
VERTEX
  8
0
 62
9
  6
CONTINUOUS
 10
153.6566490894
 20
181.769863544
  0
VERTEX
  8
0
 62
9
  6
CONTINUOUS
 10
133.356443733
 20
182.0756822591
  0
VERTEX
  8
0
 62
9
  6
CONTINUOUS
 10
113.3744896955
 20
182.2886050428
  0
VERTEX
  8
0
 62
9
  6
CONTINUOUS
 10
93.7118865318
 20
182.4125035736
  0
VERTEX
  8
0
 62
9
  6
CONTINUOUS
 10
74.3696988184
 20
182.4509313938
  0
VERTEX
  8
0
 62
9
  6
CONTINUOUS
 10
55.3475590146
 20
182.4025897031
  0
SEQEND
  0
POLYLINE
  8
0
 62
9
  6
CONTINUOUS
 66
1
 70
0
  0
VERTEX
  8
0
 62
9
  6
CONTINUOUS
 10
194.2753919497
 20
196.4572479804
  0
VERTEX
  8
0
 62
9
  6
CONTINUOUS
 10
217.6585424067
 20
196.839068197
  0
VERTEX
  8
0
 62
9
  6
CONTINUOUS
 10
240.4533692829
 20
197.1348738983
  0
VERTEX
  8
0
 62
9
  6
CONTINUOUS
 10
262.6598708808
 20
197.3582886802
  0
VERTEX
  8
0
 62
9
  6
CONTINUOUS
 10
284.2780445604
 20
197.4819475386
  0
VERTEX
  8
0
 62
9
  6
CONTINUOUS
 10
305.3078813255
 20
197.4897408535
  0
VERTEX
  8
0
 62
9
  6
CONTINUOUS
 10
325.7493695193
 20
197.412957446
  0
SEQEND
  0
POLYLINE
  8
0
 62
9
  6
CONTINUOUS
 66
1
 70
0
  0
VERTEX
  8
0
 62
9
  6
CONTINUOUS
 10
42.8014145678
 20
197.4129574451
  0
VERTEX
  8
0
 62
9
  6
CONTINUOUS
 10
63.2428967037
 20
197.4897408768
  0
VERTEX
  8
0
 62
9
  6
CONTINUOUS
 10
84.2727298343
 20
197.4819475746
  0
VERTEX
  8
0
 62
9
  6
CONTINUOUS
 10
105.8909023026
 20
197.3582887575
  0
VERTEX
  8
0
 62
9
  6
CONTINUOUS
 10
128.0974051123
 20
197.1348740068
  0
VERTEX
  8
0
 62
9
  6
CONTINUOUS
 10
150.892235623
 20
196.8390682777
  0
VERTEX
  8
0
 62
9
  6
CONTINUOUS
 10
174.2753921374
 20
196.4572479804
  0
SEQEND
  0
LINE
  8
0
 62
9
  6
CONTINUOUS
 10
194.2752481717
 20
196.4554866846
 11
174.2753922214
 21
196.4554866466
  0
POLYLINE
  8
0
 62
9
  6
CONTINUOUS
 66
1
 70
0
  0
VERTEX
  8
0
 62
9
  6
CONTINUOUS
 10
325.7491413868
 20
197.4126408444
  0
VERTEX
  8
0
 62
9
  6
CONTINUOUS
 10
329.3156412695
 20
197.2253876508
  0
VERTEX
  8
0
 62
9
  6
CONTINUOUS
 10
332.8509371294
 20
197.0111660775
  0
VERTEX
  8
0
 62
9
  6
CONTINUOUS
 10
336.2969784612
 20
196.778186481
  0
VERTEX
  8
0
 62
9
  6
CONTINUOUS
 10
339.6207657407
 20
196.5290029755
  0
VERTEX
  8
0
 62
9
  6
CONTINUOUS
 10
342.7801611989
 20
196.2657517256
  0
VERTEX
  8
0
 62
9
  6
CONTINUOUS
 10
345.7601375729
 20
195.9906463653
  0
VERTEX
  8
0
 62
9
  6
CONTINUOUS
 10
348.5456504853
 20
195.7052737444
  0
VERTEX
  8
0
 62
9
  6
CONTINUOUS
 10
351.0983873464
 20
195.4145549584
  0
VERTEX
  8
0
 62
9
  6
CONTINUOUS
 10
353.3877286778
 20
195.1202106223
  0
VERTEX
  8
0
 62
9
  6
CONTINUOUS
 10
355.3943293855
 20
194.8267835454
  0
VERTEX
  8
0
 62
9
  6
CONTINUOUS
 10
357.0956743248
 20
194.5377391778
  0
VERTEX
  8
0
 62
9
  6
CONTINUOUS
 10
358.4852465166
 20
194.253907758
  0
VERTEX
  8
0
 62
9
  6
CONTINUOUS
 10
359.5536614585
 20
193.9799298946
  0
VERTEX
  8
0
 62
9
  6
CONTINUOUS
 10
360.2720794595
 20
193.7090991456
  0
SEQEND
  0
POLYLINE
  8
0
 62
9
  6
CONTINUOUS
 66
1
 70
0
  0
VERTEX
  8
0
 62
9
  6
CONTINUOUS
 10
175.1868728695
 20
333.339472907
  0
VERTEX
  8
0
 62
9
  6
CONTINUOUS
 10
175.1864761567
 20
333.3406152613
  0
VERTEX
  8
0
 62
9
  6
CONTINUOUS
 10
174.9950965988
 20
333.7205300946
  0
VERTEX
  8
0
 62
9
  6
CONTINUOUS
 10
174.7733979078
 20
334.0143893851
  0
SEQEND
  0
POLYLINE
  8
0
 62
9
  6
CONTINUOUS
 66
1
 70
0
  0
VERTEX
  8
0
 62
9
  6
CONTINUOUS
 10
-6.5829278557
 20
330.1835543865
  0
VERTEX
  8
0
 62
9
  6
CONTINUOUS
 10
-8.140089835
 20
330.7730149581
  0
VERTEX
  8
0
 62
9
  6
CONTINUOUS
 10
-9.6687634434
 20
331.1535779951
  0
VERTEX
  8
0
 62
9
  6
CONTINUOUS
 10
-10.0423175207
 20
331.2041438975
  0
SEQEND
  0
LINE
  8
0
 62
7
  6
CONTINUOUS
 10
-5.9071694523
 20
330.0183072215
 11
-5.8438783863
 21
329.9936006869
  0
LINE
  8
0
 62
7
  6
CONTINUOUS
 10
-5.8583493665
 20
329.999537314
 11
-5.8438792395
 21
329.9936010275
  0
LINE
  8
0
 62
9
  6
CONTINUOUS
 10
375.1337119428
 20
330.1835543865
 11
374.5336402817
 21
330.014205171
  0
LINE
  8
0
 62
9
  6
CONTINUOUS
 10
-5.9776937518
 20
330.0132496142
 11
-6.5829278557
 21
330.1835543865
  0
LINE
  8
0
 62
9
  6
CONTINUOUS
 10
-7.5528222606
 20
330.415402836
 11
-5.6880970136
 21
329.882508894
  0
LINE
  8
0
 62
7
  6
CONTINUOUS
 10
-5.9074363501
 20
330.0181320504
 11
-9.2996387552
 21
331.0876185483
  0
POLYLINE
  8
0
 62
9
  6
CONTINUOUS
 66
1
 70
0
  0
VERTEX
  8
0
 62
9
  6
CONTINUOUS
 10
-10.0774462191
 20
325.3658347269
  0
VERTEX
  8
0
 62
9
  6
CONTINUOUS
 10
-11.5083842067
 20
325.8227594685
  0
VERTEX
  8
0
 62
9
  6
CONTINUOUS
 10
-12.8800701022
 20
326.2262177769
  0
VERTEX
  8
0
 62
9
  6
CONTINUOUS
 10
-14.1925173923
 20
326.589117885
  0
VERTEX
  8
0
 62
9
  6
CONTINUOUS
 10
-15.4391404472
 20
326.8736346208
  0
VERTEX
  8
0
 62
9
  6
CONTINUOUS
 10
-16.6116957726
 20
327.0203769138
  0
VERTEX
  8
0
 62
9
  6
CONTINUOUS
 10
-17.7186648025
 20
327.1064853166
  0
VERTEX
  8
0
 62
9
  6
CONTINUOUS
 10
-18.7796599109
 20
327.1933430591
  0
VERTEX
  8
0
 62
9
  6
CONTINUOUS
 10
-19.7683678252
 20
327.2667798815
  0
VERTEX
  8
0
 62
9
  6
CONTINUOUS
 10
-20.6585311443
 20
327.3467268563
  0
VERTEX
  8
0
 62
9
  6
CONTINUOUS
 10
-21.4911388905
 20
327.3894124123
  0
VERTEX
  8
0
 62
9
  6
CONTINUOUS
 10
-22.2958830492
 20
327.343914531
  0
VERTEX
  8
0
 62
9
  6
CONTINUOUS
 10
-23.0768077829
 20
327.2520990452
  0
VERTEX
  8
0
 62
9
  6
CONTINUOUS
 10
-23.8435929158
 20
327.1247625528
  0
VERTEX
  8
0
 62
9
  6
CONTINUOUS
 10
-24.6080654234
 20
327.0043137542
  0
VERTEX
  8
0
 62
9
  6
CONTINUOUS
 10
-25.3900313626
 20
326.9610289301
  0
VERTEX
  8
0
 62
9
  6
CONTINUOUS
 10
-26.1648280385
 20
326.923477541
  0
VERTEX
  8
0
 62
9
  6
CONTINUOUS
 10
-26.8976768777
 20
326.8128599903
  0
VERTEX
  8
0
 62
9
  6
CONTINUOUS
 10
-27.6306208318
 20
326.7226373417
  0
VERTEX
  8
0
 62
9
  6
CONTINUOUS
 10
-28.3963637472
 20
326.7152582283
  0
VERTEX
  8
0
 62
9
  6
CONTINUOUS
 10
-29.1877868701
 20
326.8050084882
  0
VERTEX
  8
0
 62
9
  6
CONTINUOUS
 10
-30.0084334278
 20
327.0490441862
  0
VERTEX
  8
0
 62
9
  6
CONTINUOUS
 10
-30.8532577422
 20
327.381967996
  0
VERTEX
  8
0
 62
9
  6
CONTINUOUS
 10
-31.7297650632
 20
327.7779127406
  0
VERTEX
  8
0
 62
9
  6
CONTINUOUS
 10
-32.6028873
 20
328.175567949
  0
VERTEX
  8
0
 62
9
  6
CONTINUOUS
 10
-33.4226938459
 20
328.5007522272
  0
VERTEX
  8
0
 62
9
  6
CONTINUOUS
 10
-34.2256486726
 20
328.7682816183
  0
VERTEX
  8
0
 62
9
  6
CONTINUOUS
 10
-35.0369944144
 20
328.9590737999
  0
VERTEX
  8
0
 62
9
  6
CONTINUOUS
 10
-35.8456279811
 20
329.0999583831
  0
VERTEX
  8
0
 62
9
  6
CONTINUOUS
 10
-36.6494475439
 20
329.2019759547
  0
VERTEX
  8
0
 62
9
  6
CONTINUOUS
 10
-37.4495495017
 20
329.2930306156
  0
VERTEX
  8
0
 62
9
  6
CONTINUOUS
 10
-38.258465084
 20
329.4080142353
  0
VERTEX
  8
0
 62
9
  6
CONTINUOUS
 10
-39.044723738
 20
329.5363527044
  0
VERTEX
  8
0
 62
9
  6
CONTINUOUS
 10
-39.7696593718
 20
329.6859787347
  0
VERTEX
  8
0
 62
9
  6
CONTINUOUS
 10
-40.4705146689
 20
329.8358482322
  0
VERTEX
  8
0
 62
9
  6
CONTINUOUS
 10
-41.1756642403
 20
329.9774034493
  0
VERTEX
  8
0
 62
9
  6
CONTINUOUS
 10
-41.8726940825
 20
330.0811662
  0
VERTEX
  8
0
 62
9
  6
CONTINUOUS
 10
-42.558843028
 20
330.1181039858
  0
VERTEX
  8
0
 62
9
  6
CONTINUOUS
 10
-43.2334213157
 20
330.0783357309
  0
VERTEX
  8
0
 62
9
  6
CONTINUOUS
 10
-43.8942656908
 20
329.9399041971
  0
VERTEX
  8
0
 62
9
  6
CONTINUOUS
 10
-44.5425403901
 20
329.710069002
  0
SEQEND
  0
POLYLINE
  8
0
 62
9
  6
CONTINUOUS
 66
1
 70
0
  0
VERTEX
  8
0
 62
9
  6
CONTINUOUS
 10
313.3045297045
 20
188.1147304931
  0
VERTEX
  8
0
 62
9
  6
CONTINUOUS
 10
313.2884332574
 20
187.8709018497
  0
VERTEX
  8
0
 62
9
  6
CONTINUOUS
 10
313.2725403894
 20
187.4656110675
  0
VERTEX
  8
0
 62
9
  6
CONTINUOUS
 10
313.2575852198
 20
186.9189814688
  0
VERTEX
  8
0
 62
9
  6
CONTINUOUS
 10
313.2436479805
 20
186.2369892716
  0
VERTEX
  8
0
 62
9
  6
CONTINUOUS
 10
313.2309126282
 20
185.4234694058
  0
VERTEX
  8
0
 62
9
  6
CONTINUOUS
 10
313.2198193476
 20
184.4985474346
  0
VERTEX
  8
0
 62
9
  6
CONTINUOUS
 10
313.2106753417
 20
183.479681887
  0
VERTEX
  8
0
 62
9
  6
CONTINUOUS
 10
313.203898119
 20
182.4111985953
  0
SEQEND
  0
POLYLINE
  8
0
 62
9
  6
CONTINUOUS
 66
1
 70
0
  0
VERTEX
  8
0
 62
9
  6
CONTINUOUS
 10
296.9721476001
 20
-6.5587285558
  0
VERTEX
  8
0
 62
9
  6
CONTINUOUS
 10
298.8499131044
 20
12.1174071369
  0
VERTEX
  8
0
 62
9
  6
CONTINUOUS
 10
300.6403984963
 20
30.9566190026
  0
VERTEX
  8
0
 62
9
  6
CONTINUOUS
 10
302.3191428369
 20
49.4283840708
  0
VERTEX
  8
0
 62
9
  6
CONTINUOUS
 10
303.8327555829
 20
66.8295908464
  0
VERTEX
  8
0
 62
9
  6
CONTINUOUS
 10
305.2704208675
 20
83.9080230429
  0
VERTEX
  8
0
 62
9
  6
CONTINUOUS
 10
306.7261458293
 20
101.4051598735
  0
VERTEX
  8
0
 62
9
  6
CONTINUOUS
 10
308.1363784625
 20
118.5973912834
  0
VERTEX
  8
0
 62
9
  6
CONTINUOUS
 10
309.4549622468
 20
134.7933779261
  0
VERTEX
  8
0
 62
9
  6
CONTINUOUS
 10
310.7250186861
 20
150.6258195246
  0
VERTEX
  8
0
 62
9
  6
CONTINUOUS
 10
311.9777004829
 20
166.5476346695
  0
VERTEX
  8
0
 62
9
  6
CONTINUOUS
 10
313.2032063418
 20
182.4023486721
  0
SEQEND
  0
LINE
  8
0
 62
9
  6
CONTINUOUS
 10
294.5259146925
 20
-29.6692974614
 11
296.9721476001
 21
-6.5587285558
  0
LINE
  8
0
 62
9
  6
CONTINUOUS
 10
294.2886458593
 20
-31.8815752682
 11
294.5259146925
 21
-29.6692974614
  0
LINE
  8
0
 62
9
  6
CONTINUOUS
 10
343.1974545937
 20
324.6240281056
 11
343.21691259
 21
324.8036977722
  0
POLYLINE
  8
0
 62
9
  6
CONTINUOUS
 66
1
 70
0
  0
VERTEX
  8
0
 62
9
  6
CONTINUOUS
 10
325.7493695193
 20
197.412957446
  0
VERTEX
  8
0
 62
9
  6
CONTINUOUS
 10
328.9896535967
 20
216.8156988557
  0
VERTEX
  8
0
 62
9
  6
CONTINUOUS
 10
332.0847933869
 20
236.9633528407
  0
VERTEX
  8
0
 62
9
  6
CONTINUOUS
 10
335.0233322168
 20
257.8495939953
  0
VERTEX
  8
0
 62
9
  6
CONTINUOUS
 10
337.8396629947
 20
279.4465666531
  0
VERTEX
  8
0
 62
9
  6
CONTINUOUS
 10
340.5681853841
 20
301.7131475027
  0
VERTEX
  8
0
 62
9
  6
CONTINUOUS
 10
343.1974545926
 20
324.624030095
  0
SEQEND
  0
POLYLINE
  8
0
 62
7
  6
CONTINUOUS
 66
1
 70
0
  0
VERTEX
  8
0
 62
7
  6
CONTINUOUS
 10
374.4348930306
 20
330.0114305297
  0
VERTEX
  8
0
 62
7
  6
CONTINUOUS
 10
374.3201250389
 20
329.9812880568
  0
VERTEX
  8
0
 62
7
  6
CONTINUOUS
 10
374.1505973934
 20
329.9417769602
  0
SEQEND
  0
POLYLINE
  8
0
 62
9
  6
CONTINUOUS
 66
1
 70
0
  0
VERTEX
  8
0
 62
9
  6
CONTINUOUS
 10
378.6284586023
 20
325.365786033
  0
VERTEX
  8
0
 62
9
  6
CONTINUOUS
 10
377.906232209
 20
325.1852040032
  0
VERTEX
  8
0
 62
9
  6
CONTINUOUS
 10
376.8244294229
 20
325.0033480662
  0
VERTEX
  8
0
 62
9
  6
CONTINUOUS
 10
375.4013084904
 20
324.829377301
  0
VERTEX
  8
0
 62
9
  6
CONTINUOUS
 10
373.6475451917
 20
324.6726875052
  0
VERTEX
  8
0
 62
9
  6
CONTINUOUS
 10
371.5770961365
 20
324.5426502181
  0
VERTEX
  8
0
 62
9
  6
CONTINUOUS
 10
369.2098816225
 20
324.4445097564
  0
VERTEX
  8
0
 62
9
  6
CONTINUOUS
 10
366.5635199451
 20
324.3851837555
  0
VERTEX
  8
0
 62
9
  6
CONTINUOUS
 10
363.6754688215
 20
324.3646328329
  0
VERTEX
  8
0
 62
9
  6
CONTINUOUS
 10
360.5927207171
 20
324.3844545225
  0
VERTEX
  8
0
 62
9
  6
CONTINUOUS
 10
357.3345572761
 20
324.4362109191
  0
VERTEX
  8
0
 62
9
  6
CONTINUOUS
 10
353.9215621985
 20
324.5150369885
  0
VERTEX
  8
0
 62
9
  6
CONTINUOUS
 10
350.4016440783
 20
324.6102946248
  0
VERTEX
  8
0
 62
9
  6
CONTINUOUS
 10
343.2169127406
 20
324.803961422
  0
SEQEND
  0
POLYLINE
  8
0
 62
9
  6
CONTINUOUS
 66
1
 70
0
  0
VERTEX
  8
0
 62
9
  6
CONTINUOUS
 10
375.1344961342
 20
330.1830972043
  0
VERTEX
  8
0
 62
9
  6
CONTINUOUS
 10
374.586012242
 20
330.0624842907
  0
VERTEX
  8
0
 62
9
  6
CONTINUOUS
 10
374.4559883751
 20
330.0172988517
  0
SEQEND
  0
LINE
  8
0
 62
7
  6
CONTINUOUS
 10
374.1505973934
 20
329.9417769602
 11
373.9230151738
 21
329.8940047248
  0
POLYLINE
  8
0
 62
9
  6
CONTINUOUS
 66
1
 70
0
  0
VERTEX
  8
0
 62
9
  6
CONTINUOUS
 10
374.5336402817
 20
330.014205171
  0
VERTEX
  8
0
 62
9
  6
CONTINUOUS
 10
373.5420896539
 20
329.8196942286
  0
VERTEX
  8
0
 62
9
  6
CONTINUOUS
 10
372.1485885746
 20
329.6125465526
  0
SEQEND
  0
LINE
  8
0
 62
9
  6
CONTINUOUS
 10
-4.9883351918
 20
329.8191472864
 11
-5.9776937518
 21
330.0132496142
  0
POLYLINE
  8
0
 62
9
  6
CONTINUOUS
 66
1
 70
0
  0
VERTEX
  8
0
 62
9
  6
CONTINUOUS
 10
-6.5837093578
 20
330.1830968754
  0
VERTEX
  8
0
 62
9
  6
CONTINUOUS
 10
-6.0352271419
 20
330.0624839648
  0
VERTEX
  8
0
 62
9
  6
CONTINUOUS
 10
-5.9074363501
 20
330.0181320504
  0
SEQEND
  0
LINE
  8
0
 62
7
  6
CONTINUOUS
 10
-5.5959649647
 20
329.9411666124
 11
-5.6979901412
 21
329.9643835418
  0
POLYLINE
  8
0
 62
7
  6
CONTINUOUS
 66
1
 70
0
  0
VERTEX
  8
0
 62
7
  6
CONTINUOUS
 10
-5.6979901412
 20
329.9643835418
  0
VERTEX
  8
0
 62
7
  6
CONTINUOUS
 10
-5.8065848111
 20
329.9908808104
  0
VERTEX
  8
0
 62
7
  6
CONTINUOUS
 10
-5.9071694523
 20
330.0183072215
  0
SEQEND
  0
POLYLINE
  8
0
 62
9
  6
CONTINUOUS
 66
1
 70
0
  0
VERTEX
  8
0
 62
9
  6
CONTINUOUS
 10
350.5846886252
 20
185.8348648969
  0
VERTEX
  8
0
 62
9
  6
CONTINUOUS
 10
349.9496335037
 20
186.2950825155
  0
VERTEX
  8
0
 62
9
  6
CONTINUOUS
 10
348.9870645753
 20
186.7322390062
  0
VERTEX
  8
0
 62
9
  6
CONTINUOUS
 10
347.6851075492
 20
187.1483825105
  0
VERTEX
  8
0
 62
9
  6
CONTINUOUS
 10
346.079398524
 20
187.5382584591
  0
VERTEX
  8
0
 62
9
  6
CONTINUOUS
 10
344.1929119182
 20
187.8980489089
  0
VERTEX
  8
0
 62
9
  6
CONTINUOUS
 10
342.0517321002
 20
188.2241753596
  0
VERTEX
  8
0
 62
9
  6
CONTINUOUS
 10
339.6776281482
 20
188.512608353
  0
VERTEX
  8
0
 62
9
  6
CONTINUOUS
 10
337.1065005589
 20
188.7596966599
  0
VERTEX
  8
0
 62
9
  6
CONTINUOUS
 10
334.3705344914
 20
188.9607776262
  0
VERTEX
  8
0
 62
9
  6
CONTINUOUS
 10
331.5026350543
 20
189.1139815776
  0
VERTEX
  8
0
 62
9
  6
CONTINUOUS
 10
328.5518976165
 20
189.2157971743
  0
VERTEX
  8
0
 62
9
  6
CONTINUOUS
 10
325.5019393068
 20
189.2662344449
  0
SEQEND
  0
LINE
  8
0
 62
9
  6
CONTINUOUS
 10
174.7733979078
 20
334.0143893851
 11
174.527879436
 21
334.2070547661
  0
POLYLINE
  8
0
 62
9
  6
CONTINUOUS
 66
1
 70
0
  0
VERTEX
  8
0
 62
9
  6
CONTINUOUS
 10
369.7661475895
 20
140.3110243213
  0
VERTEX
  8
0
 62
9
  6
CONTINUOUS
 10
367.0049830518
 20
143.1620174703
  0
VERTEX
  8
0
 62
9
  6
CONTINUOUS
 10
364.4190409482
 20
145.9950947093
  0
VERTEX
  8
0
 62
9
  6
CONTINUOUS
 10
362.0969793865
 20
148.776588236
  0
VERTEX
  8
0
 62
9
  6
CONTINUOUS
 10
359.9865234474
 20
151.5830792589
  0
VERTEX
  8
0
 62
9
  6
CONTINUOUS
 10
357.9741926452
 20
154.5260911821
  0
VERTEX
  8
0
 62
9
  6
CONTINUOUS
 10
356.0512970426
 20
157.4988578559
  0
VERTEX
  8
0
 62
9
  6
CONTINUOUS
 10
354.1241390597
 20
160.3822885986
  0
VERTEX
  8
0
 62
9
  6
CONTINUOUS
 10
351.9673306125
 20
163.3660069705
  0
VERTEX
  8
0
 62
9
  6
CONTINUOUS
 10
349.4191046207
 20
166.6229027768
  0
VERTEX
  8
0
 62
9
  6
CONTINUOUS
 10
346.635858312
 20
170.0346187951
  0
VERTEX
  8
0
 62
9
  6
CONTINUOUS
 10
343.7992872129
 20
173.5253845489
  0
VERTEX
  8
0
 62
9
  6
CONTINUOUS
 10
340.9020670963
 20
177.1145534959
  0
SEQEND
  0
POLYLINE
  8
0
 62
9
  6
CONTINUOUS
 66
1
 70
0
  0
VERTEX
  8
0
 62
9
  6
CONTINUOUS
 10
325.7493698786
 20
197.412605441
  0
VERTEX
  8
0
 62
9
  6
CONTINUOUS
 10
325.7339253522
 20
196.2029175043
  0
VERTEX
  8
0
 62
9
  6
CONTINUOUS
 10
325.7155201772
 20
195.0404527515
  0
VERTEX
  8
0
 62
9
  6
CONTINUOUS
 10
325.6948501699
 20
193.9619556127
  0
VERTEX
  8
0
 62
9
  6
CONTINUOUS
 10
325.6719545954
 20
192.962914082
  0
VERTEX
  8
0
 62
9
  6
CONTINUOUS
 10
325.6468086205
 20
192.0448138194
  0
VERTEX
  8
0
 62
9
  6
CONTINUOUS
 10
325.6198351335
 20
191.2281278779
  0
VERTEX
  8
0
 62
9
  6
CONTINUOUS
 10
325.5914069922
 20
190.5280671364
  0
VERTEX
  8
0
 62
9
  6
CONTINUOUS
 10
325.5619462812
 20
189.9588522416
  0
VERTEX
  8
0
 62
9
  6
CONTINUOUS
 10
325.53182315
 20
189.5320230218
  0
VERTEX
  8
0
 62
9
  6
CONTINUOUS
 10
325.5019240101
 20
189.2620595309
  0
SEQEND
  0
POLYLINE
  8
0
 62
9
  6
CONTINUOUS
 66
1
 70
0
  0
VERTEX
  8
0
 62
9
  6
CONTINUOUS
 10
343.2169194551
 20
324.8040718907
  0
VERTEX
  8
0
 62
9
  6
CONTINUOUS
 10
343.2294569113
 20
325.5418592146
  0
VERTEX
  8
0
 62
9
  6
CONTINUOUS
 10
343.2390114349
 20
326.2852476736
  0
VERTEX
  8
0
 62
9
  6
CONTINUOUS
 10
343.2450050142
 20
326.9780901477
  0
VERTEX
  8
0
 62
9
  6
CONTINUOUS
 10
343.2476537231
 20
327.6225521406
  0
VERTEX
  8
0
 62
9
  6
CONTINUOUS
 10
343.246850844
 20
328.2159829045
  0
VERTEX
  8
0
 62
9
  6
CONTINUOUS
 10
343.242388092
 20
328.730146598
  0
VERTEX
  8
0
 62
9
  6
CONTINUOUS
 10
343.2341988866
 20
329.1416084972
  0
VERTEX
  8
0
 62
9
  6
CONTINUOUS
 10
343.2223660611
 20
329.4279931174
  0
VERTEX
  8
0
 62
9
  6
CONTINUOUS
 10
343.2070821087
 20
329.5702942361
  0
VERTEX
  8
0
 62
9
  6
CONTINUOUS
 10
343.2002341548
 20
329.5830241868
  0
SEQEND
  0
POLYLINE
  8
0
 62
9
  6
CONTINUOUS
 66
1
 70
0
  0
VERTEX
  8
0
 62
9
  6
CONTINUOUS
 10
340.9020670963
 20
177.1145534959
  0
VERTEX
  8
0
 62
9
  6
CONTINUOUS
 10
339.5100718626
 20
158.2712163914
  0
VERTEX
  8
0
 62
9
  6
CONTINUOUS
 10
338.043638514
 20
139.387282945
  0
VERTEX
  8
0
 62
9
  6
CONTINUOUS
 10
336.4639316562
 20
120.2572827769
  0
VERTEX
  8
0
 62
9
  6
CONTINUOUS
 10
334.8092540358
 20
101.5058602079
  0
VERTEX
  8
0
 62
9
  6
CONTINUOUS
 10
333.1474483184
 20
83.951313906
  0
VERTEX
  8
0
 62
9
  6
CONTINUOUS
 10
331.3950126589
 20
66.8026814917
  0
VERTEX
  8
0
 62
9
  6
CONTINUOUS
 10
329.4779338665
 20
49.2919768304
  0
VERTEX
  8
0
 62
9
  6
CONTINUOUS
 10
327.4947960849
 20
32.1617724927
  0
VERTEX
  8
0
 62
9
  6
CONTINUOUS
 10
325.5580888037
 20
16.1423261573
  0
VERTEX
  8
0
 62
9
  6
CONTINUOUS
 10
323.6132228414
 20
0.4959254094
  0
VERTEX
  8
0
 62
9
  6
CONTINUOUS
 10
321.6137974413
 20
-15.3304872164
  0
SEQEND
  0
LINE
  8
0
 62
9
  6
CONTINUOUS
 10
319.4993540929
 20
-31.8816039755
 11
321.6137974413
 21
-15.3304872164
  0
POLYLINE
  8
0
 62
9
  6
CONTINUOUS
 66
1
 70
0
  0
VERTEX
  8
0
 62
9
  6
CONTINUOUS
 10
360.2721257134
 20
193.7090635863
  0
VERTEX
  8
0
 62
9
  6
CONTINUOUS
 10
359.888004229
 20
192.4201542205
  0
VERTEX
  8
0
 62
9
  6
CONTINUOUS
 10
359.33634476
 20
191.1953349514
  0
VERTEX
  8
0
 62
9
  6
CONTINUOUS
 10
358.646015575
 20
190.0803361448
  0
VERTEX
  8
0
 62
9
  6
CONTINUOUS
 10
357.8209210473
 20
189.0667952626
  0
VERTEX
  8
0
 62
9
  6
CONTINUOUS
 10
356.8575011123
 20
188.1545247999
  0
VERTEX
  8
0
 62
9
  6
CONTINUOUS
 10
355.7731573558
 20
187.3686185886
  0
VERTEX
  8
0
 62
9
  6
CONTINUOUS
 10
354.5851677835
 20
186.7276017685
  0
VERTEX
  8
0
 62
9
  6
CONTINUOUS
 10
353.3093728945
 20
186.2462807894
  0
VERTEX
  8
0
 62
9
  6
CONTINUOUS
 10
351.959815212
 20
185.9384191491
  0
VERTEX
  8
0
 62
9
  6
CONTINUOUS
 10
350.5846323323
 20
185.8197901943
  0
SEQEND
  0
POLYLINE
  8
0
 62
9
  6
CONTINUOUS
 66
1
 70
0
  0
VERTEX
  8
0
 62
9
  6
CONTINUOUS
 10
392.7238257419
 20
330.985646765
  0
VERTEX
  8
0
 62
9
  6
CONTINUOUS
 10
394.0641029622
 20
331.1713743101
  0
VERTEX
  8
0
 62
9
  6
CONTINUOUS
 10
395.4382737541
 20
331.691063186
  0
VERTEX
  8
0
 62
9
  6
CONTINUOUS
 10
396.8810700842
 20
332.3560698191
  0
VERTEX
  8
0
 62
9
  6
CONTINUOUS
 10
398.4070204887
 20
332.9645924801
  0
VERTEX
  8
0
 62
9
  6
CONTINUOUS
 10
399.963599088
 20
333.3604344088
  0
VERTEX
  8
0
 62
9
  6
CONTINUOUS
 10
401.5048262848
 20
333.5848263686
  0
VERTEX
  8
0
 62
9
  6
CONTINUOUS
 10
403.0277822775
 20
333.7841303535
  0
VERTEX
  8
0
 62
9
  6
CONTINUOUS
 10
404.5162568716
 20
334.0618610958
  0
VERTEX
  8
0
 62
9
  6
CONTINUOUS
 10
405.9625371543
 20
334.3933286305
  0
VERTEX
  8
0
 62
9
  6
CONTINUOUS
 10
407.3534179153
 20
334.5740204347
  0
VERTEX
  8
0
 62
9
  6
CONTINUOUS
 10
407.7719629259
 20
334.5653260748
  0
SEQEND
  0
POLYLINE
  8
0
 62
9
  6
CONTINUOUS
 66
1
 70
0
  0
VERTEX
  8
0
 62
9
  6
CONTINUOUS
 10
378.5929782903
 20
331.2041292432
  0
VERTEX
  8
0
 62
9
  6
CONTINUOUS
 10
378.2192768996
 20
331.1535364462
  0
VERTEX
  8
0
 62
9
  6
CONTINUOUS
 10
376.6907145884
 20
330.7729591895
  0
VERTEX
  8
0
 62
9
  6
CONTINUOUS
 10
375.1337119428
 20
330.1835543865
  0
SEQEND
  0
POLYLINE
  8
0
 62
9
  6
CONTINUOUS
 66
1
 70
0
  0
VERTEX
  8
0
 62
9
  6
CONTINUOUS
 10
372.6645493643
 20
329.6456802854
  0
VERTEX
  8
0
 62
9
  6
CONTINUOUS
 10
373.600783088
 20
329.7665935575
  0
VERTEX
  8
0
 62
9
  6
CONTINUOUS
 10
374.2388811007
 20
329.882508894
  0
SEQEND
  0
LINE
  8
0
 62
7
  6
CONTINUOUS
 10
379.9288384468
 20
331.3657578597
 11
378.5929782903
 21
331.2041292432
  0
LINE
  8
0
 62
9
  6
CONTINUOUS
 10
382.5969845649
 20
331.578616377
 11
382.2653814073
 21
331.5388889028
  0
LINE
  8
0
 62
9
  6
CONTINUOUS
 10
372.1485885746
 20
329.6125465526
 11
371.4749556967
 21
329.535549186
  0
LINE
  8
0
 62
7
  6
CONTINUOUS
 10
379.9288384468
 20
331.3657578597
 11
380.3374912505
 21
331.4111199858
  0
LINE
  8
0
 62
9
  6
CONTINUOUS
 10
372.4483243063
 20
329.6222830216
 11
372.6645493643
 21
329.6456802854
  0
LINE
  8
0
 62
7
  6
CONTINUOUS
 10
372.4240795831
 20
329.6197415016
 11
372.4483243063
 21
329.6222830216
  0
LINE
  8
0
 62
7
  6
CONTINUOUS
 10
372.4250951164
 20
329.6194495721
 11
372.1447575727
 21
329.5914552489
  0
LINE
  8
0
 62
7
  6
CONTINUOUS
 10
-3.8973528201
 20
329.6222633789
 11
-3.6882733855
 21
329.6006425651
  0
LINE
  8
0
 62
7
  6
CONTINUOUS
 10
-11.755550718
 20
331.4079887054
 11
-11.3778695271
 21
331.3657351261
  0
LINE
  8
0
 62
9
  6
CONTINUOUS
 10
-2.9163198955
 20
329.5346056413
 11
-3.6079102879
 21
329.6138200311
  0
LINE
  8
0
 62
9
  6
CONTINUOUS
 10
-13.7154341304
 20
331.5391616338
 11
-14.0465216875
 21
331.578655316
  0
POLYLINE
  8
0
 62
9
  6
CONTINUOUS
 66
1
 70
0
  0
VERTEX
  8
0
 62
9
  6
CONTINUOUS
 10
-11.3778695271
 20
331.3657351261
  0
VERTEX
  8
0
 62
9
  6
CONTINUOUS
 10
-11.0261053373
 20
331.3184788998
  0
VERTEX
  8
0
 62
9
  6
CONTINUOUS
 10
-9.3325641117
 20
330.9596319136
  0
VERTEX
  8
0
 62
9
  6
CONTINUOUS
 10
-7.5528222606
 20
330.415402836
  0
SEQEND
  0
LINE
  8
0
 62
9
  6
CONTINUOUS
 10
-3.6079102879
 20
329.6138200311
 11
-4.9883351918
 21
329.8191472864
  0
POLYLINE
  8
0
 62
9
  6
CONTINUOUS
 66
1
 70
0
  0
VERTEX
  8
0
 62
9
  6
CONTINUOUS
 10
-5.6880970136
 20
329.882508894
  0
VERTEX
  8
0
 62
9
  6
CONTINUOUS
 10
-5.054723438
 20
329.767272308
  0
VERTEX
  8
0
 62
9
  6
CONTINUOUS
 10
-4.1221140692
 20
329.6466111586
  0
VERTEX
  8
0
 62
9
  6
CONTINUOUS
 10
-3.8973528201
 20
329.6222633789
  0
SEQEND
  0
POLYLINE
  8
0
 62
9
  6
CONTINUOUS
 66
1
 70
0
  0
VERTEX
  8
0
 62
9
  6
CONTINUOUS
 10
360.2705302095
 20
193.709413576
  0
VERTEX
  8
0
 62
9
  6
CONTINUOUS
 10
363.446434857
 20
190.2017191874
  0
VERTEX
  8
0
 62
9
  6
CONTINUOUS
 10
366.4007663978
 20
186.8197336159
  0
VERTEX
  8
0
 62
9
  6
CONTINUOUS
 10
369.1807329324
 20
183.5698188136
  0
SEQEND
  0
POLYLINE
  8
0
 62
9
  6
CONTINUOUS
 66
1
 70
0
  0
VERTEX
  8
0
 62
9
  6
CONTINUOUS
 10
347.8019684515
 20
183.4054576887
  0
VERTEX
  8
0
 62
9
  6
CONTINUOUS
 10
350.6734433629
 20
179.7177630769
  0
VERTEX
  8
0
 62
9
  6
CONTINUOUS
 10
353.4437719937
 20
176.1536375054
  0
VERTEX
  8
0
 62
9
  6
CONTINUOUS
 10
356.1650209058
 20
172.669231607
  0
VERTEX
  8
0
 62
9
  6
CONTINUOUS
 10
358.6804742266
 20
169.3609788977
  0
VERTEX
  8
0
 62
9
  6
CONTINUOUS
 10
360.7663222507
 20
166.345168849
  0
VERTEX
  8
0
 62
9
  6
CONTINUOUS
 10
362.675253174
 20
163.4607264852
  0
VERTEX
  8
0
 62
9
  6
CONTINUOUS
 10
364.5660675959
 20
160.5280319282
  0
VERTEX
  8
0
 62
9
  6
CONTINUOUS
 10
366.4959320842
 20
157.6230719156
  0
VERTEX
  8
0
 62
9
  6
CONTINUOUS
 10
368.5632399114
 20
154.8665405851
  0
VERTEX
  8
0
 62
9
  6
CONTINUOUS
 10
370.8061182364
 20
152.1213434242
  0
VERTEX
  8
0
 62
9
  6
CONTINUOUS
 10
373.3043125318
 20
149.3046304674
  0
VERTEX
  8
0
 62
9
  6
CONTINUOUS
 10
376.0317022197
 20
146.482431325
  0
SEQEND
  0
POLYLINE
  8
0
 62
9
  6
CONTINUOUS
 66
1
 70
0
  0
VERTEX
  8
0
 62
9
  6
CONTINUOUS
 10
340.902357276
 20
177.1145102893
  0
VERTEX
  8
0
 62
9
  6
CONTINUOUS
 10
340.4087792488
 20
177.7862163157
  0
VERTEX
  8
0
 62
9
  6
CONTINUOUS
 10
339.5967519815
 20
178.4181829554
  0
VERTEX
  8
0
 62
9
  6
CONTINUOUS
 10
338.4980041738
 20
179.0221203525
  0
VERTEX
  8
0
 62
9
  6
CONTINUOUS
 10
337.1273128959
 20
179.5905909494
  0
VERTEX
  8
0
 62
9
  6
CONTINUOUS
 10
335.4952300936
 20
180.1212313551
  0
VERTEX
  8
0
 62
9
  6
CONTINUOUS
 10
333.6256056207
 20
180.6082562915
  0
VERTEX
  8
0
 62
9
  6
CONTINUOUS
 10
331.5374853454
 20
181.0448502937
  0
VERTEX
  8
0
 62
9
  6
CONTINUOUS
 10
329.2609482617
 20
181.4284689728
  0
VERTEX
  8
0
 62
9
  6
CONTINUOUS
 10
326.8296181347
 20
181.7531905047
  0
VERTEX
  8
0
 62
9
  6
CONTINUOUS
 10
324.2627735662
 20
182.0171072594
  0
VERTEX
  8
0
 62
9
  6
CONTINUOUS
 10
321.5764771627
 20
182.2159903315
  0
VERTEX
  8
0
 62
9
  6
CONTINUOUS
 10
318.8132542192
 20
182.349853517
  0
VERTEX
  8
0
 62
9
  6
CONTINUOUS
 10
316.0074730377
 20
182.4158681107
  0
VERTEX
  8
0
 62
9
  6
CONTINUOUS
 10
313.2039622561
 20
182.4111931008
  0
SEQEND
  0
LINE
  8
0
 62
9
  6
CONTINUOUS
 10
351.8648731361
 20
331.9022661749
 11
351.8920698448
 21
329.4001260231
  0
POLYLINE
  8
0
 62
9
  6
CONTINUOUS
 66
1
 70
0
  0
VERTEX
  8
0
 62
9
  6
CONTINUOUS
 10
378.6282303062
 20
325.3658347269
  0
VERTEX
  8
0
 62
9
  6
CONTINUOUS
 10
377.3262427254
 20
314.0050511866
  0
VERTEX
  8
0
 62
9
  6
CONTINUOUS
 10
375.9778318782
 20
302.6382709359
  0
VERTEX
  8
0
 62
9
  6
CONTINUOUS
 10
374.5772260118
 20
291.2118930739
  0
VERTEX
  8
0
 62
9
  6
CONTINUOUS
 10
373.1489599204
 20
279.8856068841
  0
VERTEX
  8
0
 62
9
  6
CONTINUOUS
 10
371.7182686992
 20
268.879797868
  0
VERTEX
  8
0
 62
9
  6
CONTINUOUS
 10
370.2527553279
 20
257.9623837982
  0
VERTEX
  8
0
 62
9
  6
CONTINUOUS
 10
368.7153026214
 20
246.8880784326
  0
VERTEX
  8
0
 62
9
  6
CONTINUOUS
 10
367.1321623889
 20
235.91848736
  0
VERTEX
  8
0
 62
9
  6
CONTINUOUS
 10
365.5350068835
 20
225.3172824483
  0
VERTEX
  8
0
 62
9
  6
CONTINUOUS
 10
363.8785045486
 20
214.8310682373
  0
VERTEX
  8
0
 62
9
  6
CONTINUOUS
 10
362.1233241021
 20
204.273814046
  0
VERTEX
  8
0
 62
9
  6
CONTINUOUS
 10
360.2705302095
 20
193.709413576
  0
SEQEND
  0
LINE
  8
0
 62
7
  6
CONTINUOUS
 10
380.828870019
 20
331.459365108
 11
380.3425653599
 21
331.4154086513
  0
LINE
  8
0
 62
7
  6
CONTINUOUS
 10
372.1447575727
 20
329.5914552489
 11
370.9247081156
 21
329.4896219097
  0
LINE
  8
0
 62
9
  6
CONTINUOUS
 10
383.7617769532
 20
331.6750876331
 11
382.5969845649
 21
331.578616377
  0
LINE
  8
0
 62
7
  6
CONTINUOUS
 10
383.8968134597
 20
331.633299615
 11
384.9201742757
 21
331.7125050162
  0
LINE
  8
0
 62
7
  6
CONTINUOUS
 10
384.1979669052
 20
331.6587579783
 11
383.635827766
 21
331.6195774175
  0
POLYLINE
  8
0
 62
7
  6
CONTINUOUS
 66
1
 70
0
  0
VERTEX
  8
0
 62
7
  6
CONTINUOUS
 10
370.9247081156
 20
329.4896219097
  0
VERTEX
  8
0
 62
7
  6
CONTINUOUS
 10
369.3903732624
 20
329.394914195
  0
VERTEX
  8
0
 62
7
  6
CONTINUOUS
 10
367.5842637162
 20
329.3178211373
  0
VERTEX
  8
0
 62
7
  6
CONTINUOUS
 10
365.5108722781
 20
329.2641823871
  0
VERTEX
  8
0
 62
7
  6
CONTINUOUS
 10
363.1639056815
 20
329.2383205682
  0
VERTEX
  8
0
 62
7
  6
CONTINUOUS
 10
360.5794328208
 20
329.2426771174
  0
VERTEX
  8
0
 62
7
  6
CONTINUOUS
 10
357.8036821388
 20
329.2756928981
  0
VERTEX
  8
0
 62
7
  6
CONTINUOUS
 10
354.8426514538
 20
329.3320824617
  0
SEQEND
  0
LINE
  8
0
 62
7
  6
CONTINUOUS
 10
383.635827766
 20
331.6195774175
 11
382.4611526904
 21
331.5497265999
  0
LINE
  8
0
 62
7
  6
CONTINUOUS
 10
384.9201742757
 20
331.7125050162
 11
385.2768198043
 21
331.7333550875
  0
LINE
  8
0
 62
7
  6
CONTINUOUS
 10
382.4611526904
 20
331.5497265999
 11
380.828870019
 21
331.459365108
  0
POLYLINE
  8
0
 62
7
  6
CONTINUOUS
 66
1
 70
0
  0
VERTEX
  8
0
 62
7
  6
CONTINUOUS
 10
385.2768198043
 20
331.7333550875
  0
VERTEX
  8
0
 62
7
  6
CONTINUOUS
 10
384.9192978861
 20
331.7172875699
  0
VERTEX
  8
0
 62
7
  6
CONTINUOUS
 10
384.2953385624
 20
331.6931112027
  0
SEQEND
  0
LINE
  8
0
 62
7
  6
CONTINUOUS
 10
385.9302023998
 20
331.7457675405
 11
384.9169412366
 21
331.7066240619
  0
LINE
  8
0
 62
7
  6
CONTINUOUS
 10
384.2953385624
 20
331.6931112027
 11
383.7617769532
 21
331.6750876331
  0
POLYLINE
  8
0
 62
9
  6
CONTINUOUS
 66
1
 70
0
  0
VERTEX
  8
0
 62
9
  6
CONTINUOUS
 10
25.3338713465
 20
324.8039614221
  0
VERTEX
  8
0
 62
9
  6
CONTINUOUS
 10
21.7314481097
 20
324.7069360161
  0
VERTEX
  8
0
 62
9
  6
CONTINUOUS
 10
14.6157336699
 20
324.5147028278
  0
SEQEND
  0
POLYLINE
  8
0
 62
9
  6
CONTINUOUS
 66
1
 70
0
  0
VERTEX
  8
0
 62
9
  6
CONTINUOUS
 10
51.636626839
 20
325.4349897651
  0
VERTEX
  8
0
 62
9
  6
CONTINUOUS
 10
38.8193347754
 20
325.0992900085
  0
VERTEX
  8
0
 62
9
  6
CONTINUOUS
 10
32.5228139196
 20
324.9522889724
  0
VERTEX
  8
0
 62
9
  6
CONTINUOUS
 10
26.301043493
 20
324.8197391625
  0
SEQEND
  0
POLYLINE
  8
0
 62
9
  6
CONTINUOUS
 66
1
 70
0
  0
VERTEX
  8
0
 62
9
  6
CONTINUOUS
 10
14.6157336699
 20
324.5147028278
  0
VERTEX
  8
0
 62
9
  6
CONTINUOUS
 10
11.2013446054
 20
324.4359111972
  0
VERTEX
  8
0
 62
9
  6
CONTINUOUS
 10
7.9430384879
 20
324.3842884435
  0
VERTEX
  8
0
 62
9
  6
CONTINUOUS
 10
4.8612085249
 20
324.3646325025
  0
VERTEX
  8
0
 62
9
  6
CONTINUOUS
 10
1.9748493064
 20
324.3853652863
  0
VERTEX
  8
0
 62
9
  6
CONTINUOUS
 10
-0.6693397063
 20
324.4448341662
  0
VERTEX
  8
0
 62
9
  6
CONTINUOUS
 10
-3.0342334323
 20
324.5430603751
  0
VERTEX
  8
0
 62
9
  6
CONTINUOUS
 10
-5.1023797474
 20
324.6731127605
  0
VERTEX
  8
0
 62
9
  6
CONTINUOUS
 10
-6.8540320723
 20
324.8297469239
  0
VERTEX
  8
0
 62
9
  6
CONTINUOUS
 10
-8.2754487932
 20
325.0036063933
  0
VERTEX
  8
0
 62
9
  6
CONTINUOUS
 10
-9.3560858815
 20
325.1853341883
  0
VERTEX
  8
0
 62
9
  6
CONTINUOUS
 10
-10.0776745162
 20
325.3657860351
  0
SEQEND
  0
POLYLINE
  8
0
 62
9
  6
CONTINUOUS
 66
1
 70
0
  0
VERTEX
  8
0
 62
9
  6
CONTINUOUS
 10
64.7545148122
 20
325.7387834459
  0
VERTEX
  8
0
 62
9
  6
CONTINUOUS
 10
58.157996486
 20
325.5911390879
  0
VERTEX
  8
0
 62
9
  6
CONTINUOUS
 10
51.636626839
 20
325.4349897651
  0
SEQEND
  0
POLYLINE
  8
0
 62
9
  6
CONTINUOUS
 66
1
 70
0
  0
VERTEX
  8
0
 62
9
  6
CONTINUOUS
 10
123.901243888
 20
326.6174628945
  0
VERTEX
  8
0
 62
9
  6
CONTINUOUS
 10
106.495646379
 20
326.2544043181
  0
VERTEX
  8
0
 62
9
  6
CONTINUOUS
 10
72.8716128941
 20
325.5391622549
  0
SEQEND
  0
POLYLINE
  8
0
 62
9
  6
CONTINUOUS
 66
1
 70
0
  0
VERTEX
  8
0
 62
9
  6
CONTINUOUS
 10
72.8716128941
 20
325.5391622549
  0
VERTEX
  8
0
 62
9
  6
CONTINUOUS
 10
56.6484047038
 20
325.2042608558
  0
VERTEX
  8
0
 62
9
  6
CONTINUOUS
 10
40.8081782964
 20
324.8963621437
  0
VERTEX
  8
0
 62
9
  6
CONTINUOUS
 10
25.3533294945
 20
324.6240300949
  0
SEQEND
  0
LINE
  8
0
 62
9
  6
CONTINUOUS
 10
374.9891892943
 20
329.8939859376
 11
374.239741718
 21
329.880209648
  0
LINE
  8
0
 62
9
  6
CONTINUOUS
 10
25.333864632
 20
324.8040718905
 11
26.3010479699
 21
324.8195528108
  0
POLYLINE
  8
0
 62
9
  6
CONTINUOUS
 66
1
 70
0
  0
VERTEX
  8
0
 62
9
  6
CONTINUOUS
 10
366.494601349
 20
329.3901136346
  0
VERTEX
  8
0
 62
9
  6
CONTINUOUS
 10
362.9693880035
 20
329.3413554746
  0
VERTEX
  8
0
 62
9
  6
CONTINUOUS
 10
358.5448412638
 20
329.2668772839
  0
SEQEND
  0
LINE
  8
0
 62
7
  6
CONTINUOUS
 10
343.2002341548
 20
329.5830241868
 11
343.200118508
 21
329.5830226905
  0
POLYLINE
  8
0
 62
9
  6
CONTINUOUS
 66
1
 70
0
  0
VERTEX
  8
0
 62
9
  6
CONTINUOUS
 10
123.9012439535
 20
326.6175911913
  0
VERTEX
  8
0
 62
9
  6
CONTINUOUS
 10
113.7546200355
 20
326.4896563407
  0
VERTEX
  8
0
 62
9
  6
CONTINUOUS
 10
103.7234787894
 20
326.356276947
  0
VERTEX
  8
0
 62
9
  6
CONTINUOUS
 10
93.8077732281
 20
326.2217880354
  0
VERTEX
  8
0
 62
9
  6
CONTINUOUS
 10
84.0076466301
 20
326.0772873654
  0
VERTEX
  8
0
 62
9
  6
CONTINUOUS
 10
74.3232425864
 20
325.9144258185
  0
VERTEX
  8
0
 62
9
  6
CONTINUOUS
 10
64.7545148122
 20
325.7387834459
  0
SEQEND
  0
POLYLINE
  8
0
 62
9
  6
CONTINUOUS
 66
1
 70
0
  0
VERTEX
  8
0
 62
9
  6
CONTINUOUS
 10
351.8648873526
 20
331.9068473806
  0
VERTEX
  8
0
 62
9
  6
CONTINUOUS
 10
355.9160304118
 20
331.9471911088
  0
VERTEX
  8
0
 62
9
  6
CONTINUOUS
 10
359.8910349004
 20
331.9700734043
  0
VERTEX
  8
0
 62
9
  6
CONTINUOUS
 10
363.8148076397
 20
331.9766300301
  0
VERTEX
  8
0
 62
9
  6
CONTINUOUS
 10
367.6126311762
 20
331.9688724036
  0
VERTEX
  8
0
 62
9
  6
CONTINUOUS
 10
371.2251909553
 20
331.9477476368
  0
VERTEX
  8
0
 62
9
  6
CONTINUOUS
 10
374.6311918278
 20
331.9142185811
  0
VERTEX
  8
0
 62
9
  6
CONTINUOUS
 10
377.8028746775
 20
331.866409133
  0
SEQEND
  0
LINE
  8
0
 62
9
  6
CONTINUOUS
 10
369.8841765798
 20
329.4253944931
 11
366.494601349
 21
329.3901136346
  0
POLYLINE
  8
0
 62
9
  6
CONTINUOUS
 66
1
 70
0
  0
VERTEX
  8
0
 62
9
  6
CONTINUOUS
 10
174.2753931074
 20
326.7729318114
  0
VERTEX
  8
0
 62
9
  6
CONTINUOUS
 10
177.608595212
 20
326.7640306372
  0
VERTEX
  8
0
 62
9
  6
CONTINUOUS
 10
180.9419079988
 20
326.764461576
  0
VERTEX
  8
0
 62
9
  6
CONTINUOUS
 10
184.275278588
 20
326.7622212111
  0
VERTEX
  8
0
 62
9
  6
CONTINUOUS
 10
187.6086810835
 20
326.7644619104
  0
VERTEX
  8
0
 62
9
  6
CONTINUOUS
 10
190.9420499196
 20
326.7640309451
  0
VERTEX
  8
0
 62
9
  6
CONTINUOUS
 10
194.2753890515
 20
326.7729317975
  0
SEQEND
  0
POLYLINE
  8
0
 62
9
  6
CONTINUOUS
 66
1
 70
0
  0
VERTEX
  8
0
 62
9
  6
CONTINUOUS
 10
174.2753966117
 20
326.7729929732
  0
VERTEX
  8
0
 62
9
  6
CONTINUOUS
 10
165.8526133478
 20
326.8116066815
  0
VERTEX
  8
0
 62
9
  6
CONTINUOUS
 10
157.4446365808
 20
326.8236028721
  0
VERTEX
  8
0
 62
9
  6
CONTINUOUS
 10
149.0551880779
 20
326.8079719904
  0
VERTEX
  8
0
 62
9
  6
CONTINUOUS
 10
140.6731022567
 20
326.7672459995
  0
VERTEX
  8
0
 62
9
  6
CONTINUOUS
 10
132.2872135415
 20
326.7039680826
  0
VERTEX
  8
0
 62
9
  6
CONTINUOUS
 10
123.901243888
 20
326.6174628945
  0
SEQEND
  0
POLYLINE
  8
0
 62
9
  6
CONTINUOUS
 66
1
 70
0
  0
VERTEX
  8
0
 62
9
  6
CONTINUOUS
 10
244.6495402031
 20
326.6174628944
  0
VERTEX
  8
0
 62
9
  6
CONTINUOUS
 10
236.2635705489
 20
326.7039680811
  0
VERTEX
  8
0
 62
9
  6
CONTINUOUS
 10
227.8776818329
 20
326.7672459979
  0
VERTEX
  8
0
 62
9
  6
CONTINUOUS
 10
219.4955960112
 20
326.8079719908
  0
VERTEX
  8
0
 62
9
  6
CONTINUOUS
 10
211.1061475076
 20
326.8236028745
  0
VERTEX
  8
0
 62
9
  6
CONTINUOUS
 10
202.6981707399
 20
326.8116066835
  0
VERTEX
  8
0
 62
9
  6
CONTINUOUS
 10
194.2753874754
 20
326.7729929732
  0
SEQEND
  0
LINE
  8
0
 62
7
  6
CONTINUOUS
 10
25.350548448
 20
329.5830241618
 11
25.3506641915
 21
329.5830227488
  0
POLYLINE
  8
0
 62
9
  6
CONTINUOUS
 66
1
 70
0
  0
VERTEX
  8
0
 62
9
  6
CONTINUOUS
 10
5.5823078495
 20
329.3413677213
  0
VERTEX
  8
0
 62
9
  6
CONTINUOUS
 10
2.0565054361
 20
329.3902100915
  0
VERTEX
  8
0
 62
9
  6
CONTINUOUS
 10
-1.3433769779
 20
329.4254629924
  0
SEQEND
  0
LINE
  8
0
 62
9
  6
CONTINUOUS
 10
342.5723832553
 20
324.8142840056
 11
343.2169194551
 21
324.8040718907
  0
LINE
  8
0
 62
9
  6
CONTINUOUS
 10
342.2497361171
 20
324.8195528107
 11
342.5723832553
 21
324.8142840056
  0
LINE
  8
0
 62
9
  6
CONTINUOUS
 10
10.0101750417
 20
329.2667219677
 11
5.5823078495
 21
329.3413677213
  0
POLYLINE
  8
0
 62
9
  6
CONTINUOUS
 66
1
 70
0
  0
VERTEX
  8
0
 62
9
  6
CONTINUOUS
 10
303.7962692748
 20
325.7387834459
  0
VERTEX
  8
0
 62
9
  6
CONTINUOUS
 10
294.1996362714
 20
325.9148478486
  0
VERTEX
  8
0
 62
9
  6
CONTINUOUS
 10
284.4984889135
 20
326.0779632125
  0
VERTEX
  8
0
 62
9
  6
CONTINUOUS
 10
274.6927807672
 20
326.2225206167
  0
VERTEX
  8
0
 62
9
  6
CONTINUOUS
 10
264.782655906
 20
326.3568937909
  0
VERTEX
  8
0
 62
9
  6
CONTINUOUS
 10
254.7682580814
 20
326.4900272627
  0
VERTEX
  8
0
 62
9
  6
CONTINUOUS
 10
244.6495401375
 20
326.6175911913
  0
SEQEND
  0
POLYLINE
  8
0
 62
9
  6
CONTINUOUS
 66
1
 70
0
  0
VERTEX
  8
0
 62
9
  6
CONTINUOUS
 10
295.6791718154
 20
325.5380623168
  0
VERTEX
  8
0
 62
9
  6
CONTINUOUS
 10
311.9023800313
 20
325.2031151395
  0
VERTEX
  8
0
 62
9
  6
CONTINUOUS
 10
327.7426060579
 20
324.8958899681
  0
VERTEX
  8
0
 62
9
  6
CONTINUOUS
 10
343.1974545937
 20
324.6240281056
  0
SEQEND
  0
POLYLINE
  8
0
 62
9
  6
CONTINUOUS
 66
1
 70
0
  0
VERTEX
  8
0
 62
9
  6
CONTINUOUS
 10
244.6495401375
 20
326.6175911913
  0
VERTEX
  8
0
 62
9
  6
CONTINUOUS
 10
262.0551376374
 20
326.2545396462
  0
VERTEX
  8
0
 62
9
  6
CONTINUOUS
 10
295.6791718154
 20
325.5380623168
  0
SEQEND
  0
POLYLINE
  8
0
 62
9
  6
CONTINUOUS
 66
1
 70
0
  0
VERTEX
  8
0
 62
9
  6
CONTINUOUS
 10
342.2497354487
 20
324.8194856185
  0
VERTEX
  8
0
 62
9
  6
CONTINUOUS
 10
336.0279633073
 20
324.9521940034
  0
VERTEX
  8
0
 62
9
  6
CONTINUOUS
 10
329.7314414223
 20
325.0992902149
  0
SEQEND
  0
POLYLINE
  8
0
 62
9
  6
CONTINUOUS
 66
1
 70
0
  0
VERTEX
  8
0
 62
9
  6
CONTINUOUS
 10
329.7314414223
 20
325.0992902149
  0
VERTEX
  8
0
 62
9
  6
CONTINUOUS
 10
316.9141493577
 20
325.4349899643
  0
VERTEX
  8
0
 62
9
  6
CONTINUOUS
 10
310.3927826695
 20
325.5911392128
  0
VERTEX
  8
0
 62
9
  6
CONTINUOUS
 10
303.7962692748
 20
325.7387834459
  0
SEQEND
  0
LINE
  8
0
 62
7
  6
CONTINUOUS
 10
-15.2092988981
 20
331.6750356802
 11
-16.1053816987
 21
331.7066177413
  0
LINE
  8
0
 62
7
  6
CONTINUOUS
 10
-16.3345598911
 20
331.7046891225
 11
-17.3501706386
 21
331.7454026612
  0
LINE
  8
0
 62
7
  6
CONTINUOUS
 10
-16.1053816987
 20
331.7066177413
 11
-16.7265816437
 21
331.7333815487
  0
LINE
  8
0
 62
7
  6
CONTINUOUS
 10
-12.2016900701
 20
331.4533487439
 11
-13.8607223005
 21
331.5473978992
  0
LINE
  8
0
 62
9
  6
CONTINUOUS
 10
-21.8752505218
 20
330.9922050132
 11
-21.9126014658
 21
330.9943620423
  0
POLYLINE
  8
0
 62
7
  6
CONTINUOUS
 66
1
 70
0
  0
VERTEX
  8
0
 62
7
  6
CONTINUOUS
 10
-13.8607223005
 20
331.5473978992
  0
VERTEX
  8
0
 62
7
  6
CONTINUOUS
 10
-15.047938557
 20
331.6170335221
  0
VERTEX
  8
0
 62
7
  6
CONTINUOUS
 10
-15.638713602
 20
331.6581674396
  0
SEQEND
  0
LINE
  8
0
 62
7
  6
CONTINUOUS
 10
-16.7265816437
 20
331.7333815487
 11
-16.3376807565
 21
331.7103578306
  0
LINE
  8
0
 62
7
  6
CONTINUOUS
 10
-16.3376807565
 20
331.7103578306
 11
-15.3410599012
 21
331.6329148567
  0
LINE
  8
0
 62
9
  6
CONTINUOUS
 10
-14.0465216875
 20
331.578655316
 11
-15.2092988981
 21
331.6750356802
  0
LINE
  8
0
 62
7
  6
CONTINUOUS
 10
-2.4901048864
 20
329.4981449886
 11
-3.6882733855
 21
329.6006425651
  0
LINE
  8
0
 62
7
  6
CONTINUOUS
 10
-11.7607682406
 20
331.4122841302
 11
-12.2016900701
 21
331.4533487439
  0
LINE
  8
0
 62
9
  6
CONTINUOUS
 10
174.527879436
 20
334.2070547661
 11
174.2754201936
 21
334.2842681748
  0
POLYLINE
  8
0
 62
9
  6
CONTINUOUS
 66
1
 70
0
  0
VERTEX
  8
0
 62
9
  6
CONTINUOUS
 10
369.1807329324
 20
183.5698188136
  0
VERTEX
  8
0
 62
9
  6
CONTINUOUS
 10
374.5363309622
 20
177.2780915935
  0
VERTEX
  8
0
 62
9
  6
CONTINUOUS
 10
377.0177279456
 20
174.213513441
  0
VERTEX
  8
0
 62
9
  6
CONTINUOUS
 10
379.1960449254
 20
171.2575083134
  0
VERTEX
  8
0
 62
9
  6
CONTINUOUS
 10
381.0766144904
 20
168.271448891
  0
VERTEX
  8
0
 62
9
  6
CONTINUOUS
 10
382.7583676738
 20
165.087267023
  0
VERTEX
  8
0
 62
9
  6
CONTINUOUS
 10
384.3666647197
 20
161.7720310491
  0
VERTEX
  8
0
 62
9
  6
CONTINUOUS
 10
385.9935891366
 20
158.3496883104
  0
VERTEX
  8
0
 62
9
  6
CONTINUOUS
 10
387.6578436607
 20
154.8060472696
  0
SEQEND
  0
POLYLINE
  8
0
 62
9
  6
CONTINUOUS
 66
1
 70
0
  0
VERTEX
  8
0
 62
9
  6
CONTINUOUS
 10
377.0276075174
 20
150.2504679829
  0
VERTEX
  8
0
 62
9
  6
CONTINUOUS
 10
373.5818031001
 20
157.0257238181
  0
VERTEX
  8
0
 62
9
  6
CONTINUOUS
 10
371.8015432601
 20
160.206925538
  0
VERTEX
  8
0
 62
9
  6
CONTINUOUS
 10
369.8241924424
 20
163.2302173843
  0
VERTEX
  8
0
 62
9
  6
CONTINUOUS
 10
367.6277961745
 20
166.2405918389
  0
VERTEX
  8
0
 62
9
  6
CONTINUOUS
 10
365.1009864408
 20
169.3515456474
  0
VERTEX
  8
0
 62
9
  6
CONTINUOUS
 10
362.3991472554
 20
172.5250423444
  0
VERTEX
  8
0
 62
9
  6
CONTINUOUS
 10
359.6747104438
 20
175.7093304298
  0
VERTEX
  8
0
 62
9
  6
CONTINUOUS
 10
356.8239346916
 20
178.9657548507
  0
VERTEX
  8
0
 62
9
  6
CONTINUOUS
 10
353.7872669046
 20
182.345402151
  0
VERTEX
  8
0
 62
9
  6
CONTINUOUS
 10
350.5846886252
 20
185.8348648969
  0
SEQEND
  0
LINE
  8
0
 62
9
  6
CONTINUOUS
 10
378.7858000337
 20
146.7312150944
 11
377.0276075174
 21
150.2504679829
  0
POLYLINE
  8
0
 62
9
  6
CONTINUOUS
 66
1
 70
0
  0
VERTEX
  8
0
 62
9
  6
CONTINUOUS
 10
378.6284934142
 20
325.3657984632
  0
VERTEX
  8
0
 62
9
  6
CONTINUOUS
 10
378.657742383
 20
326.0839807841
  0
VERTEX
  8
0
 62
9
  6
CONTINUOUS
 10
378.5585488504
 20
326.7991561559
  0
VERTEX
  8
0
 62
9
  6
CONTINUOUS
 10
378.3441284769
 20
327.4610125005
  0
VERTEX
  8
0
 62
9
  6
CONTINUOUS
 10
378.0217306575
 20
328.0725712445
  0
VERTEX
  8
0
 62
9
  6
CONTINUOUS
 10
377.5885848244
 20
328.6318674715
  0
VERTEX
  8
0
 62
9
  6
CONTINUOUS
 10
377.0544474452
 20
329.1134788366
  0
VERTEX
  8
0
 62
9
  6
CONTINUOUS
 10
376.4313840042
 20
329.4968325651
  0
VERTEX
  8
0
 62
9
  6
CONTINUOUS
 10
375.7366236008
 20
329.7624519028
  0
VERTEX
  8
0
 62
9
  6
CONTINUOUS
 10
374.9891892943
 20
329.8939859376
  0
SEQEND
  0
POLYLINE
  8
0
 62
7
  6
CONTINUOUS
 66
1
 70
0
  0
VERTEX
  8
0
 62
7
  6
CONTINUOUS
 10
369.7661543233
 20
140.3110236069
  0
VERTEX
  8
0
 62
7
  6
CONTINUOUS
 10
366.5110042968
 20
109.1889292947
  0
VERTEX
  8
0
 62
7
  6
CONTINUOUS
 10
363.5508917773
 20
79.0398439407
  0
VERTEX
  8
0
 62
7
  6
CONTINUOUS
 10
360.8231387265
 20
49.8672173542
  0
VERTEX
  8
0
 62
7
  6
CONTINUOUS
 10
358.5157792592
 20
21.6607001074
  0
VERTEX
  8
0
 62
7
  6
CONTINUOUS
 10
356.8168474901
 20
-5.5900572274
  0
VERTEX
  8
0
 62
7
  6
CONTINUOUS
 10
355.6636653808
 20
-31.8816048409
  0
SEQEND
  0
POLYLINE
  8
0
 62
7
  6
CONTINUOUS
 66
1
 70
0
  0
VERTEX
  8
0
 62
7
  6
CONTINUOUS
 10
369.7661543233
 20
140.3110236069
  0
VERTEX
  8
0
 62
7
  6
CONTINUOUS
 10
369.9343068817
 20
141.2594703842
  0
VERTEX
  8
0
 62
7
  6
CONTINUOUS
 10
370.2224236655
 20
142.158073251
  0
VERTEX
  8
0
 62
7
  6
CONTINUOUS
 10
370.6345656991
 20
143.0140967161
  0
VERTEX
  8
0
 62
7
  6
CONTINUOUS
 10
371.1585499092
 20
143.8057472528
  0
VERTEX
  8
0
 62
7
  6
CONTINUOUS
 10
371.7886609925
 20
144.5176643309
  0
VERTEX
  8
0
 62
7
  6
CONTINUOUS
 10
372.5095566634
 20
145.1378134696
  0
VERTEX
  8
0
 62
7
  6
CONTINUOUS
 10
373.3089609281
 20
145.6509032402
  0
VERTEX
  8
0
 62
7
  6
CONTINUOUS
 10
374.1719596069
 20
146.0513439565
  0
VERTEX
  8
0
 62
7
  6
CONTINUOUS
 10
375.0771707496
 20
146.3271129359
  0
VERTEX
  8
0
 62
7
  6
CONTINUOUS
 10
376.031721673
 20
146.4822177392
  0
SEQEND
  0
LINE
  8
0
 62
7
  6
CONTINUOUS
 10
-39.2358508764
 20
334.564325543
 11
-39.2203946535
 21
334.5653762314
  0
LINE
  8
0
 62
9
  6
CONTINUOUS
 10
162.4017061163
 20
333.923317241
 11
163.3946193369
 21
333.9875152535
  0
POLYLINE
  8
0
 62
9
  6
CONTINUOUS
 66
1
 70
0
  0
VERTEX
  8
0
 62
9
  6
CONTINUOUS
 10
163.3946193369
 20
333.9875152535
  0
VERTEX
  8
0
 62
9
  6
CONTINUOUS
 10
164.6518348046
 20
334.0490244983
  0
VERTEX
  8
0
 62
9
  6
CONTINUOUS
 10
166.1563835044
 20
334.1068240301
  0
VERTEX
  8
0
 62
9
  6
CONTINUOUS
 10
167.8984334784
 20
334.1601102708
  0
VERTEX
  8
0
 62
9
  6
CONTINUOUS
 10
169.8486108491
 20
334.2084101607
  0
VERTEX
  8
0
 62
9
  6
CONTINUOUS
 10
171.9701830336
 20
334.2508807795
  0
VERTEX
  8
0
 62
9
  6
CONTINUOUS
 10
174.2753934193
 20
334.288339864
  0
SEQEND
  0
LINE
  8
0
 62
9
  6
CONTINUOUS
 10
206.1192440522
 20
333.5615790686
 11
205.1182138896
 21
333.5144331417
  0
LINE
  8
0
 62
9
  6
CONTINUOUS
 10
-15.5007027729
 20
331.6847780116
 11
-14.7976658738
 21
331.7166135269
  0
POLYLINE
  8
0
 62
7
  6
CONTINUOUS
 66
1
 70
0
  0
VERTEX
  8
0
 62
7
  6
CONTINUOUS
 10
-17.3501706386
 20
331.7454026612
  0
VERTEX
  8
0
 62
7
  6
CONTINUOUS
 10
-18.5737216618
 20
331.7024896168
  0
VERTEX
  8
0
 62
7
  6
CONTINUOUS
 10
-19.6741154338
 20
331.5437294798
  0
VERTEX
  8
0
 62
7
  6
CONTINUOUS
 10
-20.5417571511
 20
331.3614599658
  0
SEQEND
  0
POLYLINE
  8
0
 62
9
  6
CONTINUOUS
 66
1
 70
0
  0
VERTEX
  8
0
 62
9
  6
CONTINUOUS
 10
205.1182138896
 20
333.5144331417
  0
VERTEX
  8
0
 62
9
  6
CONTINUOUS
 10
203.8517773746
 20
333.4721425732
  0
VERTEX
  8
0
 62
9
  6
CONTINUOUS
 10
202.3443488296
 20
333.435045494
  0
VERTEX
  8
0
 62
9
  6
CONTINUOUS
 10
200.6172278414
 20
333.4035184262
  0
VERTEX
  8
0
 62
9
  6
CONTINUOUS
 10
198.6855681248
 20
333.3776116356
  0
VERTEX
  8
0
 62
9
  6
CONTINUOUS
 10
196.5744050868
 20
333.357611172
  0
SEQEND
  0
LINE
  8
0
 62
9
  6
CONTINUOUS
 10
-14.7976658738
 20
331.7166135269
 11
-12.2360241301
 21
331.799765323
  0
LINE
  8
0
 62
9
  6
CONTINUOUS
 10
-12.2360241301
 20
331.799765323
 11
-9.3603681909
 21
331.864452977
  0
POLYLINE
  8
0
 62
9
  6
CONTINUOUS
 66
1
 70
0
  0
VERTEX
  8
0
 62
9
  6
CONTINUOUS
 10
-39.2203946535
 20
334.5653762314
  0
VERTEX
  8
0
 62
9
  6
CONTINUOUS
 10
-38.8018684949
 20
334.5740494843
  0
VERTEX
  8
0
 62
9
  6
CONTINUOUS
 10
-37.4112435872
 20
334.3932235146
  0
VERTEX
  8
0
 62
9
  6
CONTINUOUS
 10
-35.9647557455
 20
334.061672681
  0
VERTEX
  8
0
 62
9
  6
CONTINUOUS
 10
-34.4759163552
 20
333.7839695943
  0
VERTEX
  8
0
 62
9
  6
CONTINUOUS
 10
-32.9527489928
 20
333.5846656674
  0
VERTEX
  8
0
 62
9
  6
CONTINUOUS
 10
-31.4113497073
 20
333.3601663887
  0
VERTEX
  8
0
 62
9
  6
CONTINUOUS
 10
-29.8546132742
 20
332.9640442333
  0
VERTEX
  8
0
 62
9
  6
CONTINUOUS
 10
-28.328563549
 20
332.3552993979
  0
VERTEX
  8
0
 62
9
  6
CONTINUOUS
 10
-26.8857890566
 20
331.6903051724
  0
VERTEX
  8
0
 62
9
  6
CONTINUOUS
 10
-25.5116803615
 20
331.1709154585
  0
VERTEX
  8
0
 62
9
  6
CONTINUOUS
 10
-24.1731904142
 20
330.9856465406
  0
SEQEND
  0
POLYLINE
  8
0
 62
7
  6
CONTINUOUS
 66
1
 70
0
  0
VERTEX
  8
0
 62
7
  6
CONTINUOUS
 10
324.6399734953
 20
335.2536307552
  0
VERTEX
  8
0
 62
7
  6
CONTINUOUS
 10
316.0748980739
 20
335.1055026065
  0
VERTEX
  8
0
 62
7
  6
CONTINUOUS
 10
307.2951295834
 20
334.9810272479
  0
VERTEX
  8
0
 62
7
  6
CONTINUOUS
 10
298.3442232704
 20
334.88565376
  0
VERTEX
  8
0
 62
7
  6
CONTINUOUS
 10
289.2551281373
 20
334.8229594244
  0
VERTEX
  8
0
 62
7
  6
CONTINUOUS
 10
280.1220223562
 20
334.788143377
  0
VERTEX
  8
0
 62
7
  6
CONTINUOUS
 10
271.0345128807
 20
334.7727134408
  0
VERTEX
  8
0
 62
7
  6
CONTINUOUS
 10
262.0392072296
 20
334.768617322
  0
VERTEX
  8
0
 62
7
  6
CONTINUOUS
 10
253.1730646137
 20
334.7695934079
  0
SEQEND
  0
POLYLINE
  8
0
 62
7
  6
CONTINUOUS
 66
1
 70
0
  0
VERTEX
  8
0
 62
7
  6
CONTINUOUS
 10
25.350548448
 20
329.5830241618
  0
VERTEX
  8
0
 62
7
  6
CONTINUOUS
 10
23.2210257251
 20
329.5471195223
  0
VERTEX
  8
0
 62
7
  6
CONTINUOUS
 10
19.9684914714
 20
329.4784427738
  0
VERTEX
  8
0
 62
7
  6
CONTINUOUS
 10
16.7553101642
 20
329.4022904846
  0
VERTEX
  8
0
 62
7
  6
CONTINUOUS
 10
13.6129069758
 20
329.3300357016
  0
VERTEX
  8
0
 62
7
  6
CONTINUOUS
 10
10.633006137
 20
329.2738868507
  0
VERTEX
  8
0
 62
7
  6
CONTINUOUS
 10
7.8420896882
 20
329.2417808915
  0
VERTEX
  8
0
 62
7
  6
CONTINUOUS
 10
5.2466560679
 20
329.2389814996
  0
VERTEX
  8
0
 62
7
  6
CONTINUOUS
 10
2.8974875412
 20
329.2668574772
  0
VERTEX
  8
0
 62
7
  6
CONTINUOUS
 10
0.8271407433
 20
329.3226606172
  0
VERTEX
  8
0
 62
7
  6
CONTINUOUS
 10
-0.9709049898
 20
329.4018549442
  0
VERTEX
  8
0
 62
7
  6
CONTINUOUS
 10
-2.4901048864
 20
329.4981449886
  0
SEQEND
  0
LINE
  8
0
 62
7
  6
CONTINUOUS
 10
174.2753920435
 20
335.1069632086
 11
165.1371037639
 21
334.957651274
  0
LINE
  8
0
 62
9
  6
CONTINUOUS
 10
163.7607516807
 20
334.9358922728
 11
174.2868972424
 21
335.0978861412
  0
POLYLINE
  8
0
 62
9
  6
CONTINUOUS
 66
1
 70
0
  0
VERTEX
  8
0
 62
9
  6
CONTINUOUS
 10
-9.3603681909
 20
331.864452977
  0
VERTEX
  8
0
 62
9
  6
CONTINUOUS
 10
-6.2071825529
 20
331.9126558269
  0
VERTEX
  8
0
 62
9
  6
CONTINUOUS
 10
-2.8116509931
 20
331.9466802908
  0
VERTEX
  8
0
 62
9
  6
CONTINUOUS
 10
0.7999134556
 20
331.9683208736
  0
VERTEX
  8
0
 62
9
  6
CONTINUOUS
 10
4.6083667326
 20
331.9766093851
  0
VERTEX
  8
0
 62
9
  6
CONTINUOUS
 10
8.5570408219
 20
331.9704288783
  0
VERTEX
  8
0
 62
9
  6
CONTINUOUS
 10
12.5750023962
 20
331.9474748699
  0
VERTEX
  8
0
 62
9
  6
CONTINUOUS
 10
16.6858967345
 20
331.9068473806
  0
SEQEND
  0
LINE
  8
0
 62
9
  6
CONTINUOUS
 10
174.2964868252
 20
333.3431820997
 11
174.2753952602
 21
333.342872808
  0
POLYLINE
  8
0
 62
7
  6
CONTINUOUS
 66
1
 70
0
  0
VERTEX
  8
0
 62
7
  6
CONTINUOUS
 10
174.2753920435
 20
335.1069632086
  0
VERTEX
  8
0
 62
7
  6
CONTINUOUS
 10
177.6085991593
 20
335.1543007528
  0
VERTEX
  8
0
 62
7
  6
CONTINUOUS
 10
180.9419144616
 20
335.1827032793
  0
VERTEX
  8
0
 62
7
  6
CONTINUOUS
 10
184.2753920436
 20
335.1921707881
  0
VERTEX
  8
0
 62
7
  6
CONTINUOUS
 10
187.6088696255
 20
335.1827032793
  0
VERTEX
  8
0
 62
7
  6
CONTINUOUS
 10
190.9421849278
 20
335.1543007528
  0
VERTEX
  8
0
 62
7
  6
CONTINUOUS
 10
194.2753920436
 20
335.1069632086
  0
SEQEND
  0
POLYLINE
  8
0
 62
9
  6
CONTINUOUS
 66
1
 70
0
  0
VERTEX
  8
0
 62
9
  6
CONTINUOUS
 10
174.2752734544
 20
334.2843608551
  0
VERTEX
  8
0
 62
9
  6
CONTINUOUS
 10
176.6800359914
 20
334.3153422456
  0
VERTEX
  8
0
 62
9
  6
CONTINUOUS
 10
179.1483341252
 20
334.3380403341
  0
VERTEX
  8
0
 62
9
  6
CONTINUOUS
 10
181.6959855858
 20
334.3520275268
  0
VERTEX
  8
0
 62
9
  6
CONTINUOUS
 10
184.2753920141
 20
334.3568182765
  0
VERTEX
  8
0
 62
9
  6
CONTINUOUS
 10
186.8547984447
 20
334.352027526
  0
VERTEX
  8
0
 62
9
  6
CONTINUOUS
 10
189.402449915
 20
334.3380403325
  0
VERTEX
  8
0
 62
9
  6
CONTINUOUS
 10
191.8707480679
 20
334.3153422433
  0
VERTEX
  8
0
 62
9
  6
CONTINUOUS
 10
194.2755106327
 20
334.2843608519
  0
SEQEND
  0
POLYLINE
  8
0
 62
7
  6
CONTINUOUS
 66
1
 70
0
  0
VERTEX
  8
0
 62
7
  6
CONTINUOUS
 10
163.7607516807
 20
334.9358922728
  0
VERTEX
  8
0
 62
7
  6
CONTINUOUS
 10
160.0387833175
 20
334.8889333357
  0
VERTEX
  8
0
 62
7
  6
CONTINUOUS
 10
154.081657018
 20
334.8361169894
  0
VERTEX
  8
0
 62
7
  6
CONTINUOUS
 10
147.3941907706
 20
334.8011841167
  0
VERTEX
  8
0
 62
7
  6
CONTINUOUS
 10
140.0971582526
 20
334.7818181417
  0
VERTEX
  8
0
 62
7
  6
CONTINUOUS
 10
132.2655566909
 20
334.7736260703
  0
SEQEND
  0
LINE
  8
0
 62
7
  6
CONTINUOUS
 10
-24.1731904142
 20
330.9856465406
 11
-24.1105423389
 21
330.9861354679
  0
LINE
  8
0
 62
9
  6
CONTINUOUS
 10
196.5744050868
 20
333.357611172
 11
195.760463463
 21
333.3518795184
  0
LINE
  8
0
 62
7
  6
CONTINUOUS
 10
195.760463463
 20
333.3518795184
 11
194.2546397536
 21
333.3438161202
  0
POLYLINE
  8
0
 62
7
  6
CONTINUOUS
 66
1
 70
0
  0
VERTEX
  8
0
 62
7
  6
CONTINUOUS
 10
194.2753935122
 20
333.3428727418
  0
VERTEX
  8
0
 62
7
  6
CONTINUOUS
 10
191.8705361212
 20
333.3339026093
  0
VERTEX
  8
0
 62
7
  6
CONTINUOUS
 10
189.4022359853
 20
333.3275920792
  0
VERTEX
  8
0
 62
7
  6
CONTINUOUS
 10
186.8546700478
 20
333.3238123956
  0
VERTEX
  8
0
 62
7
  6
CONTINUOUS
 10
184.2753920421
 20
333.3225237411
  0
VERTEX
  8
0
 62
7
  6
CONTINUOUS
 10
181.6961140359
 20
333.3238123955
  0
VERTEX
  8
0
 62
7
  6
CONTINUOUS
 10
179.1485480983
 20
333.327592079
  0
VERTEX
  8
0
 62
7
  6
CONTINUOUS
 10
176.6802479636
 20
333.333902609
  0
SEQEND
  0
POLYLINE
  8
0
 62
7
  6
CONTINUOUS
 66
1
 70
0
  0
VERTEX
  8
0
 62
7
  6
CONTINUOUS
 10
194.2180703061
 20
331.4839087263
  0
VERTEX
  8
0
 62
7
  6
CONTINUOUS
 10
191.7923818601
 20
331.4776539332
  0
VERTEX
  8
0
 62
7
  6
CONTINUOUS
 10
188.1004531629
 20
331.4807285028
  0
VERTEX
  8
0
 62
7
  6
CONTINUOUS
 10
184.4203696751
 20
331.4790295886
  0
VERTEX
  8
0
 62
7
  6
CONTINUOUS
 10
180.7197621405
 20
331.4806846224
  0
VERTEX
  8
0
 62
7
  6
CONTINUOUS
 10
176.9647466124
 20
331.4777314624
  0
VERTEX
  8
0
 62
7
  6
CONTINUOUS
 10
174.3327121626
 20
331.4839087415
  0
SEQEND
  0
POLYLINE
  8
0
 62
9
  6
CONTINUOUS
 66
1
 70
0
  0
VERTEX
  8
0
 62
9
  6
CONTINUOUS
 10
194.2753878208
 20
332.0887532575
  0
VERTEX
  8
0
 62
9
  6
CONTINUOUS
 10
222.5794231406
 20
332.1064771726
  0
VERTEX
  8
0
 62
9
  6
CONTINUOUS
 10
250.0678905041
 20
332.170360857
  0
VERTEX
  8
0
 62
9
  6
CONTINUOUS
 10
276.7406326069
 20
332.1871011667
  0
VERTEX
  8
0
 62
9
  6
CONTINUOUS
 10
302.5975243674
 20
332.0383974972
  0
VERTEX
  8
0
 62
9
  6
CONTINUOUS
 10
327.6387882917
 20
331.8422516217
  0
VERTEX
  8
0
 62
9
  6
CONTINUOUS
 10
351.8648873526
 20
331.9068473806
  0
SEQEND
  0
LINE
  8
0
 62
9
  6
CONTINUOUS
 10
194.2767008157
 20
332.091447542
 11
184.2753098323
 21
332.0888470503
  0
POLYLINE
  8
0
 62
7
  6
CONTINUOUS
 66
1
 70
0
  0
VERTEX
  8
0
 62
7
  6
CONTINUOUS
 10
132.2655566909
 20
334.7736260703
  0
VERTEX
  8
0
 62
7
  6
CONTINUOUS
 10
106.5121341702
 20
334.7686172802
  0
VERTEX
  8
0
 62
7
  6
CONTINUOUS
 10
97.516929021
 20
334.7727128194
  0
VERTEX
  8
0
 62
7
  6
CONTINUOUS
 10
88.429514479
 20
334.7881414216
  0
VERTEX
  8
0
 62
7
  6
CONTINUOUS
 10
79.2964945058
 20
334.8229550736
  0
VERTEX
  8
0
 62
7
  6
CONTINUOUS
 10
70.207472865
 20
334.8856457602
  0
VERTEX
  8
0
 62
7
  6
CONTINUOUS
 10
61.2566225218
 20
334.9810151609
  0
VERTEX
  8
0
 62
7
  6
CONTINUOUS
 10
52.4768949635
 20
335.1054866518
  0
VERTEX
  8
0
 62
7
  6
CONTINUOUS
 10
43.9118434252
 20
335.2536114608
  0
VERTEX
  8
0
 62
7
  6
CONTINUOUS
 10
27.7142988317
 20
335.5664971021
  0
SEQEND
  0
POLYLINE
  8
0
 62
7
  6
CONTINUOUS
 66
1
 70
0
  0
VERTEX
  8
0
 62
7
  6
CONTINUOUS
 10
253.1730646137
 20
334.7695934079
  0
VERTEX
  8
0
 62
7
  6
CONTINUOUS
 10
236.2854871361
 20
334.7736259334
  0
VERTEX
  8
0
 62
7
  6
CONTINUOUS
 10
228.4538017601
 20
334.7818178405
  0
VERTEX
  8
0
 62
7
  6
CONTINUOUS
 10
221.1566990745
 20
334.8011837166
  0
VERTEX
  8
0
 62
7
  6
CONTINUOUS
 10
214.4691784311
 20
334.8361166345
  0
VERTEX
  8
0
 62
7
  6
CONTINUOUS
 10
208.5120172983
 20
334.8889331529
  0
VERTEX
  8
0
 62
7
  6
CONTINUOUS
 10
204.8046358634
 20
334.9357995181
  0
SEQEND
  0
LINE
  8
0
 62
9
  6
CONTINUOUS
 10
184.2753098323
 20
332.0888470503
 11
174.2753921326
 21
332.0914468808
  0
POLYLINE
  8
0
 62
7
  6
CONTINUOUS
 66
1
 70
0
  0
VERTEX
  8
0
 62
7
  6
CONTINUOUS
 10
174.2733074537
 20
331.4843204873
  0
VERTEX
  8
0
 62
7
  6
CONTINUOUS
 10
147.2412746928
 20
331.5208543674
  0
VERTEX
  8
0
 62
7
  6
CONTINUOUS
 10
120.2537564336
 20
331.3012776152
  0
VERTEX
  8
0
 62
7
  6
CONTINUOUS
 10
94.4756767731
 20
330.9673095234
  0
VERTEX
  8
0
 62
7
  6
CONTINUOUS
 10
69.8493123996
 20
330.5915291544
  0
VERTEX
  8
0
 62
7
  6
CONTINUOUS
 10
46.3644548276
 20
330.0638839543
  0
VERTEX
  8
0
 62
7
  6
CONTINUOUS
 10
25.350665579
 20
329.5830226905
  0
SEQEND
  0
POLYLINE
  8
0
 62
9
  6
CONTINUOUS
 66
1
 70
0
  0
VERTEX
  8
0
 62
9
  6
CONTINUOUS
 10
16.6858967345
 20
331.9068473806
  0
VERTEX
  8
0
 62
9
  6
CONTINUOUS
 10
40.9120109665
 20
331.8422516974
  0
VERTEX
  8
0
 62
9
  6
CONTINUOUS
 10
65.9532656706
 20
332.0383975514
  0
VERTEX
  8
0
 62
9
  6
CONTINUOUS
 10
91.8101066419
 20
332.1871010638
  0
VERTEX
  8
0
 62
9
  6
CONTINUOUS
 10
118.482807919
 20
332.1703610816
  0
VERTEX
  8
0
 62
9
  6
CONTINUOUS
 10
145.9712959547
 20
332.1064772694
  0
VERTEX
  8
0
 62
9
  6
CONTINUOUS
 10
174.2753962663
 20
332.0887532575
  0
SEQEND
  0
LINE
  8
0
 62
7
  6
CONTINUOUS
 10
176.6802479636
 20
333.333902609
 11
173.307780933
 21
333.3487607415
  0
LINE
  8
0
 62
9
  6
CONTINUOUS
 10
173.8270368836
 20
333.3461626944
 11
173.307780933
 21
333.3487607415
  0
LINE
  8
0
 62
7
  6
CONTINUOUS
 10
392.6634750088
 20
330.9861056424
 11
392.7238257419
 21
330.985646765
  0
LINE
  8
0
 62
7
  6
CONTINUOUS
 10
173.307780933
 20
333.3487607415
 11
171.4406626595
 21
333.3617472414
  0
LINE
  8
0
 62
9
  6
CONTINUOUS
 10
171.9515121672
 20
333.3578123217
 11
171.4406626595
 21
333.3617472414
  0
LINE
  8
0
 62
7
  6
CONTINUOUS
 10
171.4406626595
 20
333.3617472414
 11
169.8120811389
 21
333.3775503262
  0
LINE
  8
0
 62
7
  6
CONTINUOUS
 10
169.8120811389
 20
333.3775503262
 11
168.3934353031
 21
333.3954463147
  0
LINE
  8
0
 62
9
  6
CONTINUOUS
 10
169.8215839249
 20
333.3781017328
 11
169.8120811389
 21
333.3775503262
  0
LINE
  8
0
 62
9
  6
CONTINUOUS
 10
194.2546397536
 20
333.3438161202
 11
194.2757467455
 21
333.343508541
  0
LINE
  8
0
 62
9
  6
CONTINUOUS
 10
204.8046358634
 20
334.9357995181
 11
194.2830334444
 21
335.0975744624
  0
POLYLINE
  8
0
 62
9
  6
CONTINUOUS
 66
1
 70
0
  0
VERTEX
  8
0
 62
9
  6
CONTINUOUS
 10
194.2753906678
 20
334.288339864
  0
VERTEX
  8
0
 62
9
  6
CONTINUOUS
 10
196.5899035248
 20
334.2507131241
  0
VERTEX
  8
0
 62
9
  6
CONTINUOUS
 10
198.7196337709
 20
334.2080152692
  0
VERTEX
  8
0
 62
9
  6
CONTINUOUS
 10
200.6775622348
 20
334.159409991
  0
VERTEX
  8
0
 62
9
  6
CONTINUOUS
 10
202.4247439993
 20
334.1057892268
  0
VERTEX
  8
0
 62
9
  6
CONTINUOUS
 10
203.9286746283
 20
334.0476748864
  0
VERTEX
  8
0
 62
9
  6
CONTINUOUS
 10
205.1830142458
 20
333.9858312056
  0
SEQEND
  0
LINE
  8
0
 62
7
  6
CONTINUOUS
 10
194.2753920436
 20
335.1069632086
 11
203.4136803194
 21
334.9576510328
  0
POLYLINE
  8
0
 62
7
  6
CONTINUOUS
 66
1
 70
0
  0
VERTEX
  8
0
 62
7
  6
CONTINUOUS
 10
27.7142988317
 20
335.5664971021
  0
VERTEX
  8
0
 62
7
  6
CONTINUOUS
 10
20.1098334647
 20
335.6941061495
  0
VERTEX
  8
0
 62
7
  6
CONTINUOUS
 10
12.8166012938
 20
335.7844569598
  0
VERTEX
  8
0
 62
7
  6
CONTINUOUS
 10
5.6977207751
 20
335.8289611341
  0
VERTEX
  8
0
 62
7
  6
CONTINUOUS
 10
-1.3215889162
 20
335.8194418996
  0
VERTEX
  8
0
 62
7
  6
CONTINUOUS
 10
-8.4213962705
 20
335.7470884661
  0
VERTEX
  8
0
 62
7
  6
CONTINUOUS
 10
-15.7282000963
 20
335.6008245718
  0
VERTEX
  8
0
 62
7
  6
CONTINUOUS
 10
-23.4789077561
 20
335.360539611
  0
VERTEX
  8
0
 62
7
  6
CONTINUOUS
 10
-31.9853899075
 20
334.9845483774
  0
VERTEX
  8
0
 62
7
  6
CONTINUOUS
 10
-39.2203946535
 20
334.5653762314
  0
SEQEND
  0
LINE
  8
0
 62
7
  6
CONTINUOUS
 10
168.3934353031
 20
333.3954463147
 11
167.1611936561
 21
333.4149729446
  0
POLYLINE
  8
0
 62
9
  6
CONTINUOUS
 66
1
 70
0
  0
VERTEX
  8
0
 62
9
  6
CONTINUOUS
 10
167.8766672335
 20
333.4044031289
  0
VERTEX
  8
0
 62
9
  6
CONTINUOUS
 10
166.1435777277
 20
333.4363573594
  0
VERTEX
  8
0
 62
9
  6
CONTINUOUS
 10
164.640883591
 20
333.4738242913
  0
VERTEX
  8
0
 62
9
  6
CONTINUOUS
 10
163.3843883938
 20
333.5164243673
  0
SEQEND
  0
LINE
  8
0
 62
7
  6
CONTINUOUS
 10
167.1611936561
 20
333.4149729446
 11
166.0959435878
 21
333.4357342942
  0
LINE
  8
0
 62
9
  6
CONTINUOUS
 10
377.8028746775
 20
331.866409133
 11
380.7002950529
 21
331.802081261
  0
POLYLINE
  8
0
 62
7
  6
CONTINUOUS
 66
1
 70
0
  0
VERTEX
  8
0
 62
7
  6
CONTINUOUS
 10
343.200118508
 20
329.5830226905
  0
VERTEX
  8
0
 62
7
  6
CONTINUOUS
 10
322.1863250986
 20
330.0638840608
  0
VERTEX
  8
0
 62
7
  6
CONTINUOUS
 10
298.7014631402
 20
330.5915293109
  0
VERTEX
  8
0
 62
7
  6
CONTINUOUS
 10
274.0750941831
 20
330.9673096995
  0
VERTEX
  8
0
 62
7
  6
CONTINUOUS
 10
248.2970097087
 20
331.3012778247
  0
VERTEX
  8
0
 62
7
  6
CONTINUOUS
 10
221.3094863884
 20
331.5208544534
  0
VERTEX
  8
0
 62
7
  6
CONTINUOUS
 10
194.2774483915
 20
331.4843202989
  0
SEQEND
  0
POLYLINE
  8
0
 62
7
  6
CONTINUOUS
 66
1
 70
0
  0
VERTEX
  8
0
 62
7
  6
CONTINUOUS
 10
354.8426514538
 20
329.3320824617
  0
VERTEX
  8
0
 62
7
  6
CONTINUOUS
 10
348.5350018943
 20
329.4795258719
  0
VERTEX
  8
0
 62
7
  6
CONTINUOUS
 10
345.306404524
 20
329.5475589561
  0
VERTEX
  8
0
 62
7
  6
CONTINUOUS
 10
343.2002355328
 20
329.5830241636
  0
SEQEND
  0
LINE
  8
0
 62
7
  6
CONTINUOUS
 10
166.0959435878
 20
333.4357342942
 11
165.1799458772
 21
333.45738463
  0
LINE
  8
0
 62
7
  6
CONTINUOUS
 10
165.1799458772
 20
333.45738463
 11
164.3960886464
 21
333.4796501883
  0
LINE
  8
0
 62
9
  6
CONTINUOUS
 10
380.7002950529
 20
331.802081261
 11
383.2812509229
 21
331.7191700689
  0
LINE
  8
0
 62
7
  6
CONTINUOUS
 10
164.3960886464
 20
333.4796501883
 11
163.7303982669
 21
333.502247075
  0
POLYLINE
  8
0
 62
7
  6
CONTINUOUS
 66
1
 70
0
  0
VERTEX
  8
0
 62
7
  6
CONTINUOUS
 10
163.7303982669
 20
333.502247075
  0
VERTEX
  8
0
 62
7
  6
CONTINUOUS
 10
163.1719642984
 20
333.5249067562
  0
VERTEX
  8
0
 62
7
  6
CONTINUOUS
 10
162.9308692938
 20
333.5361502003
  0
VERTEX
  8
0
 62
7
  6
CONTINUOUS
 10
162.7138482957
 20
333.5472819833
  0
VERTEX
  8
0
 62
7
  6
CONTINUOUS
 10
162.5197912814
 20
333.5582604559
  0
VERTEX
  8
0
 62
7
  6
CONTINUOUS
 10
162.3481098827
 20
333.5690057961
  0
VERTEX
  8
0
 62
7
  6
CONTINUOUS
 10
162.1980757054
 20
333.5794302686
  0
VERTEX
  8
0
 62
7
  6
CONTINUOUS
 10
162.0693674632
 20
333.5893934905
  0
VERTEX
  8
0
 62
7
  6
CONTINUOUS
 10
161.9613783115
 20
333.5987502296
  0
VERTEX
  8
0
 62
7
  6
CONTINUOUS
 10
161.8757622603
 20
333.6071050753
  0
VERTEX
  8
0
 62
7
  6
CONTINUOUS
 10
161.8293519686
 20
333.6121536509
  0
SEQEND
  0
LINE
  8
0
 62
9
  6
CONTINUOUS
 10
383.2812509229
 20
331.7191700689
 11
384.0477354669
 21
331.6847472358
  0
LINE
  8
0
 62
7
  6
CONTINUOUS
 10
390.7359233305
 20
331.2378969193
 11
389.765742074
 21
331.2815335481
  0
LINE
  8
0
 62
9
  6
CONTINUOUS
 10
163.3843883938
 20
333.5164243673
 11
163.1719642984
 21
333.5249067562
  0
POLYLINE
  8
0
 62
9
  6
CONTINUOUS
 66
1
 70
0
  0
VERTEX
  8
0
 62
9
  6
CONTINUOUS
 10
162.5752938686
 20
333.5551204837
  0
VERTEX
  8
0
 62
9
  6
CONTINUOUS
 10
162.3938934737
 20
333.5637962201
  0
VERTEX
  8
0
 62
9
  6
CONTINUOUS
 10
162.3481098827
 20
333.5690057961
  0
SEQEND
  0
LINE
  8
0
 62
9
  6
CONTINUOUS
 10
162.7138482957
 20
333.5472819833
 11
162.5752938686
 21
333.5551204837
  0
POLYLINE
  8
0
 62
7
  6
CONTINUOUS
 66
1
 70
0
  0
VERTEX
  8
0
 62
7
  6
CONTINUOUS
 10
407.7719629259
 20
334.5653260748
  0
VERTEX
  8
0
 62
7
  6
CONTINUOUS
 10
400.5375068204
 20
334.984479572
  0
VERTEX
  8
0
 62
7
  6
CONTINUOUS
 10
392.0309612336
 20
335.3604925856
  0
VERTEX
  8
0
 62
7
  6
CONTINUOUS
 10
384.2801871918
 20
335.6007942756
  0
VERTEX
  8
0
 62
7
  6
CONTINUOUS
 10
376.9733282255
 20
335.7470713019
  0
VERTEX
  8
0
 62
7
  6
CONTINUOUS
 10
369.8734952903
 20
335.8194356464
  0
VERTEX
  8
0
 62
7
  6
CONTINUOUS
 10
362.8541710602
 20
335.828964076
  0
VERTEX
  8
0
 62
7
  6
CONTINUOUS
 10
355.7352732312
 20
335.7844674061
  0
VERTEX
  8
0
 62
7
  6
CONTINUOUS
 10
348.4420254071
 20
335.6941221311
  0
VERTEX
  8
0
 62
7
  6
CONTINUOUS
 10
340.8375470025
 20
335.5665165826
  0
VERTEX
  8
0
 62
7
  6
CONTINUOUS
 10
324.6399734953
 20
335.2536307552
  0
SEQEND
  0
LINE
  8
0
 62
9
  6
CONTINUOUS
 10
205.1830142458
 20
333.9858312056
 11
206.1744865338
 21
333.9212442226
  0
POLYLINE
  8
0
 62
7
  6
CONTINUOUS
 66
1
 70
0
  0
VERTEX
  8
0
 62
7
  6
CONTINUOUS
 10
389.765742074
 20
331.2815335481
  0
VERTEX
  8
0
 62
7
  6
CONTINUOUS
 10
389.4258701799
 20
331.304548856
  0
VERTEX
  8
0
 62
7
  6
CONTINUOUS
 10
389.0964137216
 20
331.3606519327
  0
SEQEND
  0
POLYLINE
  8
0
 62
9
  6
CONTINUOUS
 66
1
 70
0
  0
VERTEX
  8
0
 62
9
  6
CONTINUOUS
 10
162.1980757054
 20
333.5794302686
  0
VERTEX
  8
0
 62
9
  6
CONTINUOUS
 10
161.6759740218
 20
333.6155383273
  0
VERTEX
  8
0
 62
9
  6
CONTINUOUS
 10
161.2434262416
 20
333.6712254872
  0
VERTEX
  8
0
 62
9
  6
CONTINUOUS
 10
161.0973885633
 20
333.7304811894
  0
VERTEX
  8
0
 62
9
  6
CONTINUOUS
 10
161.2459631017
 20
333.7929589463
  0
VERTEX
  8
0
 62
9
  6
CONTINUOUS
 10
161.6810553483
 20
333.8579168448
  0
VERTEX
  8
0
 62
9
  6
CONTINUOUS
 10
162.4017061163
 20
333.923317241
  0
SEQEND
  0
POLYLINE
  8
0
 62
9
  6
CONTINUOUS
 66
1
 70
0
  0
VERTEX
  8
0
 62
9
  6
CONTINUOUS
 10
206.1744865338
 20
333.9212442226
  0
VERTEX
  8
0
 62
9
  6
CONTINUOUS
 10
206.8913990228
 20
333.8555285165
  0
VERTEX
  8
0
 62
9
  6
CONTINUOUS
 10
207.3168279718
 20
333.7904212908
  0
VERTEX
  8
0
 62
9
  6
CONTINUOUS
 10
207.4531929367
 20
333.7279130639
  0
VERTEX
  8
0
 62
9
  6
CONTINUOUS
 10
207.2944153147
 20
333.6687206953
  0
VERTEX
  8
0
 62
9
  6
CONTINUOUS
 10
206.8490579745
 20
333.6131602925
  0
VERTEX
  8
0
 62
9
  6
CONTINUOUS
 10
206.1192440522
 20
333.5615790686
  0
SEQEND
  0
POLYLINE
  8
0
 62
7
  6
CONTINUOUS
 66
1
 70
0
  0
VERTEX
  8
0
 62
7
  6
CONTINUOUS
 10
392.6654000895
 20
330.9870781513
  0
VERTEX
  8
0
 62
7
  6
CONTINUOUS
 10
392.3838984552
 20
331.0131820743
  0
VERTEX
  8
0
 62
7
  6
CONTINUOUS
 10
391.7626960707
 20
331.1108525626
  0
VERTEX
  8
0
 62
7
  6
CONTINUOUS
 10
390.7359233305
 20
331.2378969193
  0
SEQEND
  0
POLYLINE
  8
0
 62
7
  6
CONTINUOUS
 66
1
 70
0
  0
VERTEX
  8
0
 62
7
  6
CONTINUOUS
 10
413.0933512465
 20
329.7100657343
  0
VERTEX
  8
0
 62
7
  6
CONTINUOUS
 10
409.0971611274
 20
297.8407259971
  0
VERTEX
  8
0
 62
7
  6
CONTINUOUS
 10
405.0535626531
 20
267.0493953262
  0
VERTEX
  8
0
 62
7
  6
CONTINUOUS
 10
401.0092602428
 20
237.3272056276
  0
VERTEX
  8
0
 62
7
  6
CONTINUOUS
 10
396.8241406383
 20
208.7007611834
  0
VERTEX
  8
0
 62
7
  6
CONTINUOUS
 10
392.3580905809
 20
181.1966662756
  0
VERTEX
  8
0
 62
7
  6
CONTINUOUS
 10
387.6578144902
 20
154.80605281
  0
SEQEND
  0
POLYLINE
  8
0
 62
7
  6
CONTINUOUS
 66
1
 70
0
  0
VERTEX
  8
0
 62
7
  6
CONTINUOUS
 10
-20.5417571511
 20
331.3614599658
  0
VERTEX
  8
0
 62
7
  6
CONTINUOUS
 10
-20.8745634181
 20
331.3046109462
  0
VERTEX
  8
0
 62
7
  6
CONTINUOUS
 10
-21.2164906996
 20
331.2814853741
  0
VERTEX
  8
0
 62
7
  6
CONTINUOUS
 10
-22.1934719664
 20
331.2372272306
  0
SEQEND
  0
POLYLINE
  8
0
 62
7
  6
CONTINUOUS
 66
1
 70
0
  0
VERTEX
  8
0
 62
7
  6
CONTINUOUS
 10
-22.1934719664
 20
331.2372272306
  0
VERTEX
  8
0
 62
7
  6
CONTINUOUS
 10
-23.2252308153
 20
331.1087906939
  0
VERTEX
  8
0
 62
7
  6
CONTINUOUS
 10
-23.8438626358
 20
331.0117859655
  0
VERTEX
  8
0
 62
7
  6
CONTINUOUS
 10
-24.1124599975
 20
330.9871054022
  0
SEQEND
  0
LINE
  8
0
 62
9
  6
CONTINUOUS
 10
-21.254499438
 20
331.2797635436
 11
-20.5864428504
 21
331.3538268818
  0
POLYLINE
  8
0
 62
7
  6
CONTINUOUS
 66
1
 70
0
  0
VERTEX
  8
0
 62
7
  6
CONTINUOUS
 10
-39.2386223962
 20
334.5656261461
  0
VERTEX
  8
0
 62
7
  6
CONTINUOUS
 10
-39.8998768
 20
334.4983901103
  0
VERTEX
  8
0
 62
7
  6
CONTINUOUS
 10
-40.5092314718
 20
334.3912085328
  0
VERTEX
  8
0
 62
7
  6
CONTINUOUS
 10
-41.1171235971
 20
334.2398785708
  0
VERTEX
  8
0
 62
7
  6
CONTINUOUS
 10
-41.7182643064
 20
334.04514016
  0
VERTEX
  8
0
 62
7
  6
CONTINUOUS
 10
-42.0617951155
 20
333.9130376584
  0
SEQEND
  0
LINE
  8
0
 62
9
  6
CONTINUOUS
 10
389.1377652367
 20
331.3536101912
 11
389.8066243128
 21
331.2796947545
  0
POLYLINE
  8
0
 62
7
  6
CONTINUOUS
 66
1
 70
0
  0
VERTEX
  8
0
 62
7
  6
CONTINUOUS
 10
389.0964137216
 20
331.3606519327
  0
VERTEX
  8
0
 62
7
  6
CONTINUOUS
 10
388.2397640005
 20
331.5409131049
  0
VERTEX
  8
0
 62
7
  6
CONTINUOUS
 10
387.1505303478
 20
331.7000742985
  0
VERTEX
  8
0
 62
7
  6
CONTINUOUS
 10
385.9302023998
 20
331.7457675405
  0
SEQEND
  0
POLYLINE
  8
0
 62
7
  6
CONTINUOUS
 66
1
 70
0
  0
VERTEX
  8
0
 62
7
  6
CONTINUOUS
 10
413.0933512465
 20
329.7100657343
  0
VERTEX
  8
0
 62
7
  6
CONTINUOUS
 10
413.1174956652
 20
330.3743809735
  0
VERTEX
  8
0
 62
7
  6
CONTINUOUS
 10
413.0368591124
 20
331.0168888514
  0
VERTEX
  8
0
 62
7
  6
CONTINUOUS
 10
412.8482823988
 20
331.6456371127
  0
VERTEX
  8
0
 62
7
  6
CONTINUOUS
 10
412.5612430924
 20
332.2364825232
  0
VERTEX
  8
0
 62
7
  6
CONTINUOUS
 10
412.1794927969
 20
332.7720259631
  0
VERTEX
  8
0
 62
7
  6
CONTINUOUS
 10
411.7170502162
 20
333.2400828338
  0
VERTEX
  8
0
 62
7
  6
CONTINUOUS
 10
411.1839022261
 20
333.6248692308
  0
VERTEX
  8
0
 62
7
  6
CONTINUOUS
 10
410.612610529
 20
333.9130328545
  0
SEQEND
  0
POLYLINE
  8
0
 62
9
  6
CONTINUOUS
 66
1
 70
0
  0
VERTEX
  8
0
 62
9
  6
CONTINUOUS
 10
413.0933244772
 20
329.710069002
  0
VERTEX
  8
0
 62
9
  6
CONTINUOUS
 10
412.4450467292
 20
329.9399050181
  0
VERTEX
  8
0
 62
9
  6
CONTINUOUS
 10
411.7841991943
 20
330.078336584
  0
VERTEX
  8
0
 62
9
  6
CONTINUOUS
 10
411.1096176109
 20
330.1181039128
  0
VERTEX
  8
0
 62
9
  6
CONTINUOUS
 10
410.4234652871
 20
330.0811647526
  0
VERTEX
  8
0
 62
9
  6
CONTINUOUS
 10
409.7264320187
 20
329.9774005543
  0
VERTEX
  8
0
 62
9
  6
CONTINUOUS
 10
409.0212789892
 20
329.8358440535
  0
VERTEX
  8
0
 62
9
  6
CONTINUOUS
 10
408.3204200346
 20
329.6859737836
  0
VERTEX
  8
0
 62
9
  6
CONTINUOUS
 10
407.5954811767
 20
329.5363475318
  0
VERTEX
  8
0
 62
9
  6
CONTINUOUS
 10
406.8092206099
 20
329.4080099277
  0
VERTEX
  8
0
 62
9
  6
CONTINUOUS
 10
406.0003035202
 20
329.2930271206
  0
VERTEX
  8
0
 62
9
  6
CONTINUOUS
 10
405.2001997583
 20
329.2019722054
  0
VERTEX
  8
0
 62
9
  6
CONTINUOUS
 10
404.3963783311
 20
329.0999534789
  0
VERTEX
  8
0
 62
9
  6
CONTINUOUS
 10
403.5877428821
 20
328.9590664715
  0
VERTEX
  8
0
 62
9
  6
CONTINUOUS
 10
402.7763953506
 20
328.7682711558
  0
VERTEX
  8
0
 62
9
  6
CONTINUOUS
 10
401.9734386342
 20
328.500737866
  0
VERTEX
  8
0
 62
9
  6
CONTINUOUS
 10
401.1536308623
 20
328.1755504236
  0
VERTEX
  8
0
 62
9
  6
CONTINUOUS
 10
400.2805090198
 20
327.7778943522
  0
VERTEX
  8
0
 62
9
  6
CONTINUOUS
 10
399.4040027678
 20
327.3819508108
  0
VERTEX
  8
0
 62
9
  6
CONTINUOUS
 10
398.5591795484
 20
327.0490310776
  0
VERTEX
  8
0
 62
9
  6
CONTINUOUS
 10
397.7385341952
 20
326.8050007685
  0
VERTEX
  8
0
 62
9
  6
CONTINUOUS
 10
396.947112335
 20
326.7152564657
  0
VERTEX
  8
0
 62
9
  6
CONTINUOUS
 10
396.1813706368
 20
326.7226404424
  0
VERTEX
  8
0
 62
9
  6
CONTINUOUS
 10
395.4484273649
 20
326.8128642613
  0
VERTEX
  8
0
 62
9
  6
CONTINUOUS
 10
394.7155792939
 20
326.9234814197
  0
VERTEX
  8
0
 62
9
  6
CONTINUOUS
 10
393.940784205
 20
326.9610318261
  0
VERTEX
  8
0
 62
9
  6
CONTINUOUS
 10
393.158819989
 20
327.0043159334
  0
VERTEX
  8
0
 62
9
  6
CONTINUOUS
 10
392.3943489993
 20
327.124766415
  0
VERTEX
  8
0
 62
9
  6
CONTINUOUS
 10
391.6275650749
 20
327.2521041041
  0
VERTEX
  8
0
 62
9
  6
CONTINUOUS
 10
390.8466409904
 20
327.3439170653
  0
VERTEX
  8
0
 62
9
  6
CONTINUOUS
 10
390.0418971995
 20
327.3894118555
  0
VERTEX
  8
0
 62
9
  6
CONTINUOUS
 10
389.209289621
 20
327.346725046
  0
VERTEX
  8
0
 62
9
  6
CONTINUOUS
 10
388.319126849
 20
327.266777641
  0
VERTEX
  8
0
 62
9
  6
CONTINUOUS
 10
387.3304207783
 20
327.1933412734
  0
VERTEX
  8
0
 62
9
  6
CONTINUOUS
 10
386.2694281398
 20
327.1064840148
  0
VERTEX
  8
0
 62
9
  6
CONTINUOUS
 10
385.16246155
 20
327.020374985
  0
VERTEX
  8
0
 62
9
  6
CONTINUOUS
 10
383.9899089993
 20
326.8736319352
  0
VERTEX
  8
0
 62
9
  6
CONTINUOUS
 10
382.743289161
 20
326.5891148979
  0
VERTEX
  8
0
 62
9
  6
CONTINUOUS
 10
381.4308455256
 20
326.2262150065
  0
VERTEX
  8
0
 62
9
  6
CONTINUOUS
 10
380.0591637453
 20
325.8227577254
  0
VERTEX
  8
0
 62
9
  6
CONTINUOUS
 10
378.6282303062
 20
325.3658347269
  0
SEQEND
  0
POLYLINE
  8
0
 62
7
  6
CONTINUOUS
 66
1
 70
0
  0
VERTEX
  8
0
 62
7
  6
CONTINUOUS
 10
410.6126077565
 20
333.9130260377
  0
VERTEX
  8
0
 62
7
  6
CONTINUOUS
 10
410.2772091981
 20
334.0421800376
  0
VERTEX
  8
0
 62
7
  6
CONTINUOUS
 10
409.6841639817
 20
334.235209652
  0
VERTEX
  8
0
 62
7
  6
CONTINUOUS
 10
409.0842964084
 20
334.3860232579
  0
VERTEX
  8
0
 62
7
  6
CONTINUOUS
 10
408.4825662866
 20
334.4938636155
  0
VERTEX
  8
0
 62
7
  6
CONTINUOUS
 10
407.8838514459
 20
334.5591073016
  0
VERTEX
  8
0
 62
7
  6
CONTINUOUS
 10
407.7719629259
 20
334.5653260748
  0
SEQEND
  0
ENDSEC
  0
EOF
