999
DXF file: K:\Client\125_Heirloom\001\00\Final_Data\Drawings\BASINS\loft-361110_1.dxf
999
Pro/ENGINEER 2017110 by Parametric Technology Corporation
  0
SECTION
  2
HEADER
  9
$EXTMAX
 10
420.0
 20
297.0
 30
0.0
  9
$EXTMIN
 10
0.0
 20
0.0
 30
0.0
  9
$LIMMIN
 10
0.0
 20
0.0
  9
$LIMMAX
 10
420.0
 20
297.0
  9
$VIEWCTR
 10
210.0
 20
148.5
  9
$VIEWSIZE
 40
297.0
  9
$CLAYER
  8
0
  9
$LTSCALE
 40
23.1
  9
$CELTYPE
  6
BYLAYER
  9
$DIMSCALE
 40
1.0
  9
$DIMASZ
 40
3.0
  9
$DIMEXO
 40
1.0
  9
$DIMDLI
 40
15.96
  9
$DIMEXE
 40
1.0
  9
$DIMCEN
 40
3.78
  9
$DIMLFAC
 40
1.0
  9
$DIMBLK
  1
_FILLED
  9
$DIMALT
 70
0
  9
$DIMALTF
 40
0.0393700787
  9
$DIMTXT
 40
3.0
  9
$AUNITS
 70
0
  9
$PDMODE
 70
3
  9
$PDSIZE
 40
5.0
  9
$TILEMODE
 70
1
  0
ENDSEC
  0
SECTION
  2
TABLES
  0
TABLE
  2
LTYPE
 70
6
  0
LTYPE
  2
BYBLOCK
 70
0
  3

 72
65
 73
0
 40
0.0
  0
LTYPE
  2
BYLAYER
 70
0
  3

 72
65
 73
0
 40
0.0
  0
LTYPE
  2
CONTINUOUS
 70
64
  3
Solid line
 72
65
 73
0
 40
0.0
  0
LTYPE
  2
CENTER
 70
64
  3
____ _ ____ _ ____ _ ____ _ ____ _ ____ _ ____
 72
65
 73
4
 40
0.6
 49
0.375
 49
-0.075
 49
0.075
 49
-0.075
  0
LTYPE
  2
HIDDEN
 70
64
  3
- - - - - - - - - - - - - - - - - - - -
 72
65
 73
2
 40
0.2
 49
0.1
 49
-0.1
  0
LTYPE
  2
PHANTOM
 70
64
  3
_____ _ _ _____ _ _ _____ _ _ _____
 72
65
 73
6
 40
0.8
 49
0.45
 49
-0.05
 49
0.1
 49
-0.05
 49
0.1
 49
-0.05
  0
LTYPE
  2
DOT
 70
64
  3
. . . . . . . . . . . . . . . . . . . .
 72
65
 73
2
 40
0.2
 49
0.1
 49
-0.1
  0
LTYPE
  2
DASHED
 70
64
  3
- - - - - - - - - - - - - - - - - - - -
 72
65
 73
2
 40
0.2
 49
0.1
 49
-0.1
  0
ENDTAB
  0
TABLE
  2
LAYER
 70
36
  0
LAYER
  2
0
 70
0
 62
7
  6
CONTINUOUS
  0
LAYER
  2
DEFAULT_1
 70
0
 62
7
  6
CENTER
  0
LAYER
  2
DEFAULT_2
 70
0
 62
8
  6
HIDDEN
  0
LAYER
  2
DEFAULT_3
 70
0
 62
7
  6
PHANTOM
  0
LAYER
  2
0000_BOM
 70
0
 62
7
  6
CONTINUOUS
  0
LAYER
  2
0000_REV_TABLE
 70
0
 62
7
  6
CONTINUOUS
  0
LAYER
  2
0000_STEVENS_NOTE
 70
0
 62
7
  6
CONTINUOUS
  0
LAYER
  2
01_DATUM_PLANES
 70
0
 62
7
  6
CONTINUOUS
  0
LAYER
  2
01_DEF_PLANES
 70
0
 62
7
  6
CONTINUOUS
  0
LAYER
  2
02_DATUM_COS
 70
0
 62
7
  6
CONTINUOUS
  0
LAYER
  2
90_IMP_FEAT
 70
0
 62
7
  6
CONTINUOUS
  0
LAYER
  2
95_STL
 70
0
 62
7
  6
CONTINUOUS
  0
LAYER
  2
99_SOLID
 70
0
 62
7
  6
CONTINUOUS
  0
LAYER
  2
CAD-MASTER_ZINC-PL
 70
0
 62
7
  6
CONTINUOUS
  0
LAYER
  2
CURVE
 70
0
 62
7
  6
CONTINUOUS
  0
LAYER
  2
SKEL
 70
0
 62
7
  6
CONTINUOUS
  0
LAYER
  2
SKETCH
 70
0
 62
7
  6
CONTINUOUS
  0
LAYER
  2
SURFACE
 70
0
 62
7
  6
CONTINUOUS
  0
ENDTAB
  0
TABLE
  2
STYLE
 70
1
  0
STYLE
  2
STANDARD
 70
0
 40
0.0
 41
0.75
 50
0.0
 71
0
 42
0.2
  3
txt
  4

  0
STYLE
  2
TEXTSTYLE_1
 70
0
 40
0.0
 41
0.8
 50
0.0
 71
0
 42
0.2
  3
gdt
  4

  0
ENDTAB
  0
ENDSEC
  0
SECTION
  2
BLOCKS
  0
ENDSEC
  0
SECTION
  2
ENTITIES
  0
POLYLINE
  8
0
 62
7
  6
CONTINUOUS
 66
1
 70
0
  0
VERTEX
  8
0
 62
7
  6
CONTINUOUS
 10
5.5476908084
 20
280.5162459172
  0
VERTEX
  8
0
 62
7
  6
CONTINUOUS
 10
5.5280618809
 20
280.4651547829
  0
VERTEX
  8
0
 62
7
  6
CONTINUOUS
 10
5.4456322241
 20
280.2184759802
  0
VERTEX
  8
0
 62
7
  6
CONTINUOUS
 10
5.3758734581
 20
279.9373549738
  0
VERTEX
  8
0
 62
7
  6
CONTINUOUS
 10
5.3280118994
 20
279.6300329706
  0
VERTEX
  8
0
 62
7
  6
CONTINUOUS
 10
5.3088840474
 20
279.3069799008
  0
VERTEX
  8
0
 62
7
  6
CONTINUOUS
 10
5.3117101371
 20
279.1334003659
  0
SEQEND
  0
LINE
  8
0
 62
9
  6
CONTINUOUS
 10
8.789949246
 20
282.9031809176
 11
8.6956447335
 21
282.6597140021
  0
LINE
  8
0
 62
7
  6
CONTINUOUS
 10
5.5476846411
 20
280.5162302185
 11
5.8655614433
 21
281.3276667617
  0
POLYLINE
  8
0
 62
9
  6
CONTINUOUS
 66
1
 70
0
  0
VERTEX
  8
0
 62
9
  6
CONTINUOUS
 10
8.5937923383
 20
282.4114784127
  0
VERTEX
  8
0
 62
9
  6
CONTINUOUS
 10
8.5831723132
 20
282.385197994
  0
VERTEX
  8
0
 62
9
  6
CONTINUOUS
 10
8.5742823071
 20
282.3590034783
  0
VERTEX
  8
0
 62
9
  6
CONTINUOUS
 10
8.5670444141
 20
282.3329303146
  0
VERTEX
  8
0
 62
9
  6
CONTINUOUS
 10
8.5616914613
 20
282.3069880178
  0
VERTEX
  8
0
 62
9
  6
CONTINUOUS
 10
8.5584562732
 20
282.281186443
  0
VERTEX
  8
0
 62
9
  6
CONTINUOUS
 10
8.5572609409
 20
282.2555614747
  0
SEQEND
  0
LINE
  8
0
 62
9
  6
CONTINUOUS
 10
8.6956447335
 20
282.6597140021
 11
8.5937923383
 21
282.4114784127
  0
POLYLINE
  8
0
 62
9
  6
CONTINUOUS
 66
1
 70
0
  0
VERTEX
  8
0
 62
9
  6
CONTINUOUS
 10
9.0938513809
 20
283.6839367094
  0
VERTEX
  8
0
 62
9
  6
CONTINUOUS
 10
9.0285476266
 20
283.5294656554
  0
VERTEX
  8
0
 62
9
  6
CONTINUOUS
 10
8.9561576602
 20
283.3441634963
  0
VERTEX
  8
0
 62
9
  6
CONTINUOUS
 10
8.789949246
 20
282.9031809176
  0
SEQEND
  0
POLYLINE
  8
0
 62
9
  6
CONTINUOUS
 66
1
 70
0
  0
VERTEX
  8
0
 62
9
  6
CONTINUOUS
 10
5.5503961892
 20
280.52310761
  0
VERTEX
  8
0
 62
9
  6
CONTINUOUS
 10
5.6922235513
 20
280.8297658082
  0
VERTEX
  8
0
 62
9
  6
CONTINUOUS
 10
5.9483302019
 20
281.2302164346
  0
VERTEX
  8
0
 62
9
  6
CONTINUOUS
 10
6.2718358502
 20
281.5921101429
  0
VERTEX
  8
0
 62
9
  6
CONTINUOUS
 10
6.6555812426
 20
281.9011694293
  0
VERTEX
  8
0
 62
9
  6
CONTINUOUS
 10
7.0918105767
 20
282.1464364281
  0
VERTEX
  8
0
 62
9
  6
CONTINUOUS
 10
7.5701890419
 20
282.3177304638
  0
VERTEX
  8
0
 62
9
  6
CONTINUOUS
 10
8.0801332305
 20
282.4066698514
  0
VERTEX
  8
0
 62
9
  6
CONTINUOUS
 10
8.593828417
 20
282.406983085
  0
SEQEND
  0
POLYLINE
  8
0
 62
9
  6
CONTINUOUS
 66
1
 70
0
  0
VERTEX
  8
0
 62
9
  6
CONTINUOUS
 10
5.310514496
 20
279.3566795096
  0
VERTEX
  8
0
 62
9
  6
CONTINUOUS
 10
5.3752994816
 20
279.8880613973
  0
VERTEX
  8
0
 62
9
  6
CONTINUOUS
 10
5.5264039225
 20
280.3818328751
  0
VERTEX
  8
0
 62
9
  6
CONTINUOUS
 10
5.7585638391
 20
280.8400368599
  0
VERTEX
  8
0
 62
9
  6
CONTINUOUS
 10
6.0737824754
 20
281.2611582988
  0
VERTEX
  8
0
 62
9
  6
CONTINUOUS
 10
6.4652568346
 20
281.6266140856
  0
VERTEX
  8
0
 62
9
  6
CONTINUOUS
 10
6.9244507904
 20
281.9213290298
  0
VERTEX
  8
0
 62
9
  6
CONTINUOUS
 10
7.43908197
 20
282.1309611485
  0
VERTEX
  8
0
 62
9
  6
CONTINUOUS
 10
7.9956084768
 20
282.2434109404
  0
VERTEX
  8
0
 62
9
  6
CONTINUOUS
 10
8.5573037495
 20
282.2495486641
  0
SEQEND
  0
POLYLINE
  8
0
 62
7
  6
CONTINUOUS
 66
1
 70
0
  0
VERTEX
  8
0
 62
7
  6
CONTINUOUS
 10
8.7926092939
 20
284.2348728516
  0
VERTEX
  8
0
 62
7
  6
CONTINUOUS
 10
8.3428420338
 20
283.9873975795
  0
VERTEX
  8
0
 62
7
  6
CONTINUOUS
 10
7.9981672649
 20
283.6725457135
  0
SEQEND
  0
LINE
  8
0
 62
7
  6
CONTINUOUS
 10
8.1863281483
 20
283.7705148202
 11
8.3137194077
 21
283.8382033631
  0
LINE
  8
0
 62
7
  6
CONTINUOUS
 10
9.8104693282
 20
284.5180513152
 11
9.5580074014
 21
284.3853328296
  0
POLYLINE
  8
0
 62
7
  6
CONTINUOUS
 66
1
 70
0
  0
VERTEX
  8
0
 62
7
  6
CONTINUOUS
 10
8.3137194077
 20
283.8382033631
  0
VERTEX
  8
0
 62
7
  6
CONTINUOUS
 10
7.3447860126
 20
283.3295355167
  0
VERTEX
  8
0
 62
7
  6
CONTINUOUS
 10
6.3523168697
 20
282.2681125663
  0
VERTEX
  8
0
 62
7
  6
CONTINUOUS
 10
5.8655614433
 20
281.3276667617
  0
SEQEND
  0
POLYLINE
  8
0
 62
9
  6
CONTINUOUS
 66
1
 70
0
  0
VERTEX
  8
0
 62
9
  6
CONTINUOUS
 10
10.4358351221
 20
284.8001656458
  0
VERTEX
  8
0
 62
9
  6
CONTINUOUS
 10
10.2018239854
 20
284.6946727658
  0
VERTEX
  8
0
 62
9
  6
CONTINUOUS
 10
9.8532811453
 20
284.3798018978
  0
VERTEX
  8
0
 62
9
  6
CONTINUOUS
 10
9.5360551494
 20
284.1259218162
  0
VERTEX
  8
0
 62
9
  6
CONTINUOUS
 10
9.286367171
 20
283.9722085545
  0
VERTEX
  8
0
 62
9
  6
CONTINUOUS
 10
9.0938193689
 20
283.6874467228
  0
SEQEND
  0
LINE
  8
0
 62
9
  6
CONTINUOUS
 10
5.3117101371
 20
279.1334003659
 11
5.310514496
 21
279.3566795096
  0
POLYLINE
  8
0
 62
9
  6
CONTINUOUS
 66
1
 70
0
  0
VERTEX
  8
0
 62
9
  6
CONTINUOUS
 10
9.0938513809
 20
283.6839367094
  0
VERTEX
  8
0
 62
9
  6
CONTINUOUS
 10
9.9074986184
 20
283.9578941417
  0
VERTEX
  8
0
 62
9
  6
CONTINUOUS
 10
10.7594713239
 20
284.1244174673
  0
SEQEND
  0
POLYLINE
  8
0
 62
9
  6
CONTINUOUS
 66
1
 70
0
  0
VERTEX
  8
0
 62
9
  6
CONTINUOUS
 10
10.7594713239
 20
284.1244174673
  0
VERTEX
  8
0
 62
9
  6
CONTINUOUS
 10
11.6445133175
 20
284.4131398409
  0
VERTEX
  8
0
 62
9
  6
CONTINUOUS
 10
12.5736516509
 20
284.7523848665
  0
VERTEX
  8
0
 62
9
  6
CONTINUOUS
 10
13.3680405265
 20
284.9027909366
  0
SEQEND
  0
POLYLINE
  8
0
 62
7
  6
CONTINUOUS
 66
1
 70
0
  0
VERTEX
  8
0
 62
7
  6
CONTINUOUS
 10
5.3118582897
 20
279.1299717486
  0
VERTEX
  8
0
 62
7
  6
CONTINUOUS
 10
5.3157305904
 20
279.0598172361
  0
VERTEX
  8
0
 62
7
  6
CONTINUOUS
 10
5.3463276531
 20
278.7857753359
  0
SEQEND
  0
LINE
  8
0
 62
7
  6
CONTINUOUS
 10
5.3118586981
 20
279.1299624216
 11
5.3117101371
 21
279.1334003659
  0
POLYLINE
  8
0
 62
9
  6
CONTINUOUS
 66
1
 70
0
  0
VERTEX
  8
0
 62
9
  6
CONTINUOUS
 10
6.9517188733
 20
275.5496204046
  0
VERTEX
  8
0
 62
9
  6
CONTINUOUS
 10
6.9612580982
 20
275.2090505957
  0
VERTEX
  8
0
 62
9
  6
CONTINUOUS
 10
7.0137902074
 20
275.0404496841
  0
SEQEND
  0
POLYLINE
  8
0
 62
9
  6
CONTINUOUS
 66
1
 70
0
  0
VERTEX
  8
0
 62
9
  6
CONTINUOUS
 10
15.4874575053
 20
278.5892544774
  0
VERTEX
  8
0
 62
9
  6
CONTINUOUS
 10
15.5206262015
 20
279.0738950816
  0
VERTEX
  8
0
 62
9
  6
CONTINUOUS
 10
15.6247231241
 20
279.5459733621
  0
VERTEX
  8
0
 62
9
  6
CONTINUOUS
 10
15.7905341659
 20
279.9792125462
  0
VERTEX
  8
0
 62
9
  6
CONTINUOUS
 10
16.0149291931
 20
280.3762940544
  0
VERTEX
  8
0
 62
9
  6
CONTINUOUS
 10
16.299296999
 20
280.7364564969
  0
VERTEX
  8
0
 62
9
  6
CONTINUOUS
 10
16.6375839715
 20
281.0460451357
  0
VERTEX
  8
0
 62
9
  6
CONTINUOUS
 10
17.023202916
 20
281.2945499707
  0
VERTEX
  8
0
 62
9
  6
CONTINUOUS
 10
17.4473642927
 20
281.4721690357
  0
VERTEX
  8
0
 62
9
  6
CONTINUOUS
 10
17.9011210171
 20
281.5708122131
  0
VERTEX
  8
0
 62
9
  6
CONTINUOUS
 10
18.1195829116
 20
281.5876743642
  0
SEQEND
  0
LINE
  8
0
 62
9
  6
CONTINUOUS
 10
14.6202038513
 20
284.990437445
 11
14.627992521
 21
284.992823392
  0
LINE
  8
0
 62
9
  6
CONTINUOUS
 10
14.5967352252
 20
284.9832497641
 11
14.6202038513
 21
284.990437445
  0
LINE
  8
0
 62
7
  6
CONTINUOUS
 10
5.3898198302
 20
278.5399905669
 11
5.4353478393
 21
278.3198491765
  0
LINE
  8
0
 62
7
  6
CONTINUOUS
 10
5.3898198302
 20
278.5399905669
 11
5.3906607537
 21
278.5357241372
  0
LINE
  8
0
 62
7
  6
CONTINUOUS
 10
5.3462787714
 20
278.7861725052
 11
5.3906607537
 21
278.5357241372
  0
LINE
  8
0
 62
7
  6
CONTINUOUS
 10
5.3464247724
 20
278.7852452699
 11
5.3462787714
 21
278.7861725052
  0
LINE
  8
0
 62
7
  6
CONTINUOUS
 10
74.728114358
 20
17.4210675428
 11
293.8226548631
 21
17.4210675428
  0
POLYLINE
  8
0
 62
9
  6
CONTINUOUS
 66
1
 70
0
  0
VERTEX
  8
0
 62
9
  6
CONTINUOUS
 10
5.4612429267
 20
278.2227609608
  0
VERTEX
  8
0
 62
9
  6
CONTINUOUS
 10
5.6439424813
 20
277.6328772296
  0
VERTEX
  8
0
 62
9
  6
CONTINUOUS
 10
5.8861334097
 20
277.0658065146
  0
VERTEX
  8
0
 62
9
  6
CONTINUOUS
 10
6.1861322894
 20
276.5256022267
  0
VERTEX
  8
0
 62
9
  6
CONTINUOUS
 10
6.5423419941
 20
276.0165781096
  0
SEQEND
  0
LINE
  8
0
 62
9
  6
CONTINUOUS
 10
5.4146510152
 20
278.5429675185
 11
5.3464247724
 21
278.7852452699
  0
LINE
  8
0
 62
7
  6
CONTINUOUS
 10
5.5177146465
 20
277.9691793079
 11
5.6177225656
 21
277.6070911017
  0
LINE
  8
0
 62
7
  6
CONTINUOUS
 10
5.4353478393
 20
278.3198491765
 11
5.5177146465
 21
277.9691793079
  0
LINE
  8
0
 62
9
  6
CONTINUOUS
 10
5.3906607537
 20
278.5357241372
 11
5.4612429267
 21
278.2227609608
  0
LINE
  8
0
 62
7
  6
CONTINUOUS
 10
5.7491095907
 20
277.2070996373
 11
5.9265047067
 21
276.7596456261
  0
LINE
  8
0
 62
7
  6
CONTINUOUS
 10
5.6177225656
 20
277.6070911017
 11
5.7491095907
 21
277.2070996373
  0
POLYLINE
  8
0
 62
9
  6
CONTINUOUS
 66
1
 70
0
  0
VERTEX
  8
0
 62
9
  6
CONTINUOUS
 10
64.1905172153
 20
278.3335681293
  0
VERTEX
  8
0
 62
9
  6
CONTINUOUS
 10
64.2150885821
 20
277.5483186568
  0
VERTEX
  8
0
 62
9
  6
CONTINUOUS
 10
64.2900479446
 20
276.7687135971
  0
VERTEX
  8
0
 62
9
  6
CONTINUOUS
 10
64.4135395891
 20
276.0192937324
  0
VERTEX
  8
0
 62
9
  6
CONTINUOUS
 10
64.5841569372
 20
275.3082140262
  0
VERTEX
  8
0
 62
9
  6
CONTINUOUS
 10
64.8008227333
 20
274.6443001699
  0
VERTEX
  8
0
 62
9
  6
CONTINUOUS
 10
65.0569138004
 20
274.049070683
  0
SEQEND
  0
POLYLINE
  8
0
 62
9
  6
CONTINUOUS
 66
1
 70
0
  0
VERTEX
  8
0
 62
9
  6
CONTINUOUS
 10
87.2374561612
 20
277.6039339955
  0
VERTEX
  8
0
 62
9
  6
CONTINUOUS
 10
87.2023534122
 20
276.8421557654
  0
VERTEX
  8
0
 62
9
  6
CONTINUOUS
 10
87.1951983194
 20
276.0855437097
  0
VERTEX
  8
0
 62
9
  6
CONTINUOUS
 10
87.2164599582
 20
275.35668283
  0
VERTEX
  8
0
 62
9
  6
CONTINUOUS
 10
87.2659036912
 20
274.6627604269
  0
VERTEX
  8
0
 62
9
  6
CONTINUOUS
 10
87.343551148
 20
274.0116399441
  0
VERTEX
  8
0
 62
9
  6
CONTINUOUS
 10
87.4472708321
 20
273.4234425041
  0
SEQEND
  0
POLYLINE
  8
0
 62
7
  6
CONTINUOUS
 66
1
 70
0
  0
VERTEX
  8
0
 62
7
  6
CONTINUOUS
 10
5.9265047067
 20
276.7596456261
  0
VERTEX
  8
0
 62
7
  6
CONTINUOUS
 10
6.1782712748
 20
276.2427896092
  0
VERTEX
  8
0
 62
7
  6
CONTINUOUS
 10
6.5483400744
 20
275.63970373
  0
SEQEND
  0
POLYLINE
  8
0
 62
9
  6
CONTINUOUS
 66
1
 70
0
  0
VERTEX
  8
0
 62
9
  6
CONTINUOUS
 10
6.664422811
 20
277.6498646072
  0
VERTEX
  8
0
 62
9
  6
CONTINUOUS
 10
6.8289926499
 20
277.2837334351
  0
VERTEX
  8
0
 62
9
  6
CONTINUOUS
 10
7.0176639085
 20
276.9294769063
  0
VERTEX
  8
0
 62
9
  6
CONTINUOUS
 10
7.2287095422
 20
276.5900627564
  0
VERTEX
  8
0
 62
9
  6
CONTINUOUS
 10
7.4617187747
 20
276.2658400623
  0
VERTEX
  8
0
 62
9
  6
CONTINUOUS
 10
7.7164307153
 20
275.9573197446
  0
VERTEX
  8
0
 62
9
  6
CONTINUOUS
 10
7.9906697583
 20
275.6672009793
  0
SEQEND
  0
POLYLINE
  8
0
 62
9
  6
CONTINUOUS
 66
1
 70
0
  0
VERTEX
  8
0
 62
9
  6
CONTINUOUS
 10
8.5572609409
 20
282.2555614747
  0
VERTEX
  8
0
 62
9
  6
CONTINUOUS
 10
8.5881285147
 20
282.1809966925
  0
VERTEX
  8
0
 62
9
  6
CONTINUOUS
 10
8.6792356951
 20
282.1039906258
  0
VERTEX
  8
0
 62
9
  6
CONTINUOUS
 10
8.8313124758
 20
282.0257133977
  0
VERTEX
  8
0
 62
9
  6
CONTINUOUS
 10
9.0421299001
 20
281.9477294874
  0
VERTEX
  8
0
 62
9
  6
CONTINUOUS
 10
9.3094582578
 20
281.8717014663
  0
VERTEX
  8
0
 62
9
  6
CONTINUOUS
 10
9.634024948
 20
281.7991372851
  0
SEQEND
  0
POLYLINE
  8
0
 62
9
  6
CONTINUOUS
 66
1
 70
0
  0
VERTEX
  8
0
 62
9
  6
CONTINUOUS
 10
92.4429272659
 20
17.4211208981
  0
VERTEX
  8
0
 62
9
  6
CONTINUOUS
 10
92.1715602464
 20
22.7011087242
  0
VERTEX
  8
0
 62
9
  6
CONTINUOUS
 10
91.9279591173
 20
27.7403487944
  0
VERTEX
  8
0
 62
9
  6
CONTINUOUS
 10
91.7187852489
 20
32.4159634409
  0
VERTEX
  8
0
 62
9
  6
CONTINUOUS
 10
91.5280481484
 20
37.0986283897
  0
VERTEX
  8
0
 62
9
  6
CONTINUOUS
 10
91.3371238448
 20
42.3215826767
  0
VERTEX
  8
0
 62
9
  6
CONTINUOUS
 10
91.1695707083
 20
47.4765928639
  0
VERTEX
  8
0
 62
9
  6
CONTINUOUS
 10
91.0352120452
 20
52.0562710249
  0
VERTEX
  8
0
 62
9
  6
CONTINUOUS
 10
90.9219845514
 20
56.280222552
  0
VERTEX
  8
0
 62
9
  6
CONTINUOUS
 10
90.8282937259
 20
60.0776793445
  0
VERTEX
  8
0
 62
9
  6
CONTINUOUS
 10
90.742215271
 20
63.8154553867
  0
VERTEX
  8
0
 62
9
  6
CONTINUOUS
 10
90.6542699362
 20
67.9102907223
  0
VERTEX
  8
0
 62
9
  6
CONTINUOUS
 10
90.5686764031
 20
72.1458405612
  0
VERTEX
  8
0
 62
9
  6
CONTINUOUS
 10
90.3981942132
 20
80.8037394049
  0
SEQEND
  0
POLYLINE
  8
0
 62
9
  6
CONTINUOUS
 66
1
 70
0
  0
VERTEX
  8
0
 62
9
  6
CONTINUOUS
 10
90.3981942132
 20
80.8037394049
  0
VERTEX
  8
0
 62
9
  6
CONTINUOUS
 10
90.3206771272
 20
84.5892657955
  0
VERTEX
  8
0
 62
9
  6
CONTINUOUS
 10
90.2475089903
 20
87.9584089683
  0
VERTEX
  8
0
 62
9
  6
CONTINUOUS
 10
90.1850982235
 20
90.6545130514
  0
VERTEX
  8
0
 62
9
  6
CONTINUOUS
 10
90.1204693379
 20
93.2880081419
  0
VERTEX
  8
0
 62
9
  6
CONTINUOUS
 10
90.0315632503
 20
96.6265566353
  0
VERTEX
  8
0
 62
9
  6
CONTINUOUS
 10
89.933925818
 20
99.9360165781
  0
VERTEX
  8
0
 62
9
  6
CONTINUOUS
 10
89.8469753981
 20
102.6322667236
  0
VERTEX
  8
0
 62
9
  6
CONTINUOUS
 10
89.7627944583
 20
105.0411414872
  0
VERTEX
  8
0
 62
9
  6
CONTINUOUS
 10
89.6780360654
 20
107.2836155222
  0
VERTEX
  8
0
 62
9
  6
CONTINUOUS
 10
89.5924683313
 20
109.3882487165
  0
VERTEX
  8
0
 62
9
  6
CONTINUOUS
 10
89.5057459439
 20
111.3727051075
  0
VERTEX
  8
0
 62
9
  6
CONTINUOUS
 10
89.4115364591
 20
113.389583752
  0
VERTEX
  8
0
 62
9
  6
CONTINUOUS
 10
89.2977644462
 20
115.6493975273
  0
VERTEX
  8
0
 62
9
  6
CONTINUOUS
 10
89.1699065034
 20
117.9924228144
  0
VERTEX
  8
0
 62
9
  6
CONTINUOUS
 10
89.0329634862
 20
120.3101083
  0
VERTEX
  8
0
 62
9
  6
CONTINUOUS
 10
88.8826545847
 20
122.661485252
  0
VERTEX
  8
0
 62
9
  6
CONTINUOUS
 10
88.7167389
 20
125.057220385
  0
VERTEX
  8
0
 62
9
  6
CONTINUOUS
 10
88.531072369
 20
127.5328890978
  0
VERTEX
  8
0
 62
9
  6
CONTINUOUS
 10
88.3236726492
 20
130.0766887751
  0
VERTEX
  8
0
 62
9
  6
CONTINUOUS
 10
88.0791743281
 20
132.8392980374
  0
VERTEX
  8
0
 62
9
  6
CONTINUOUS
 10
87.7677382179
 20
136.0408792271
  0
VERTEX
  8
0
 62
9
  6
CONTINUOUS
 10
87.3996080958
 20
139.4512075808
  0
VERTEX
  8
0
 62
9
  6
CONTINUOUS
 10
86.9870256842
 20
142.8942585683
  0
VERTEX
  8
0
 62
9
  6
CONTINUOUS
 10
86.5158657988
 20
146.434532235
  0
VERTEX
  8
0
 62
9
  6
CONTINUOUS
 10
85.9813246643
 20
150.0438282129
  0
VERTEX
  8
0
 62
9
  6
CONTINUOUS
 10
85.3592833027
 20
153.8215393993
  0
VERTEX
  8
0
 62
9
  6
CONTINUOUS
 10
84.6053981855
 20
157.9123223904
  0
VERTEX
  8
0
 62
9
  6
CONTINUOUS
 10
83.7297500175
 20
162.1375499364
  0
VERTEX
  8
0
 62
9
  6
CONTINUOUS
 10
82.7547753589
 20
166.3291302259
  0
VERTEX
  8
0
 62
9
  6
CONTINUOUS
 10
81.6403163488
 20
170.6132994398
  0
VERTEX
  8
0
 62
9
  6
CONTINUOUS
 10
80.343632323
 20
175.0749682818
  0
VERTEX
  8
0
 62
9
  6
CONTINUOUS
 10
78.8584756815
 20
179.6583763937
  0
VERTEX
  8
0
 62
9
  6
CONTINUOUS
 10
77.1589053062
 20
184.3721798213
  0
VERTEX
  8
0
 62
9
  6
CONTINUOUS
 10
75.2607051629
 20
189.1078623836
  0
VERTEX
  8
0
 62
9
  6
CONTINUOUS
 10
73.1946456261
 20
193.7662836657
  0
VERTEX
  8
0
 62
9
  6
CONTINUOUS
 10
70.95427872
 20
198.3485735854
  0
VERTEX
  8
0
 62
9
  6
CONTINUOUS
 10
68.5162634406
 20
202.9094604363
  0
VERTEX
  8
0
 62
9
  6
CONTINUOUS
 10
66.0233695812
 20
207.2086086904
  0
VERTEX
  8
0
 62
9
  6
CONTINUOUS
 10
63.6801890747
 20
210.9869610525
  0
VERTEX
  8
0
 62
9
  6
CONTINUOUS
 10
61.4375272422
 20
214.4064287347
  0
VERTEX
  8
0
 62
9
  6
CONTINUOUS
 10
59.2976161459
 20
217.5147769993
  0
VERTEX
  8
0
 62
9
  6
CONTINUOUS
 10
57.2457837429
 20
220.3746153992
  0
VERTEX
  8
0
 62
9
  6
CONTINUOUS
 10
55.3013216396
 20
222.9866549428
  0
VERTEX
  8
0
 62
9
  6
CONTINUOUS
 10
53.3168253239
 20
225.5690954107
  0
VERTEX
  8
0
 62
9
  6
CONTINUOUS
 10
51.0039830328
 20
228.4846850474
  0
VERTEX
  8
0
 62
9
  6
CONTINUOUS
 10
48.7213956677
 20
231.2738280195
  0
VERTEX
  8
0
 62
9
  6
CONTINUOUS
 10
46.8743266454
 20
233.4775741308
  0
VERTEX
  8
0
 62
9
  6
CONTINUOUS
 10
45.1534632043
 20
235.4947668425
  0
VERTEX
  8
0
 62
9
  6
CONTINUOUS
 10
43.2968464013
 20
237.6349065486
  0
VERTEX
  8
0
 62
9
  6
CONTINUOUS
 10
41.4927391008
 20
239.6831191787
  0
VERTEX
  8
0
 62
9
  6
CONTINUOUS
 10
39.8786848749
 20
241.4933367869
  0
VERTEX
  8
0
 62
9
  6
CONTINUOUS
 10
38.3647560312
 20
243.1749936114
  0
VERTEX
  8
0
 62
9
  6
CONTINUOUS
 10
36.9032597665
 20
244.7851774749
  0
VERTEX
  8
0
 62
9
  6
CONTINUOUS
 10
35.4913609886
 20
246.3304890028
  0
VERTEX
  8
0
 62
9
  6
CONTINUOUS
 10
34.1162950441
 20
247.8272958493
  0
VERTEX
  8
0
 62
9
  6
CONTINUOUS
 10
32.7558121388
 20
249.3019957233
  0
VERTEX
  8
0
 62
9
  6
CONTINUOUS
 10
31.3806243873
 20
250.7873670461
  0
VERTEX
  8
0
 62
9
  6
CONTINUOUS
 10
29.9949447653
 20
252.2793131279
  0
VERTEX
  8
0
 62
9
  6
CONTINUOUS
 10
28.6069796191
 20
253.7692879235
  0
VERTEX
  8
0
 62
9
  6
CONTINUOUS
 10
27.1744710495
 20
255.3031015215
  0
VERTEX
  8
0
 62
9
  6
CONTINUOUS
 10
25.6490403046
 20
256.9323231436
  0
VERTEX
  8
0
 62
9
  6
CONTINUOUS
 10
24.0554101169
 20
258.6305392509
  0
VERTEX
  8
0
 62
9
  6
CONTINUOUS
 10
22.4123126924
 20
260.3780074726
  0
VERTEX
  8
0
 62
9
  6
CONTINUOUS
 10
20.69027001
 20
262.2065805288
  0
VERTEX
  8
0
 62
9
  6
CONTINUOUS
 10
12.7211279692
 20
270.652268256
  0
SEQEND
  0
LINE
  8
0
 62
9
  6
CONTINUOUS
 10
87.2374555284
 20
277.6039241093
 11
87.2374555284
 21
279.3170786697
  0
POLYLINE
  8
0
 62
9
  6
CONTINUOUS
 66
1
 70
0
  0
VERTEX
  8
0
 62
9
  6
CONTINUOUS
 10
87.2374555075
 20
279.317076008
  0
VERTEX
  8
0
 62
9
  6
CONTINUOUS
 10
87.257442395
 20
279.8904143752
  0
VERTEX
  8
0
 62
9
  6
CONTINUOUS
 10
87.3086660449
 20
280.4509117982
  0
VERTEX
  8
0
 62
9
  6
CONTINUOUS
 10
87.3870014205
 20
280.9572848916
  0
VERTEX
  8
0
 62
9
  6
CONTINUOUS
 10
87.4908913892
 20
281.4057668657
  0
VERTEX
  8
0
 62
9
  6
CONTINUOUS
 10
87.6192645212
 20
281.7850402342
  0
VERTEX
  8
0
 62
9
  6
CONTINUOUS
 10
87.7685226045
 20
282.0749513551
  0
VERTEX
  8
0
 62
9
  6
CONTINUOUS
 10
87.9354571194
 20
282.258509437
  0
VERTEX
  8
0
 62
9
  6
CONTINUOUS
 10
88.1029124103
 20
282.3169698638
  0
SEQEND
  0
POLYLINE
  8
0
 62
9
  6
CONTINUOUS
 66
1
 70
0
  0
VERTEX
  8
0
 62
9
  6
CONTINUOUS
 10
174.2679891016
 20
286.4122784195
  0
VERTEX
  8
0
 62
9
  6
CONTINUOUS
 10
174.2332199527
 20
286.3424406364
  0
VERTEX
  8
0
 62
9
  6
CONTINUOUS
 10
174.1968775129
 20
286.0833848004
  0
SEQEND
  0
POLYLINE
  8
0
 62
9
  6
CONTINUOUS
 66
1
 70
0
  0
VERTEX
  8
0
 62
9
  6
CONTINUOUS
 10
174.3951308138
 20
286.4152777256
  0
VERTEX
  8
0
 62
9
  6
CONTINUOUS
 10
174.3598158002
 20
286.3454574693
  0
VERTEX
  8
0
 62
9
  6
CONTINUOUS
 10
174.3228069507
 20
286.086331474
  0
SEQEND
  0
LINE
  8
0
 62
9
  6
CONTINUOUS
 10
350.8564529897
 20
282.833702882
 11
349.7618226292
 21
282.4215958146
  0
LINE
  8
0
 62
9
  6
CONTINUOUS
 10
362.2284335163
 20
277.7471661837
 11
361.8796536435
 21
277.6416274978
  0
LINE
  8
0
 62
7
  6
CONTINUOUS
 10
6.5483400744
 20
275.63970373
 11
7.0156958727
 21
275.0438358374
  0
LINE
  8
0
 62
9
  6
CONTINUOUS
 10
174.2752566318
 20
283.0728704144
 11
174.2906463142
 21
283.1119787829
  0
LINE
  8
0
 62
9
  6
CONTINUOUS
 10
174.0853343313
 20
283.0703002039
 11
174.1006803988
 21
283.1091893119
  0
LINE
  8
0
 62
9
  6
CONTINUOUS
 10
12.7211279692
 20
270.652268256
 11
10.4191060674
 21
273.0945636584
  0
LINE
  8
0
 62
9
  6
CONTINUOUS
 10
10.4191060674
 20
273.0945636584
 11
7.990047498
 21
275.675730047
  0
POLYLINE
  8
0
 62
7
  6
CONTINUOUS
 66
1
 70
0
  0
VERTEX
  8
0
 62
7
  6
CONTINUOUS
 10
7.0139156223
 20
275.0403063851
  0
VERTEX
  8
0
 62
7
  6
CONTINUOUS
 10
8.2824740361
 20
273.6067052456
  0
VERTEX
  8
0
 62
7
  6
CONTINUOUS
 10
11.0050858643
 20
270.5005567247
  0
VERTEX
  8
0
 62
7
  6
CONTINUOUS
 10
13.2694846496
 20
267.8758023847
  0
VERTEX
  8
0
 62
7
  6
CONTINUOUS
 10
15.1342175321
 20
265.6744313023
  0
VERTEX
  8
0
 62
7
  6
CONTINUOUS
 10
16.6189616283
 20
263.8858295593
  0
VERTEX
  8
0
 62
7
  6
CONTINUOUS
 10
17.8359301474
 20
262.3919757127
  0
VERTEX
  8
0
 62
7
  6
CONTINUOUS
 10
18.9144279039
 20
261.0461199475
  0
VERTEX
  8
0
 62
7
  6
CONTINUOUS
 10
19.8047418829
 20
259.9180433087
  0
VERTEX
  8
0
 62
7
  6
CONTINUOUS
 10
20.3992860609
 20
259.1539933225
  0
VERTEX
  8
0
 62
7
  6
CONTINUOUS
 10
20.9971342575
 20
258.3765901594
  0
VERTEX
  8
0
 62
7
  6
CONTINUOUS
 10
21.8944604188
 20
257.1994333866
  0
VERTEX
  8
0
 62
7
  6
CONTINUOUS
 10
22.9632328534
 20
255.7865164957
  0
VERTEX
  8
0
 62
7
  6
CONTINUOUS
 10
24.1794360539
 20
254.1675447222
  0
VERTEX
  8
0
 62
7
  6
CONTINUOUS
 10
25.5280546809
 20
252.3592570653
  0
VERTEX
  8
0
 62
7
  6
CONTINUOUS
 10
27.0188165693
 20
250.3445209151
  0
VERTEX
  8
0
 62
7
  6
CONTINUOUS
 10
28.5510896093
 20
248.2538933672
  0
VERTEX
  8
0
 62
7
  6
CONTINUOUS
 10
30.0193397766
 20
246.2271974264
  0
VERTEX
  8
0
 62
7
  6
CONTINUOUS
 10
31.4530402926
 20
244.2211135792
  0
VERTEX
  8
0
 62
7
  6
CONTINUOUS
 10
32.8027262294
 20
242.30344837
  0
VERTEX
  8
0
 62
7
  6
CONTINUOUS
 10
34.2018808288
 20
240.2813507165
  0
VERTEX
  8
0
 62
7
  6
CONTINUOUS
 10
35.7605470755
 20
237.9839115695
  0
VERTEX
  8
0
 62
7
  6
CONTINUOUS
 10
37.4704283698
 20
235.4037932735
  0
VERTEX
  8
0
 62
7
  6
CONTINUOUS
 10
39.3520733524
 20
232.4836768266
  0
VERTEX
  8
0
 62
7
  6
CONTINUOUS
 10
41.4013009564
 20
229.1937470798
  0
VERTEX
  8
0
 62
7
  6
CONTINUOUS
 10
43.6186373453
 20
225.4836377535
  0
VERTEX
  8
0
 62
7
  6
CONTINUOUS
 10
45.9708466418
 20
221.3450056229
  0
VERTEX
  8
0
 62
7
  6
CONTINUOUS
 10
48.4503833681
 20
216.7160097147
  0
VERTEX
  8
0
 62
7
  6
CONTINUOUS
 10
50.9586846788
 20
211.699739394
  0
VERTEX
  8
0
 62
7
  6
CONTINUOUS
 10
53.4186813989
 20
206.3772803815
  0
VERTEX
  8
0
 62
7
  6
CONTINUOUS
 10
55.7906738796
 20
200.7631354151
  0
VERTEX
  8
0
 62
7
  6
CONTINUOUS
 10
58.0252899393
 20
194.901769572
  0
VERTEX
  8
0
 62
7
  6
CONTINUOUS
 10
60.1014842815
 20
188.7930136872
  0
VERTEX
  8
0
 62
7
  6
CONTINUOUS
 10
62.0096801414
 20
182.4518188869
  0
VERTEX
  8
0
 62
7
  6
CONTINUOUS
 10
63.7442693804
 20
175.9022750239
  0
VERTEX
  8
0
 62
7
  6
CONTINUOUS
 10
65.3047975206
 20
169.169857133
  0
VERTEX
  8
0
 62
7
  6
CONTINUOUS
 10
66.6967824823
 20
162.2751274368
  0
VERTEX
  8
0
 62
7
  6
CONTINUOUS
 10
67.9279292442
 20
155.2513700461
  0
VERTEX
  8
0
 62
7
  6
CONTINUOUS
 10
69.0161001019
 20
148.0938460416
  0
VERTEX
  8
0
 62
7
  6
CONTINUOUS
 10
69.9782944815
 20
140.8105072925
  0
VERTEX
  8
0
 62
7
  6
CONTINUOUS
 10
70.834437582
 20
133.3996440178
  0
VERTEX
  8
0
 62
7
  6
CONTINUOUS
 10
71.6015505203
 20
125.8601595442
  0
VERTEX
  8
0
 62
7
  6
CONTINUOUS
 10
72.2820708177
 20
118.1907275969
  0
VERTEX
  8
0
 62
7
  6
CONTINUOUS
 10
72.8749538433
 20
110.3905942699
  0
VERTEX
  8
0
 62
7
  6
CONTINUOUS
 10
73.3798366167
 20
102.4480509172
  0
VERTEX
  8
0
 62
7
  6
CONTINUOUS
 10
73.796575241
 20
94.3497359123
  0
VERTEX
  8
0
 62
7
  6
CONTINUOUS
 10
74.1280516623
 20
86.1013180733
  0
VERTEX
  8
0
 62
7
  6
CONTINUOUS
 10
74.379620648
 20
77.7026025264
  0
VERTEX
  8
0
 62
7
  6
CONTINUOUS
 10
74.5568499864
 20
69.1620116667
  0
VERTEX
  8
0
 62
7
  6
CONTINUOUS
 10
74.6667483797
 20
60.4894810109
  0
VERTEX
  8
0
 62
7
  6
CONTINUOUS
 10
74.7228632704
 20
51.6842833695
  0
VERTEX
  8
0
 62
7
  6
CONTINUOUS
 10
74.7420807539
 20
42.7501644399
  0
VERTEX
  8
0
 62
7
  6
CONTINUOUS
 10
74.7424911793
 20
33.6904036767
  0
VERTEX
  8
0
 62
7
  6
CONTINUOUS
 10
74.7366544053
 20
24.5056877925
  0
VERTEX
  8
0
 62
7
  6
CONTINUOUS
 10
74.7225055769
 20
17.4210675428
  0
SEQEND
  0
LINE
  8
0
 62
7
  6
CONTINUOUS
 10
7.0137902074
 20
275.0404496841
 11
7.0139156223
 21
275.0403063851
  0
LINE
  8
0
 62
9
  6
CONTINUOUS
 10
6.5423419941
 20
276.0165781096
 11
6.9481047901
 21
275.5485969199
  0
POLYLINE
  8
0
 62
9
  6
CONTINUOUS
 66
1
 70
0
  0
VERTEX
  8
0
 62
9
  6
CONTINUOUS
 10
134.7090041613
 20
151.7595786581
  0
VERTEX
  8
0
 62
9
  6
CONTINUOUS
 10
133.7134734495
 20
155.3512153594
  0
VERTEX
  8
0
 62
9
  6
CONTINUOUS
 10
132.7044955895
 20
158.8328032873
  0
VERTEX
  8
0
 62
9
  6
CONTINUOUS
 10
131.6856828554
 20
162.1965128505
  0
VERTEX
  8
0
 62
9
  6
CONTINUOUS
 10
130.6471596876
 20
165.4664310798
  0
VERTEX
  8
0
 62
9
  6
CONTINUOUS
 10
129.5811827087
 20
168.6632550909
  0
VERTEX
  8
0
 62
9
  6
CONTINUOUS
 10
128.4864107803
 20
171.7902231942
  0
VERTEX
  8
0
 62
9
  6
CONTINUOUS
 10
127.3532747861
 20
174.8726103766
  0
VERTEX
  8
0
 62
9
  6
CONTINUOUS
 10
126.1980917763
 20
177.8646156749
  0
VERTEX
  8
0
 62
9
  6
CONTINUOUS
 10
125.0411454505
 20
180.7235684738
  0
VERTEX
  8
0
 62
9
  6
CONTINUOUS
 10
123.8763483459
 20
183.4749256979
  0
VERTEX
  8
0
 62
9
  6
CONTINUOUS
 10
122.6969657882
 20
186.1430900727
  0
VERTEX
  8
0
 62
9
  6
CONTINUOUS
 10
121.5251009614
 20
188.6884775587
  0
VERTEX
  8
0
 62
9
  6
CONTINUOUS
 10
120.3877896338
 20
191.0682164316
  0
VERTEX
  8
0
 62
9
  6
CONTINUOUS
 10
119.2734332787
 20
193.3227549916
  0
VERTEX
  8
0
 62
9
  6
CONTINUOUS
 10
118.1809744567
 20
195.4637558672
  0
VERTEX
  8
0
 62
9
  6
CONTINUOUS
 10
117.0967359207
 20
197.5290471968
  0
VERTEX
  8
0
 62
9
  6
CONTINUOUS
 10
116.0014442616
 20
199.5586952426
  0
VERTEX
  8
0
 62
9
  6
CONTINUOUS
 10
114.8985524112
 20
201.5500067833
  0
VERTEX
  8
0
 62
9
  6
CONTINUOUS
 10
113.7801931391
 20
203.5194679489
  0
VERTEX
  8
0
 62
9
  6
CONTINUOUS
 10
112.658429436
 20
205.4479738057
  0
VERTEX
  8
0
 62
9
  6
CONTINUOUS
 10
111.5436154879
 20
207.3215590473
  0
VERTEX
  8
0
 62
9
  6
CONTINUOUS
 10
110.4361977513
 20
209.1432745706
  0
VERTEX
  8
0
 62
9
  6
CONTINUOUS
 10
109.3517113966
 20
210.8915472254
  0
VERTEX
  8
0
 62
9
  6
CONTINUOUS
 10
108.2555489862
 20
212.6264733679
  0
VERTEX
  8
0
 62
9
  6
CONTINUOUS
 10
107.1032932285
 20
214.4173606573
  0
VERTEX
  8
0
 62
9
  6
CONTINUOUS
 10
105.9299678853
 20
216.208815114
  0
VERTEX
  8
0
 62
9
  6
CONTINUOUS
 10
104.7782578013
 20
217.9383877703
  0
VERTEX
  8
0
 62
9
  6
CONTINUOUS
 10
103.5872616507
 20
219.7005961386
  0
VERTEX
  8
0
 62
9
  6
CONTINUOUS
 10
102.3006104778
 20
221.5759506172
  0
VERTEX
  8
0
 62
9
  6
CONTINUOUS
 10
100.9345196316
 20
223.5360122484
  0
SEQEND
  0
POLYLINE
  8
0
 62
9
  6
CONTINUOUS
 66
1
 70
0
  0
VERTEX
  8
0
 62
9
  6
CONTINUOUS
 10
158.4965011083
 20
17.4211409763
  0
VERTEX
  8
0
 62
9
  6
CONTINUOUS
 10
157.3755908922
 20
28.822005491
  0
VERTEX
  8
0
 62
9
  6
CONTINUOUS
 10
156.2020072515
 20
39.7781764368
  0
VERTEX
  8
0
 62
9
  6
CONTINUOUS
 10
154.8906493324
 20
50.2278545325
  0
VERTEX
  8
0
 62
9
  6
CONTINUOUS
 10
153.470192843
 20
60.2153928167
  0
VERTEX
  8
0
 62
9
  6
CONTINUOUS
 10
151.9740980113
 20
69.7841683879
  0
VERTEX
  8
0
 62
9
  6
CONTINUOUS
 10
150.4133397731
 20
78.9440372362
  0
VERTEX
  8
0
 62
9
  6
CONTINUOUS
 10
148.8194586286
 20
87.7319545602
  0
VERTEX
  8
0
 62
9
  6
CONTINUOUS
 10
147.2165708939
 20
96.1425824147
  0
VERTEX
  8
0
 62
9
  6
CONTINUOUS
 10
145.6286801456
 20
104.1291548883
  0
VERTEX
  8
0
 62
9
  6
CONTINUOUS
 10
144.0449864185
 20
111.8263493262
  0
VERTEX
  8
0
 62
9
  6
CONTINUOUS
 10
142.4409814894
 20
119.3769841742
  0
VERTEX
  8
0
 62
9
  6
CONTINUOUS
 10
140.83260605
 20
126.6792575025
  0
VERTEX
  8
0
 62
9
  6
CONTINUOUS
 10
139.2222433459
 20
133.7516122379
  0
VERTEX
  8
0
 62
9
  6
CONTINUOUS
 10
137.6338011811
 20
140.3809516642
  0
VERTEX
  8
0
 62
9
  6
CONTINUOUS
 10
136.1316823514
 20
146.3572446277
  0
VERTEX
  8
0
 62
9
  6
CONTINUOUS
 10
134.7090041613
 20
151.7595786581
  0
SEQEND
  0
POLYLINE
  8
0
 62
9
  6
CONTINUOUS
 66
1
 70
0
  0
VERTEX
  8
0
 62
9
  6
CONTINUOUS
 10
349.7618226292
 20
282.4215958146
  0
VERTEX
  8
0
 62
9
  6
CONTINUOUS
 10
348.720857863
 20
281.8823034261
  0
VERTEX
  8
0
 62
9
  6
CONTINUOUS
 10
348.4001224847
 20
281.6645653654
  0
SEQEND
  0
POLYLINE
  8
0
 62
9
  6
CONTINUOUS
 66
1
 70
0
  0
VERTEX
  8
0
 62
9
  6
CONTINUOUS
 10
174.2680889631
 20
285.0452469722
  0
VERTEX
  8
0
 62
9
  6
CONTINUOUS
 10
174.2503573275
 20
284.2676239646
  0
VERTEX
  8
0
 62
9
  6
CONTINUOUS
 10
174.2397794103
 20
283.3304460742
  0
VERTEX
  8
0
 62
9
  6
CONTINUOUS
 10
174.2391674548
 20
283.1088066944
  0
SEQEND
  0
POLYLINE
  8
0
 62
9
  6
CONTINUOUS
 66
1
 70
0
  0
VERTEX
  8
0
 62
9
  6
CONTINUOUS
 10
174.1968775129
 20
286.0833848004
  0
VERTEX
  8
0
 62
9
  6
CONTINUOUS
 10
174.1669970895
 20
285.6480257655
  0
VERTEX
  8
0
 62
9
  6
CONTINUOUS
 10
174.1434363143
 20
285.0426947805
  0
VERTEX
  8
0
 62
9
  6
CONTINUOUS
 10
174.1263666501
 20
284.2653943536
  0
VERTEX
  8
0
 62
9
  6
CONTINUOUS
 10
174.1164493694
 20
283.3286129623
  0
VERTEX
  8
0
 62
9
  6
CONTINUOUS
 10
174.1159742693
 20
283.1091559618
  0
SEQEND
  0
POLYLINE
  8
0
 62
9
  6
CONTINUOUS
 66
1
 70
0
  0
VERTEX
  8
0
 62
9
  6
CONTINUOUS
 10
174.3228069507
 20
286.086331474
  0
VERTEX
  8
0
 62
9
  6
CONTINUOUS
 10
174.292286413
 20
285.6508159695
  0
VERTEX
  8
0
 62
9
  6
CONTINUOUS
 10
174.2680889631
 20
285.0452469722
  0
SEQEND
  0
POLYLINE
  8
0
 62
9
  6
CONTINUOUS
 66
1
 70
0
  0
VERTEX
  8
0
 62
9
  6
CONTINUOUS
 10
100.9345196316
 20
223.5360122484
  0
VERTEX
  8
0
 62
9
  6
CONTINUOUS
 10
98.5093501591
 20
226.952109125
  0
VERTEX
  8
0
 62
9
  6
CONTINUOUS
 10
95.9501119947
 20
230.4821843765
  0
VERTEX
  8
0
 62
9
  6
CONTINUOUS
 10
93.2703697699
 20
234.1241838954
  0
VERTEX
  8
0
 62
9
  6
CONTINUOUS
 10
90.4609071416
 20
237.9038605562
  0
VERTEX
  8
0
 62
9
  6
CONTINUOUS
 10
87.5095710588
 20
241.8615569569
  0
VERTEX
  8
0
 62
9
  6
CONTINUOUS
 10
84.4588148848
 20
245.963946058
  0
VERTEX
  8
0
 62
9
  6
CONTINUOUS
 10
81.3569449632
 20
250.1819575835
  0
VERTEX
  8
0
 62
9
  6
CONTINUOUS
 10
78.1960122178
 20
254.5567083348
  0
VERTEX
  8
0
 62
9
  6
CONTINUOUS
 10
74.980432667
 20
259.1120889446
  0
VERTEX
  8
0
 62
9
  6
CONTINUOUS
 10
71.7177419108
 20
263.8684201619
  0
VERTEX
  8
0
 62
9
  6
CONTINUOUS
 10
68.4040898775
 20
268.8488188839
  0
VERTEX
  8
0
 62
9
  6
CONTINUOUS
 10
65.0567820169
 20
274.0555510807
  0
SEQEND
  0
POLYLINE
  8
0
 62
9
  6
CONTINUOUS
 66
1
 70
0
  0
VERTEX
  8
0
 62
9
  6
CONTINUOUS
 10
174.2754752926
 20
186.7277274937
  0
VERTEX
  8
0
 62
9
  6
CONTINUOUS
 10
174.2506147251
 20
187.0520233079
  0
VERTEX
  8
0
 62
9
  6
CONTINUOUS
 10
174.2271084689
 20
187.387224384
  0
VERTEX
  8
0
 62
9
  6
CONTINUOUS
 10
174.2047242989
 20
187.7329892774
  0
VERTEX
  8
0
 62
9
  6
CONTINUOUS
 10
174.1841252078
 20
188.0902184764
  0
VERTEX
  8
0
 62
9
  6
CONTINUOUS
 10
174.165806438
 20
188.4597482365
  0
VERTEX
  8
0
 62
9
  6
CONTINUOUS
 10
174.1500343129
 20
188.8414125198
  0
VERTEX
  8
0
 62
9
  6
CONTINUOUS
 10
174.1371106164
 20
189.2355824061
  0
VERTEX
  8
0
 62
9
  6
CONTINUOUS
 10
174.1274231712
 20
189.6414789799
  0
VERTEX
  8
0
 62
9
  6
CONTINUOUS
 10
174.1215273542
 20
190.0583868367
  0
VERTEX
  8
0
 62
9
  6
CONTINUOUS
 10
174.1192260933
 20
190.4865005192
  0
SEQEND
  0
POLYLINE
  8
0
 62
9
  6
CONTINUOUS
 66
1
 70
0
  0
VERTEX
  8
0
 62
9
  6
CONTINUOUS
 10
174.2740145473
 20
179.0775408871
  0
VERTEX
  8
0
 62
9
  6
CONTINUOUS
 10
174.2354777831
 20
179.7094756435
  0
VERTEX
  8
0
 62
9
  6
CONTINUOUS
 10
174.2021796319
 20
180.3524588271
  0
VERTEX
  8
0
 62
9
  6
CONTINUOUS
 10
174.173333918
 20
181.0068628767
  0
VERTEX
  8
0
 62
9
  6
CONTINUOUS
 10
174.1512318109
 20
181.6713228142
  0
VERTEX
  8
0
 62
9
  6
CONTINUOUS
 10
174.1381684915
 20
182.3444884121
  0
VERTEX
  8
0
 62
9
  6
CONTINUOUS
 10
174.1333630581
 20
183.0267514995
  0
SEQEND
  0
POLYLINE
  8
0
 62
9
  6
CONTINUOUS
 66
1
 70
0
  0
VERTEX
  8
0
 62
9
  6
CONTINUOUS
 10
174.2754734659
 20
176.6202677307
  0
VERTEX
  8
0
 62
9
  6
CONTINUOUS
 10
174.2665235933
 20
176.8053765009
  0
VERTEX
  8
0
 62
9
  6
CONTINUOUS
 10
174.2607185187
 20
177.0595520249
  0
VERTEX
  8
0
 62
9
  6
CONTINUOUS
 10
174.2583372008
 20
177.4053785967
  0
VERTEX
  8
0
 62
9
  6
CONTINUOUS
 10
174.2583123151
 20
177.7742560112
  0
VERTEX
  8
0
 62
9
  6
CONTINUOUS
 10
174.2596776321
 20
178.0890048355
  0
VERTEX
  8
0
 62
9
  6
CONTINUOUS
 10
174.2627673157
 20
178.3992651603
  0
SEQEND
  0
POLYLINE
  8
0
 62
9
  6
CONTINUOUS
 66
1
 70
0
  0
VERTEX
  8
0
 62
9
  6
CONTINUOUS
 10
174.1223398248
 20
277.9574934305
  0
VERTEX
  8
0
 62
9
  6
CONTINUOUS
 10
174.1408026993
 20
277.262429117
  0
VERTEX
  8
0
 62
9
  6
CONTINUOUS
 10
174.1624812862
 20
276.5759637419
  0
VERTEX
  8
0
 62
9
  6
CONTINUOUS
 10
174.1870803711
 20
275.9077671356
  0
VERTEX
  8
0
 62
9
  6
CONTINUOUS
 10
174.2143174305
 20
275.2659073301
  0
VERTEX
  8
0
 62
9
  6
CONTINUOUS
 10
174.2438870056
 20
274.6583713951
  0
VERTEX
  8
0
 62
9
  6
CONTINUOUS
 10
174.2753920922
 20
274.0942247533
  0
SEQEND
  0
POLYLINE
  8
0
 62
9
  6
CONTINUOUS
 66
1
 70
0
  0
VERTEX
  8
0
 62
9
  6
CONTINUOUS
 10
174.2753920889
 20
277.9611196617
  0
VERTEX
  8
0
 62
9
  6
CONTINUOUS
 10
174.2937747702
 20
277.2661092537
  0
VERTEX
  8
0
 62
9
  6
CONTINUOUS
 10
174.3153412692
 20
276.5796957785
  0
VERTEX
  8
0
 62
9
  6
CONTINUOUS
 10
174.3397955564
 20
275.9115467228
  0
VERTEX
  8
0
 62
9
  6
CONTINUOUS
 10
174.3668578394
 20
275.2697282589
  0
VERTEX
  8
0
 62
9
  6
CONTINUOUS
 10
174.3962253981
 20
274.6622256239
  0
VERTEX
  8
0
 62
9
  6
CONTINUOUS
 10
174.4275004455
 20
274.0981021123
  0
SEQEND
  0
POLYLINE
  8
0
 62
9
  6
CONTINUOUS
 66
1
 70
0
  0
VERTEX
  8
0
 62
9
  6
CONTINUOUS
 10
174.2753965191
 20
248.3852175716
  0
VERTEX
  8
0
 62
9
  6
CONTINUOUS
 10
174.2754548042
 20
250.7517202795
  0
VERTEX
  8
0
 62
9
  6
CONTINUOUS
 10
174.2753744876
 20
274.094706277
  0
SEQEND
  0
LINE
  8
0
 62
9
  6
CONTINUOUS
 10
174.2753907183
 20
279.8707295674
 11
174.2753907183
 21
277.9611196616
  0
LINE
  8
0
 62
9
  6
CONTINUOUS
 10
174.2752547986
 20
283.0728633175
 11
174.2752820798
 21
282.8570531814
  0
LINE
  8
0
 62
7
  6
CONTINUOUS
 10
184.2753920738
 20
280.6430500454
 11
184.275301234
 21
281.5899355616
  0
LINE
  8
0
 62
9
  6
CONTINUOUS
 10
174.2753965191
 20
248.3852175716
 11
174.2750086541
 21
179.1263142989
  0
LINE
  8
0
 62
9
  6
CONTINUOUS
 10
174.2747609255
 20
168.4817607098
 11
174.2754734659
 21
176.6202677307
  0
LINE
  8
0
 62
9
  6
CONTINUOUS
 10
174.2753963163
 20
17.4210864294
 11
174.2757752434
 21
109.3275584476
  0
LINE
  8
0
 62
9
  6
CONTINUOUS
 10
174.2757752434
 20
109.3275584476
 11
174.2747609255
 21
168.4817607098
  0
LINE
  8
0
 62
7
  6
CONTINUOUS
 10
184.275301234
 20
281.5899355616
 11
184.2753920856
 21
282.8288329742
  0
LINE
  8
0
 62
9
  6
CONTINUOUS
 10
174.1192260933
 20
190.4865005192
 11
174.1219074783
 21
190.9610386779
  0
POLYLINE
  8
0
 62
9
  6
CONTINUOUS
 66
1
 70
0
  0
VERTEX
  8
0
 62
9
  6
CONTINUOUS
 10
174.1333630581
 20
183.0267514995
  0
VERTEX
  8
0
 62
9
  6
CONTINUOUS
 10
174.1377851749
 20
183.6776812343
  0
VERTEX
  8
0
 62
9
  6
CONTINUOUS
 10
174.1501305993
 20
184.3149550912
  0
VERTEX
  8
0
 62
9
  6
CONTINUOUS
 10
174.1706687734
 20
184.938797558
  0
VERTEX
  8
0
 62
9
  6
CONTINUOUS
 10
174.1987074645
 20
185.5489620283
  0
VERTEX
  8
0
 62
9
  6
CONTINUOUS
 10
174.2335539904
 20
186.1452002424
  0
VERTEX
  8
0
 62
9
  6
CONTINUOUS
 10
174.2754752926
 20
186.7277274937
  0
SEQEND
  0
POLYLINE
  8
0
 62
9
  6
CONTINUOUS
 66
1
 70
0
  0
VERTEX
  8
0
 62
9
  6
CONTINUOUS
 10
174.1219074783
 20
190.9610386779
  0
VERTEX
  8
0
 62
9
  6
CONTINUOUS
 10
174.1378539293
 20
191.8911328002
  0
VERTEX
  8
0
 62
9
  6
CONTINUOUS
 10
174.1594190727
 20
192.3433885735
  0
VERTEX
  8
0
 62
9
  6
CONTINUOUS
 10
174.2066320241
 20
192.7804663415
  0
VERTEX
  8
0
 62
9
  6
CONTINUOUS
 10
174.275369733
 20
193.2041154311
  0
SEQEND
  0
LINE
  8
0
 62
9
  6
CONTINUOUS
 10
174.2627673157
 20
178.3992651603
 11
174.2740145473
 21
179.0775408871
  0
POLYLINE
  8
0
 62
9
  6
CONTINUOUS
 66
1
 70
0
  0
VERTEX
  8
0
 62
9
  6
CONTINUOUS
 10
362.7893179368
 20
278.0746964233
  0
VERTEX
  8
0
 62
9
  6
CONTINUOUS
 10
362.5319504436
 20
277.890927931
  0
VERTEX
  8
0
 62
9
  6
CONTINUOUS
 10
362.2284335163
 20
277.7471661837
  0
SEQEND
  0
POLYLINE
  8
0
 62
9
  6
CONTINUOUS
 66
1
 70
0
  0
VERTEX
  8
0
 62
9
  6
CONTINUOUS
 10
194.2825354185
 20
285.0452395392
  0
VERTEX
  8
0
 62
9
  6
CONTINUOUS
 10
194.3002677897
 20
284.2676140494
  0
VERTEX
  8
0
 62
9
  6
CONTINUOUS
 10
194.3108464317
 20
283.3304351022
  0
VERTEX
  8
0
 62
9
  6
CONTINUOUS
 10
194.3114493733
 20
283.1121138195
  0
SEQEND
  0
POLYLINE
  8
0
 62
9
  6
CONTINUOUS
 66
1
 70
0
  0
VERTEX
  8
0
 62
9
  6
CONTINUOUS
 10
194.2809977054
 20
178.9775190495
  0
VERTEX
  8
0
 62
9
  6
CONTINUOUS
 10
194.2886887617
 20
178.3137262507
  0
VERTEX
  8
0
 62
9
  6
CONTINUOUS
 10
194.2913134862
 20
178.011194624
  0
VERTEX
  8
0
 62
9
  6
CONTINUOUS
 10
194.2925897577
 20
177.7064259645
  0
VERTEX
  8
0
 62
9
  6
CONTINUOUS
 10
194.2922221436
 20
177.3527686691
  0
VERTEX
  8
0
 62
9
  6
CONTINUOUS
 10
194.289619193
 20
177.0242736084
  0
VERTEX
  8
0
 62
9
  6
CONTINUOUS
 10
194.2839091783
 20
176.7871050133
  0
VERTEX
  8
0
 62
9
  6
CONTINUOUS
 10
194.2753100478
 20
176.6194751805
  0
SEQEND
  0
POLYLINE
  8
0
 62
9
  6
CONTINUOUS
 66
1
 70
0
  0
VERTEX
  8
0
 62
9
  6
CONTINUOUS
 10
194.4176847886
 20
183.013051387
  0
VERTEX
  8
0
 62
9
  6
CONTINUOUS
 10
194.4133153538
 20
183.6707447995
  0
VERTEX
  8
0
 62
9
  6
CONTINUOUS
 10
194.4009439789
 20
184.3125586425
  0
VERTEX
  8
0
 62
9
  6
CONTINUOUS
 10
194.3803216193
 20
184.938600311
  0
VERTEX
  8
0
 62
9
  6
CONTINUOUS
 10
194.3521918251
 20
185.5491300243
  0
VERTEX
  8
0
 62
9
  6
CONTINUOUS
 10
194.3172982753
 20
186.1444007795
  0
VERTEX
  8
0
 62
9
  6
CONTINUOUS
 10
194.2753920931
 20
186.7245006274
  0
SEQEND
  0
POLYLINE
  8
0
 62
9
  6
CONTINUOUS
 66
1
 70
0
  0
VERTEX
  8
0
 62
9
  6
CONTINUOUS
 10
194.4315614108
 20
190.485431957
  0
VERTEX
  8
0
 62
9
  6
CONTINUOUS
 10
194.4299188282
 20
190.850149459
  0
VERTEX
  8
0
 62
9
  6
CONTINUOUS
 10
194.4256307741
 20
191.2036404245
  0
VERTEX
  8
0
 62
9
  6
CONTINUOUS
 10
194.4185936851
 20
191.5455765732
  0
VERTEX
  8
0
 62
9
  6
CONTINUOUS
 10
194.4091175536
 20
191.8771233243
  0
VERTEX
  8
0
 62
9
  6
CONTINUOUS
 10
194.4021314723
 20
192.2009455581
  0
VERTEX
  8
0
 62
9
  6
CONTINUOUS
 10
194.3836747386
 20
192.5121845251
  0
VERTEX
  8
0
 62
9
  6
CONTINUOUS
 10
194.3398889509
 20
192.8063768911
  0
VERTEX
  8
0
 62
9
  6
CONTINUOUS
 10
194.2753920931
 20
193.0850823004
  0
SEQEND
  0
LINE
  8
0
 62
9
  6
CONTINUOUS
 10
194.2849661868
 20
193.0854579034
 11
194.2848783773
 21
193.2046669329
  0
LINE
  8
0
 62
9
  6
CONTINUOUS
 10
194.2753920931
 20
193.0850823004
 11
194.2753920931
 21
178.975664046
  0
LINE
  8
0
 62
9
  6
CONTINUOUS
 10
194.2753934679
 20
277.9611196616
 11
194.2753934679
 21
279.8707295674
  0
LINE
  8
0
 62
9
  6
CONTINUOUS
 10
194.2754096986
 20
274.0947062771
 11
194.2751641537
 21
238.352679954
  0
LINE
  8
0
 62
9
  6
CONTINUOUS
 10
194.2751641537
 20
238.352679954
 11
194.2752412078
 21
200.9392210291
  0
LINE
  8
0
 62
9
  6
CONTINUOUS
 10
194.2753100478
 20
176.6194751805
 11
194.2760778149
 21
138.9668882149
  0
LINE
  8
0
 62
9
  6
CONTINUOUS
 10
194.2760778149
 20
138.9668882149
 11
194.2750585855
 21
58.9331544982
  0
LINE
  8
0
 62
9
  6
CONTINUOUS
 10
194.2747701217
 20
30.9409622488
 11
194.2753878698
 21
17.4210864294
  0
POLYLINE
  8
0
 62
9
  6
CONTINUOUS
 66
1
 70
0
  0
VERTEX
  8
0
 62
9
  6
CONTINUOUS
 10
194.2750585855
 20
58.9331544982
  0
VERTEX
  8
0
 62
9
  6
CONTINUOUS
 10
194.2759959191
 20
40.0701797374
  0
VERTEX
  8
0
 62
9
  6
CONTINUOUS
 10
194.2747701217
 20
30.9409622488
  0
SEQEND
  0
POLYLINE
  8
0
 62
9
  6
CONTINUOUS
 66
1
 70
0
  0
VERTEX
  8
0
 62
9
  6
CONTINUOUS
 10
194.2752412078
 20
200.9392210291
  0
VERTEX
  8
0
 62
9
  6
CONTINUOUS
 10
194.2744465658
 20
199.1057967264
  0
VERTEX
  8
0
 62
9
  6
CONTINUOUS
 10
194.2753662926
 20
197.2063781399
  0
VERTEX
  8
0
 62
9
  6
CONTINUOUS
 10
194.2804774567
 20
195.2392302831
  0
VERTEX
  8
0
 62
9
  6
CONTINUOUS
 10
194.2893687901
 20
193.2034077225
  0
SEQEND
  0
POLYLINE
  8
0
 62
9
  6
CONTINUOUS
 66
1
 70
0
  0
VERTEX
  8
0
 62
9
  6
CONTINUOUS
 10
194.2753920973
 20
277.9611196617
  0
VERTEX
  8
0
 62
9
  6
CONTINUOUS
 10
194.257009416
 20
277.2661092537
  0
VERTEX
  8
0
 62
9
  6
CONTINUOUS
 10
194.235442917
 20
276.5796957785
  0
VERTEX
  8
0
 62
9
  6
CONTINUOUS
 10
194.2109886297
 20
275.9115467228
  0
VERTEX
  8
0
 62
9
  6
CONTINUOUS
 10
194.1839263468
 20
275.2697282589
  0
VERTEX
  8
0
 62
9
  6
CONTINUOUS
 10
194.1545587886
 20
274.6622256239
  0
VERTEX
  8
0
 62
9
  6
CONTINUOUS
 10
194.123283742
 20
274.0981021123
  0
SEQEND
  0
POLYLINE
  8
0
 62
9
  6
CONTINUOUS
 66
1
 70
0
  0
VERTEX
  8
0
 62
9
  6
CONTINUOUS
 10
194.4284443614
 20
277.9574934305
  0
VERTEX
  8
0
 62
9
  6
CONTINUOUS
 10
194.4099795462
 20
277.262405811
  0
VERTEX
  8
0
 62
9
  6
CONTINUOUS
 10
194.3883012922
 20
276.5759757571
  0
VERTEX
  8
0
 62
9
  6
CONTINUOUS
 10
194.3637061822
 20
275.9078811123
  0
VERTEX
  8
0
 62
9
  6
CONTINUOUS
 10
194.3364753757
 20
275.2661412906
  0
VERTEX
  8
0
 62
9
  6
CONTINUOUS
 10
194.3069122455
 20
274.6586990938
  0
VERTEX
  8
0
 62
9
  6
CONTINUOUS
 10
194.2754142335
 20
274.0946277939
  0
SEQEND
  0
POLYLINE
  8
0
 62
9
  6
CONTINUOUS
 66
1
 70
0
  0
VERTEX
  8
0
 62
9
  6
CONTINUOUS
 10
194.2753920931
 20
178.975664046
  0
VERTEX
  8
0
 62
9
  6
CONTINUOUS
 10
194.3139173732
 20
179.6146987025
  0
VERTEX
  8
0
 62
9
  6
CONTINUOUS
 10
194.3472054031
 20
180.2681095275
  0
VERTEX
  8
0
 62
9
  6
CONTINUOUS
 10
194.3758991373
 20
180.936429735
  0
VERTEX
  8
0
 62
9
  6
CONTINUOUS
 10
194.3980684419
 20
181.6176111314
  0
VERTEX
  8
0
 62
9
  6
CONTINUOUS
 10
194.411782837
 20
182.3096304446
  0
VERTEX
  8
0
 62
9
  6
CONTINUOUS
 10
194.4176847886
 20
183.013051387
  0
SEQEND
  0
POLYLINE
  8
0
 62
9
  6
CONTINUOUS
 66
1
 70
0
  0
VERTEX
  8
0
 62
9
  6
CONTINUOUS
 10
194.2753920931
 20
186.7249056617
  0
VERTEX
  8
0
 62
9
  6
CONTINUOUS
 10
194.3203040684
 20
187.3228117522
  0
VERTEX
  8
0
 62
9
  6
CONTINUOUS
 10
194.3580995262
 20
187.9324349861
  0
VERTEX
  8
0
 62
9
  6
CONTINUOUS
 10
194.3891864829
 20
188.5537866743
  0
VERTEX
  8
0
 62
9
  6
CONTINUOUS
 10
194.412338071
 20
189.1865542943
  0
VERTEX
  8
0
 62
9
  6
CONTINUOUS
 10
194.4263271657
 20
189.830429686
  0
VERTEX
  8
0
 62
9
  6
CONTINUOUS
 10
194.4315614108
 20
190.485431957
  0
SEQEND
  0
POLYLINE
  8
0
 62
9
  6
CONTINUOUS
 66
1
 70
0
  0
VERTEX
  8
0
 62
9
  6
CONTINUOUS
 10
42.2224210004
 20
282.4507520581
  0
VERTEX
  8
0
 62
9
  6
CONTINUOUS
 10
41.8694886359
 20
282.7259302515
  0
VERTEX
  8
0
 62
9
  6
CONTINUOUS
 10
40.9762714767
 20
283.2180175877
  0
VERTEX
  8
0
 62
9
  6
CONTINUOUS
 10
40.0387419138
 20
283.5410311212
  0
VERTEX
  8
0
 62
9
  6
CONTINUOUS
 10
39.0878304597
 20
283.6853686215
  0
SEQEND
  0
POLYLINE
  8
0
 62
9
  6
CONTINUOUS
 66
1
 70
0
  0
VERTEX
  8
0
 62
9
  6
CONTINUOUS
 10
194.2278158642
 20
286.0863311939
  0
VERTEX
  8
0
 62
9
  6
CONTINUOUS
 10
194.2583270638
 20
285.6508122118
  0
VERTEX
  8
0
 62
9
  6
CONTINUOUS
 10
194.2825354185
 20
285.0452395392
  0
SEQEND
  0
POLYLINE
  8
0
 62
9
  6
CONTINUOUS
 66
1
 70
0
  0
VERTEX
  8
0
 62
9
  6
CONTINUOUS
 10
194.3542929952
 20
286.0833866526
  0
VERTEX
  8
0
 62
9
  6
CONTINUOUS
 10
194.3841966954
 20
285.6480304529
  0
VERTEX
  8
0
 62
9
  6
CONTINUOUS
 10
194.4077315201
 20
285.0427239279
  0
VERTEX
  8
0
 62
9
  6
CONTINUOUS
 10
194.4248003241
 20
284.2654372096
  0
VERTEX
  8
0
 62
9
  6
CONTINUOUS
 10
194.4347169934
 20
283.3286655919
  0
VERTEX
  8
0
 62
9
  6
CONTINUOUS
 10
194.4351852022
 20
283.1123510019
  0
SEQEND
  0
POLYLINE
  8
0
 62
9
  6
CONTINUOUS
 66
1
 70
0
  0
VERTEX
  8
0
 62
9
  6
CONTINUOUS
 10
267.612760187
 20
223.5433514197
  0
VERTEX
  8
0
 62
9
  6
CONTINUOUS
 10
270.0133547863
 20
226.9228925032
  0
VERTEX
  8
0
 62
9
  6
CONTINUOUS
 10
272.5415369001
 20
230.4149558676
  0
VERTEX
  8
0
 62
9
  6
CONTINUOUS
 10
275.190441886
 20
234.0115877996
  0
VERTEX
  8
0
 62
9
  6
CONTINUOUS
 10
277.9755474058
 20
237.7554611383
  0
VERTEX
  8
0
 62
9
  6
CONTINUOUS
 10
280.929563941
 20
241.7092131203
  0
VERTEX
  8
0
 62
9
  6
CONTINUOUS
 10
283.9899733134
 20
245.8195390346
  0
VERTEX
  8
0
 62
9
  6
CONTINUOUS
 10
287.0993107297
 20
250.0430263238
  0
VERTEX
  8
0
 62
9
  6
CONTINUOUS
 10
290.2706153169
 20
254.4292227334
  0
VERTEX
  8
0
 62
9
  6
CONTINUOUS
 10
293.4998220242
 20
259.0051115214
  0
VERTEX
  8
0
 62
9
  6
CONTINUOUS
 10
296.7825541515
 20
263.7884451371
  0
VERTEX
  8
0
 62
9
  6
CONTINUOUS
 10
300.11458069
 20
268.8011616133
  0
VERTEX
  8
0
 62
9
  6
CONTINUOUS
 10
303.493825
 20
274.0487693314
  0
SEQEND
  0
POLYLINE
  8
0
 62
9
  6
CONTINUOUS
 66
1
 70
0
  0
VERTEX
  8
0
 62
9
  6
CONTINUOUS
 10
210.0553107288
 20
17.4211155354
  0
VERTEX
  8
0
 62
9
  6
CONTINUOUS
 10
211.1403736107
 20
28.710010667
  0
VERTEX
  8
0
 62
9
  6
CONTINUOUS
 10
212.3248973043
 20
39.5681415704
  0
VERTEX
  8
0
 62
9
  6
CONTINUOUS
 10
213.6266302391
 20
49.9402144142
  0
VERTEX
  8
0
 62
9
  6
CONTINUOUS
 10
215.0267336577
 20
59.8656033133
  0
VERTEX
  8
0
 62
9
  6
CONTINUOUS
 10
216.5137393595
 20
69.3872040432
  0
VERTEX
  8
0
 62
9
  6
CONTINUOUS
 10
218.062515159
 20
78.5155219219
  0
VERTEX
  8
0
 62
9
  6
CONTINUOUS
 10
219.6481047366
 20
87.286855803
  0
VERTEX
  8
0
 62
9
  6
CONTINUOUS
 10
221.2503879128
 20
95.6965929192
  0
VERTEX
  8
0
 62
9
  6
CONTINUOUS
 10
222.8366091041
 20
103.7003186408
  0
VERTEX
  8
0
 62
9
  6
CONTINUOUS
 10
224.42603098
 20
111.4305263205
  0
VERTEX
  8
0
 62
9
  6
CONTINUOUS
 10
226.0356396525
 20
119.0243428449
  0
VERTEX
  8
0
 62
9
  6
CONTINUOUS
 10
227.6517452243
 20
126.3784630977
  0
VERTEX
  8
0
 62
9
  6
CONTINUOUS
 10
229.2791062677
 20
133.5089290669
  0
VERTEX
  8
0
 62
9
  6
CONTINUOUS
 10
230.8761716219
 20
140.206562306
  0
VERTEX
  8
0
 62
9
  6
CONTINUOUS
 10
232.3918917652
 20
146.2644408422
  0
VERTEX
  8
0
 62
9
  6
CONTINUOUS
 10
233.8409207442
 20
151.7602250612
  0
SEQEND
  0
POLYLINE
  8
0
 62
9
  6
CONTINUOUS
 66
1
 70
0
  0
VERTEX
  8
0
 62
9
  6
CONTINUOUS
 10
343.5557594393
 20
257.6127609586
  0
VERTEX
  8
0
 62
9
  6
CONTINUOUS
 10
348.6583406474
 20
263.033004468
  0
VERTEX
  8
0
 62
9
  6
CONTINUOUS
 10
351.4187219675
 20
265.9629464022
  0
VERTEX
  8
0
 62
9
  6
CONTINUOUS
 10
360.5601507346
 20
275.6671319652
  0
SEQEND
  0
POLYLINE
  8
0
 62
9
  6
CONTINUOUS
 66
1
 70
0
  0
VERTEX
  8
0
 62
9
  6
CONTINUOUS
 10
18.7895168361
 20
282.4217020372
  0
VERTEX
  8
0
 62
9
  6
CONTINUOUS
 10
19.8304854535
 20
281.8823958029
  0
VERTEX
  8
0
 62
9
  6
CONTINUOUS
 10
20.1513101751
 20
281.664589918
  0
SEQEND
  0
POLYLINE
  8
0
 62
9
  6
CONTINUOUS
 66
1
 70
0
  0
VERTEX
  8
0
 62
9
  6
CONTINUOUS
 10
233.8409207442
 20
151.7602250612
  0
VERTEX
  8
0
 62
9
  6
CONTINUOUS
 10
234.8230623468
 20
155.3107986836
  0
VERTEX
  8
0
 62
9
  6
CONTINUOUS
 10
235.8195460415
 20
158.7564403822
  0
VERTEX
  8
0
 62
9
  6
CONTINUOUS
 10
236.8270547006
 20
162.0876888012
  0
VERTEX
  8
0
 62
9
  6
CONTINUOUS
 10
237.8556374089
 20
165.3325687739
  0
VERTEX
  8
0
 62
9
  6
CONTINUOUS
 10
238.9142421999
 20
168.5173438823
  0
VERTEX
  8
0
 62
9
  6
CONTINUOUS
 10
240.0028538467
 20
171.6378411336
  0
VERTEX
  8
0
 62
9
  6
CONTINUOUS
 10
241.1299911925
 20
174.7122065699
  0
VERTEX
  8
0
 62
9
  6
CONTINUOUS
 10
242.2793566649
 20
177.698435488
  0
VERTEX
  8
0
 62
9
  6
CONTINUOUS
 10
243.4352348928
 20
180.5571494796
  0
VERTEX
  8
0
 62
9
  6
CONTINUOUS
 10
244.6009413841
 20
183.3113255551
  0
VERTEX
  8
0
 62
9
  6
CONTINUOUS
 10
245.7821316846
 20
185.9830553577
  0
VERTEX
  8
0
 62
9
  6
CONTINUOUS
 10
246.9561994343
 20
188.535141809
  0
VERTEX
  8
0
 62
9
  6
CONTINUOUS
 10
248.098513096
 20
190.9277589239
  0
VERTEX
  8
0
 62
9
  6
CONTINUOUS
 10
249.219314435
 20
193.1963610294
  0
VERTEX
  8
0
 62
9
  6
CONTINUOUS
 10
250.3152759403
 20
195.347511651
  0
VERTEX
  8
0
 62
9
  6
CONTINUOUS
 10
251.4040315017
 20
197.422330168
  0
VERTEX
  8
0
 62
9
  6
CONTINUOUS
 10
252.5038012011
 20
199.4625549959
  0
VERTEX
  8
0
 62
9
  6
CONTINUOUS
 10
253.6116992972
 20
201.4648022251
  0
VERTEX
  8
0
 62
9
  6
CONTINUOUS
 10
254.73510453
 20
203.4452073467
  0
VERTEX
  8
0
 62
9
  6
CONTINUOUS
 10
255.8619070244
 20
205.3852464081
  0
VERTEX
  8
0
 62
9
  6
CONTINUOUS
 10
256.9829531956
 20
207.2722264617
  0
VERTEX
  8
0
 62
9
  6
CONTINUOUS
 10
258.096187025
 20
209.106870663
  0
VERTEX
  8
0
 62
9
  6
CONTINUOUS
 10
259.1840742866
 20
210.8651041787
  0
VERTEX
  8
0
 62
9
  6
CONTINUOUS
 10
260.2838549876
 20
212.608778891
  0
VERTEX
  8
0
 62
9
  6
CONTINUOUS
 10
261.4395810527
 20
214.4082357863
  0
VERTEX
  8
0
 62
9
  6
CONTINUOUS
 10
262.6152091334
 20
216.2068488068
  0
VERTEX
  8
0
 62
9
  6
CONTINUOUS
 10
263.7680954915
 20
217.941423786
  0
VERTEX
  8
0
 62
9
  6
CONTINUOUS
 10
264.9607746259
 20
219.7068542969
  0
VERTEX
  8
0
 62
9
  6
CONTINUOUS
 10
266.2483063015
 20
221.583624538
  0
VERTEX
  8
0
 62
9
  6
CONTINUOUS
 10
267.612760187
 20
223.5433514197
  0
SEQEND
  0
LINE
  8
0
 62
9
  6
CONTINUOUS
 10
362.0084062191
 20
276.0165320012
 11
361.6025731068
 21
275.5484864443
  0
LINE
  8
0
 62
7
  6
CONTINUOUS
 10
361.5367869984
 20
275.0402144354
 11
361.5369168727
 21
275.0403628606
  0
LINE
  8
0
 62
9
  6
CONTINUOUS
 10
194.4654279362
 20
283.0703367869
 11
194.4500284462
 21
283.1091904152
  0
LINE
  8
0
 62
9
  6
CONTINUOUS
 10
194.2755294869
 20
283.0728700288
 11
194.2601415604
 21
283.1119787264
  0
LINE
  8
0
 62
9
  6
CONTINUOUS
 10
194.238739857
 20
283.0733400824
 11
194.2755234818
 21
282.9660049383
  0
LINE
  8
0
 62
9
  6
CONTINUOUS
 10
194.2755234818
 20
282.9660049383
 11
194.3122267548
 21
282.8568649674
  0
LINE
  8
0
 62
7
  6
CONTINUOUS
 10
361.535091529
 20
275.0438394749
 11
362.0003929196
 21
275.6367410783
  0
POLYLINE
  8
0
 62
9
  6
CONTINUOUS
 66
1
 70
0
  0
VERTEX
  8
0
 62
9
  6
CONTINUOUS
 10
6.671013365
 20
277.641656756
  0
VERTEX
  8
0
 62
9
  6
CONTINUOUS
 10
6.3223126618
 20
277.7471967076
  0
VERTEX
  8
0
 62
9
  6
CONTINUOUS
 10
6.0188348038
 20
277.8909565074
  0
VERTEX
  8
0
 62
9
  6
CONTINUOUS
 10
5.7614786334
 20
278.0747285894
  0
VERTEX
  8
0
 62
9
  6
CONTINUOUS
 10
5.557338548
 20
278.2936466613
  0
VERTEX
  8
0
 62
9
  6
CONTINUOUS
 10
5.4146510152
 20
278.5429675185
  0
SEQEND
  0
LINE
  8
0
 62
9
  6
CONTINUOUS
 10
17.6948942813
 20
282.8338137507
 11
18.7895168361
 21
282.4217020372
  0
POLYLINE
  8
0
 62
9
  6
CONTINUOUS
 66
1
 70
0
  0
VERTEX
  8
0
 62
9
  6
CONTINUOUS
 10
194.1556265829
 20
286.4152785281
  0
VERTEX
  8
0
 62
9
  6
CONTINUOUS
 10
194.1908670334
 20
286.345458836
  0
VERTEX
  8
0
 62
9
  6
CONTINUOUS
 10
194.2278158642
 20
286.0863311939
  0
SEQEND
  0
POLYLINE
  8
0
 62
9
  6
CONTINUOUS
 66
1
 70
0
  0
VERTEX
  8
0
 62
9
  6
CONTINUOUS
 10
194.2828326064
 20
286.4122775783
  0
VERTEX
  8
0
 62
9
  6
CONTINUOUS
 10
194.3178024726
 20
286.3424546321
  0
VERTEX
  8
0
 62
9
  6
CONTINUOUS
 10
194.3542929952
 20
286.0833866526
  0
SEQEND
  0
POLYLINE
  8
0
 62
7
  6
CONTINUOUS
 66
1
 70
0
  0
VERTEX
  8
0
 62
7
  6
CONTINUOUS
 10
362.0003929196
 20
275.6367410783
  0
VERTEX
  8
0
 62
7
  6
CONTINUOUS
 10
362.3715187381
 20
276.2409535209
  0
VERTEX
  8
0
 62
7
  6
CONTINUOUS
 10
362.6238316548
 20
276.7586188901
  0
SEQEND
  0
POLYLINE
  8
0
 62
9
  6
CONTINUOUS
 66
1
 70
0
  0
VERTEX
  8
0
 62
9
  6
CONTINUOUS
 10
360.5601507346
 20
275.6671319652
  0
VERTEX
  8
0
 62
9
  6
CONTINUOUS
 10
358.9581703247
 20
275.2682165468
  0
VERTEX
  8
0
 62
9
  6
CONTINUOUS
 10
356.7470750311
 20
274.8337225226
  0
VERTEX
  8
0
 62
9
  6
CONTINUOUS
 10
353.861221324
 20
274.3683945814
  0
VERTEX
  8
0
 62
9
  6
CONTINUOUS
 10
350.3500871099
 20
273.9497681647
  0
VERTEX
  8
0
 62
9
  6
CONTINUOUS
 10
346.2685955824
 20
273.6377563924
  0
VERTEX
  8
0
 62
9
  6
CONTINUOUS
 10
341.6165080833
 20
273.4390982802
  0
VERTEX
  8
0
 62
9
  6
CONTINUOUS
 10
336.4206182303
 20
273.3783423154
  0
VERTEX
  8
0
 62
9
  6
CONTINUOUS
 10
330.7067873089
 20
273.4295884477
  0
VERTEX
  8
0
 62
9
  6
CONTINUOUS
 10
324.5280439521
 20
273.5781943189
  0
VERTEX
  8
0
 62
9
  6
CONTINUOUS
 10
317.9056101264
 20
273.7676788602
  0
VERTEX
  8
0
 62
9
  6
CONTINUOUS
 10
310.8861171744
 20
273.9272232392
  0
VERTEX
  8
0
 62
9
  6
CONTINUOUS
 10
303.4940020588
 20
274.0555510857
  0
SEQEND
  0
POLYLINE
  8
0
 62
9
  6
CONTINUOUS
 66
1
 70
0
  0
VERTEX
  8
0
 62
9
  6
CONTINUOUS
 10
358.9166717956
 20
281.799119823
  0
VERTEX
  8
0
 62
9
  6
CONTINUOUS
 10
359.2412118891
 20
281.8716779095
  0
VERTEX
  8
0
 62
9
  6
CONTINUOUS
 10
359.508538328
 20
281.9477061941
  0
VERTEX
  8
0
 62
9
  6
CONTINUOUS
 10
359.7193862308
 20
282.0257022439
  0
VERTEX
  8
0
 62
9
  6
CONTINUOUS
 10
359.8715027814
 20
282.1039936721
  0
VERTEX
  8
0
 62
9
  6
CONTINUOUS
 10
359.9626358904
 20
282.1810027288
  0
VERTEX
  8
0
 62
9
  6
CONTINUOUS
 10
359.9935232453
 20
282.2555614747
  0
SEQEND
  0
POLYLINE
  8
0
 62
9
  6
CONTINUOUS
 66
1
 70
0
  0
VERTEX
  8
0
 62
9
  6
CONTINUOUS
 10
7.990047498
 20
275.675730047
  0
VERTEX
  8
0
 62
9
  6
CONTINUOUS
 10
7.6607133306
 20
275.7415086884
  0
VERTEX
  8
0
 62
9
  6
CONTINUOUS
 10
7.3963872931
 20
275.7740604453
  0
VERTEX
  8
0
 62
9
  6
CONTINUOUS
 10
7.1942712925
 20
275.7731417391
  0
VERTEX
  8
0
 62
9
  6
CONTINUOUS
 10
7.053596939
 20
275.7365549123
  0
VERTEX
  8
0
 62
9
  6
CONTINUOUS
 10
6.9736202557
 20
275.6621101967
  0
VERTEX
  8
0
 62
9
  6
CONTINUOUS
 10
6.9517188733
 20
275.5496204046
  0
SEQEND
  0
POLYLINE
  8
0
 62
9
  6
CONTINUOUS
 66
1
 70
0
  0
VERTEX
  8
0
 62
9
  6
CONTINUOUS
 10
14.1611469581
 20
281.5132959884
  0
VERTEX
  8
0
 62
9
  6
CONTINUOUS
 10
13.2705481092
 20
281.7512090733
  0
VERTEX
  8
0
 62
9
  6
CONTINUOUS
 10
12.8304677296
 20
282.0556929831
  0
VERTEX
  8
0
 62
9
  6
CONTINUOUS
 10
12.8986527842
 20
282.3755557128
  0
VERTEX
  8
0
 62
9
  6
CONTINUOUS
 10
13.3891757967
 20
282.687513558
  0
VERTEX
  8
0
 62
9
  6
CONTINUOUS
 10
14.2078005249
 20
282.9862236369
  0
VERTEX
  8
0
 62
9
  6
CONTINUOUS
 10
15.3860769552
 20
283.2555103977
  0
SEQEND
  0
POLYLINE
  8
0
 62
9
  6
CONTINUOUS
 66
1
 70
0
  0
VERTEX
  8
0
 62
9
  6
CONTINUOUS
 10
281.3133376624
 20
277.6037834138
  0
VERTEX
  8
0
 62
9
  6
CONTINUOUS
 10
281.3484323756
 20
276.8420985811
  0
VERTEX
  8
0
 62
9
  6
CONTINUOUS
 10
281.3555858668
 20
276.0855437097
  0
VERTEX
  8
0
 62
9
  6
CONTINUOUS
 10
281.3343199032
 20
275.356595696
  0
VERTEX
  8
0
 62
9
  6
CONTINUOUS
 10
281.284880495
 20
274.6627604269
  0
VERTEX
  8
0
 62
9
  6
CONTINUOUS
 10
281.2073047872
 20
274.0121299001
  0
VERTEX
  8
0
 62
9
  6
CONTINUOUS
 10
281.1037533789
 20
273.424587408
  0
SEQEND
  0
POLYLINE
  8
0
 62
9
  6
CONTINUOUS
 66
1
 70
0
  0
VERTEX
  8
0
 62
9
  6
CONTINUOUS
 10
281.3133283932
 20
279.3171123429
  0
VERTEX
  8
0
 62
9
  6
CONTINUOUS
 10
281.293340897
 20
279.8904287123
  0
VERTEX
  8
0
 62
9
  6
CONTINUOUS
 10
281.2421181413
 20
280.4509117982
  0
VERTEX
  8
0
 62
9
  6
CONTINUOUS
 10
281.1637831865
 20
280.957282685
  0
VERTEX
  8
0
 62
9
  6
CONTINUOUS
 10
281.059892797
 20
281.4057668657
  0
VERTEX
  8
0
 62
9
  6
CONTINUOUS
 10
280.9315200186
 20
281.7850393781
  0
VERTEX
  8
0
 62
9
  6
CONTINUOUS
 10
280.7822615817
 20
282.0749513551
  0
VERTEX
  8
0
 62
9
  6
CONTINUOUS
 10
280.6153247611
 20
282.258511078
  0
VERTEX
  8
0
 62
9
  6
CONTINUOUS
 10
280.4478660835
 20
282.3169698159
  0
SEQEND
  0
LINE
  8
0
 62
9
  6
CONTINUOUS
 10
281.3133286578
 20
277.6039241093
 11
281.3133286578
 21
279.3170786697
  0
POLYLINE
  8
0
 62
9
  6
CONTINUOUS
 66
1
 70
0
  0
VERTEX
  8
0
 62
9
  6
CONTINUOUS
 10
278.1385214259
 20
79.9242258905
  0
VERTEX
  8
0
 62
9
  6
CONTINUOUS
 10
278.2428193506
 20
85.0360404282
  0
VERTEX
  8
0
 62
9
  6
CONTINUOUS
 10
278.2937897516
 20
87.3981102686
  0
VERTEX
  8
0
 62
9
  6
CONTINUOUS
 10
278.3401380393
 20
89.4593159005
  0
VERTEX
  8
0
 62
9
  6
CONTINUOUS
 10
278.3956755359
 20
91.7998866703
  0
VERTEX
  8
0
 62
9
  6
CONTINUOUS
 10
278.4797222118
 20
95.0947640765
  0
VERTEX
  8
0
 62
9
  6
CONTINUOUS
 10
278.5863612001
 20
98.8714706146
  0
VERTEX
  8
0
 62
9
  6
CONTINUOUS
 10
278.7144951911
 20
102.8887853176
  0
VERTEX
  8
0
 62
9
  6
CONTINUOUS
 10
278.8694275595
 20
107.1276049381
  0
VERTEX
  8
0
 62
9
  6
CONTINUOUS
 10
279.0508576112
 20
111.4276868292
  0
VERTEX
  8
0
 62
9
  6
CONTINUOUS
 10
279.2740891631
 20
115.9714840636
  0
VERTEX
  8
0
 62
9
  6
CONTINUOUS
 10
279.563368397
 20
120.9763204639
  0
VERTEX
  8
0
 62
9
  6
CONTINUOUS
 10
279.9186964461
 20
126.1604570199
  0
VERTEX
  8
0
 62
9
  6
CONTINUOUS
 10
280.3333121526
 20
131.2721853579
  0
VERTEX
  8
0
 62
9
  6
CONTINUOUS
 10
280.8287689971
 20
136.4530390936
  0
VERTEX
  8
0
 62
9
  6
CONTINUOUS
 10
281.4310487349
 20
141.7982213663
  0
VERTEX
  8
0
 62
9
  6
CONTINUOUS
 10
282.1445539823
 20
147.179799261
  0
VERTEX
  8
0
 62
9
  6
CONTINUOUS
 10
282.9748735198
 20
152.5231463919
  0
VERTEX
  8
0
 62
9
  6
CONTINUOUS
 10
283.9244421413
 20
157.7759864488
  0
VERTEX
  8
0
 62
9
  6
CONTINUOUS
 10
284.992236108
 20
162.8891668558
  0
VERTEX
  8
0
 62
9
  6
CONTINUOUS
 10
286.1651123805
 20
167.7968054854
  0
VERTEX
  8
0
 62
9
  6
CONTINUOUS
 10
287.4169292663
 20
172.4168867951
  0
VERTEX
  8
0
 62
9
  6
CONTINUOUS
 10
288.7392951734
 20
176.7775137069
  0
VERTEX
  8
0
 62
9
  6
CONTINUOUS
 10
290.1240708979
 20
180.900772452
  0
VERTEX
  8
0
 62
9
  6
CONTINUOUS
 10
291.5337829571
 20
184.7292788457
  0
VERTEX
  8
0
 62
9
  6
CONTINUOUS
 10
292.9167533731
 20
188.1896743991
  0
VERTEX
  8
0
 62
9
  6
CONTINUOUS
 10
294.2817204061
 20
191.3679854769
  0
VERTEX
  8
0
 62
9
  6
CONTINUOUS
 10
295.6244562321
 20
194.3024505811
  0
VERTEX
  8
0
 62
9
  6
CONTINUOUS
 10
296.9551852728
 20
197.0487578163
  0
VERTEX
  8
0
 62
9
  6
CONTINUOUS
 10
298.3013841546
 20
199.6851704293
  0
VERTEX
  8
0
 62
9
  6
CONTINUOUS
 10
299.6317008048
 20
202.166871155
  0
VERTEX
  8
0
 62
9
  6
CONTINUOUS
 10
300.9170097535
 20
204.4612227897
  0
VERTEX
  8
0
 62
9
  6
CONTINUOUS
 10
302.1717281194
 20
206.6139189032
  0
VERTEX
  8
0
 62
9
  6
CONTINUOUS
 10
303.4057852561
 20
208.6563488975
  0
VERTEX
  8
0
 62
9
  6
CONTINUOUS
 10
304.6146176807
 20
210.5918806271
  0
VERTEX
  8
0
 62
9
  6
CONTINUOUS
 10
305.7966832867
 20
212.4279364627
  0
VERTEX
  8
0
 62
9
  6
CONTINUOUS
 10
306.9574487246
 20
214.1808784881
  0
VERTEX
  8
0
 62
9
  6
CONTINUOUS
 10
308.1144515725
 20
215.8827539456
  0
VERTEX
  8
0
 62
9
  6
CONTINUOUS
 10
309.2348717649
 20
217.4908584643
  0
VERTEX
  8
0
 62
9
  6
CONTINUOUS
 10
310.3043402089
 20
218.9919661518
  0
VERTEX
  8
0
 62
9
  6
CONTINUOUS
 10
311.2790032288
 20
220.3334468698
  0
VERTEX
  8
0
 62
9
  6
CONTINUOUS
 10
312.0377692731
 20
221.3614550505
  0
VERTEX
  8
0
 62
9
  6
CONTINUOUS
 10
312.7920923714
 20
222.3700771405
  0
VERTEX
  8
0
 62
9
  6
CONTINUOUS
 10
313.7612418687
 20
223.6477597899
  0
VERTEX
  8
0
 62
9
  6
CONTINUOUS
 10
314.8325255504
 20
225.0377574059
  0
VERTEX
  8
0
 62
9
  6
CONTINUOUS
 10
315.9951396922
 20
226.5216051982
  0
VERTEX
  8
0
 62
9
  6
CONTINUOUS
 10
317.1546525237
 20
227.9779085204
  0
VERTEX
  8
0
 62
9
  6
CONTINUOUS
 10
318.183921173
 20
229.2524136603
  0
VERTEX
  8
0
 62
9
  6
CONTINUOUS
 10
319.1519982418
 20
230.4366079924
  0
VERTEX
  8
0
 62
9
  6
CONTINUOUS
 10
320.0803723933
 20
231.5598609186
  0
VERTEX
  8
0
 62
9
  6
CONTINUOUS
 10
320.9908085502
 20
232.6504040332
  0
VERTEX
  8
0
 62
9
  6
CONTINUOUS
 10
321.8797953883
 20
233.7053125637
  0
VERTEX
  8
0
 62
9
  6
CONTINUOUS
 10
322.8488253775
 20
234.8448265949
  0
VERTEX
  8
0
 62
9
  6
CONTINUOUS
 10
324.0429697293
 20
236.2350327737
  0
VERTEX
  8
0
 62
9
  6
CONTINUOUS
 10
325.3395635601
 20
237.7282579864
  0
VERTEX
  8
0
 62
9
  6
CONTINUOUS
 10
326.6233436617
 20
239.1914298961
  0
VERTEX
  8
0
 62
9
  6
CONTINUOUS
 10
328.0070217906
 20
240.7531525898
  0
VERTEX
  8
0
 62
9
  6
CONTINUOUS
 10
329.5978293134
 20
242.5307929479
  0
VERTEX
  8
0
 62
9
  6
CONTINUOUS
 10
331.3052124691
 20
244.4198443604
  0
VERTEX
  8
0
 62
9
  6
CONTINUOUS
 10
333.0512807783
 20
246.3341017823
  0
VERTEX
  8
0
 62
9
  6
CONTINUOUS
 10
334.8969350671
 20
248.3412183619
  0
VERTEX
  8
0
 62
9
  6
CONTINUOUS
 10
336.8843674258
 20
250.4867419904
  0
VERTEX
  8
0
 62
9
  6
CONTINUOUS
 10
338.9935609166
 20
252.7496959131
  0
VERTEX
  8
0
 62
9
  6
CONTINUOUS
 10
341.2117458352
 20
255.1180192855
  0
VERTEX
  8
0
 62
9
  6
CONTINUOUS
 10
343.5557594393
 20
257.6127609586
  0
SEQEND
  0
POLYLINE
  8
0
 62
9
  6
CONTINUOUS
 66
1
 70
0
  0
VERTEX
  8
0
 62
9
  6
CONTINUOUS
 10
276.1093038137
 20
17.4211783248
  0
VERTEX
  8
0
 62
9
  6
CONTINUOUS
 10
276.371063616
 20
22.4977418659
  0
VERTEX
  8
0
 62
9
  6
CONTINUOUS
 10
276.5918677137
 20
27.0826829398
  0
VERTEX
  8
0
 62
9
  6
CONTINUOUS
 10
276.7692358565
 20
31.0110845555
  0
VERTEX
  8
0
 62
9
  6
CONTINUOUS
 10
276.9282289158
 20
34.7667315252
  0
VERTEX
  8
0
 62
9
  6
CONTINUOUS
 10
277.0923506228
 20
38.9295116388
  0
VERTEX
  8
0
 62
9
  6
CONTINUOUS
 10
277.2427368353
 20
43.0593030788
  0
VERTEX
  8
0
 62
9
  6
CONTINUOUS
 10
277.372073442
 20
46.9279621561
  0
VERTEX
  8
0
 62
9
  6
CONTINUOUS
 10
277.4809107881
 20
50.4721626455
  0
VERTEX
  8
0
 62
9
  6
CONTINUOUS
 10
277.5657653545
 20
53.47501684
  0
VERTEX
  8
0
 62
9
  6
CONTINUOUS
 10
277.6364102996
 20
56.1659625814
  0
VERTEX
  8
0
 62
9
  6
CONTINUOUS
 10
277.6982322205
 20
58.6684123606
  0
VERTEX
  8
0
 62
9
  6
CONTINUOUS
 10
277.7548032243
 20
61.0873534803
  0
VERTEX
  8
0
 62
9
  6
CONTINUOUS
 10
277.8104092095
 20
63.5797014042
  0
VERTEX
  8
0
 62
9
  6
CONTINUOUS
 10
277.8645873375
 20
66.1153919095
  0
VERTEX
  8
0
 62
9
  6
CONTINUOUS
 10
277.9178382592
 20
68.7016049304
  0
VERTEX
  8
0
 62
9
  6
CONTINUOUS
 10
278.1385214259
 20
79.9242258905
  0
SEQEND
  0
POLYLINE
  8
0
 62
9
  6
CONTINUOUS
 66
1
 70
0
  0
VERTEX
  8
0
 62
9
  6
CONTINUOUS
 10
363.136135077
 20
278.5429475685
  0
VERTEX
  8
0
 62
9
  6
CONTINUOUS
 10
362.9934541321
 20
278.2936136814
  0
VERTEX
  8
0
 62
9
  6
CONTINUOUS
 10
362.7893179368
 20
278.0746964233
  0
SEQEND
  0
POLYLINE
  8
0
 62
9
  6
CONTINUOUS
 66
1
 70
0
  0
VERTEX
  8
0
 62
9
  6
CONTINUOUS
 10
361.1543968928
 20
275.7740604453
  0
VERTEX
  8
0
 62
9
  6
CONTINUOUS
 10
360.8900712543
 20
275.7415087547
  0
VERTEX
  8
0
 62
9
  6
CONTINUOUS
 10
360.5607378357
 20
275.6757301972
  0
SEQEND
  0
POLYLINE
  8
0
 62
9
  6
CONTINUOUS
 66
1
 70
0
  0
VERTEX
  8
0
 62
9
  6
CONTINUOUS
 10
9.634024948
 20
281.7991372851
  0
VERTEX
  8
0
 62
9
  6
CONTINUOUS
 10
10.5127301896
 20
281.6651592758
  0
VERTEX
  8
0
 62
9
  6
CONTINUOUS
 10
11.5466167971
 20
281.5750185499
  0
SEQEND
  0
POLYLINE
  8
0
 62
7
  6
CONTINUOUS
 66
1
 70
0
  0
VERTEX
  8
0
 62
7
  6
CONTINUOUS
 10
293.8282786093
 20
17.4210675428
  0
VERTEX
  8
0
 62
7
  6
CONTINUOUS
 10
293.8141297809
 20
24.5056877751
  0
VERTEX
  8
0
 62
7
  6
CONTINUOUS
 10
293.8082930069
 20
33.6904036527
  0
VERTEX
  8
0
 62
7
  6
CONTINUOUS
 10
293.8087034323
 20
42.7501644213
  0
VERTEX
  8
0
 62
7
  6
CONTINUOUS
 10
293.8279209157
 20
51.6842833655
  0
VERTEX
  8
0
 62
7
  6
CONTINUOUS
 10
293.8840358066
 20
60.4894810294
  0
VERTEX
  8
0
 62
7
  6
CONTINUOUS
 10
293.9939342006
 20
69.1620117134
  0
VERTEX
  8
0
 62
7
  6
CONTINUOUS
 10
294.1711635402
 20
77.7026026055
  0
VERTEX
  8
0
 62
7
  6
CONTINUOUS
 10
294.4227325278
 20
86.1013181869
  0
VERTEX
  8
0
 62
7
  6
CONTINUOUS
 10
294.754208952
 20
94.3497360605
  0
VERTEX
  8
0
 62
7
  6
CONTINUOUS
 10
295.1709475799
 20
102.4480510987
  0
VERTEX
  8
0
 62
7
  6
CONTINUOUS
 10
295.6758303576
 20
110.3905944816
  0
VERTEX
  8
0
 62
7
  6
CONTINUOUS
 10
296.268713388
 20
118.1907278338
  0
VERTEX
  8
0
 62
7
  6
CONTINUOUS
 10
296.9492336903
 20
125.8601598
  0
VERTEX
  8
0
 62
7
  6
CONTINUOUS
 10
297.7163466331
 20
133.3996442841
  0
VERTEX
  8
0
 62
7
  6
CONTINUOUS
 10
298.5724897376
 20
140.8105075592
  0
VERTEX
  8
0
 62
7
  6
CONTINUOUS
 10
299.5346841204
 20
148.0938462965
  0
VERTEX
  8
0
 62
7
  6
CONTINUOUS
 10
300.6228549794
 20
155.2513702758
  0
VERTEX
  8
0
 62
7
  6
CONTINUOUS
 10
301.8540017396
 20
162.2751276263
  0
VERTEX
  8
0
 62
7
  6
CONTINUOUS
 10
303.2459866938
 20
169.1698572634
  0
VERTEX
  8
0
 62
7
  6
CONTINUOUS
 10
304.8065148207
 20
175.9022750838
  0
VERTEX
  8
0
 62
7
  6
CONTINUOUS
 10
306.5411040398
 20
182.451818869
  0
VERTEX
  8
0
 62
7
  6
CONTINUOUS
 10
308.4492998736
 20
188.7930135899
  0
VERTEX
  8
0
 62
7
  6
CONTINUOUS
 10
310.5254941846
 20
194.9017693992
  0
VERTEX
  8
0
 62
7
  6
CONTINUOUS
 10
312.7601102092
 20
200.7631351728
  0
VERTEX
  8
0
 62
7
  6
CONTINUOUS
 10
315.1321026553
 20
206.3772800834
  0
VERTEX
  8
0
 62
7
  6
CONTINUOUS
 10
317.5920993374
 20
211.699739041
  0
VERTEX
  8
0
 62
7
  6
CONTINUOUS
 10
320.1004005967
 20
216.7160092878
  0
VERTEX
  8
0
 62
7
  6
CONTINUOUS
 10
322.5799372743
 20
221.3450051343
  0
VERTEX
  8
0
 62
7
  6
CONTINUOUS
 10
324.932146542
 20
225.4836372415
  0
VERTEX
  8
0
 62
7
  6
CONTINUOUS
 10
327.1494829207
 20
229.193746574
  0
VERTEX
  8
0
 62
7
  6
CONTINUOUS
 10
329.1987105385
 20
232.4836763612
  0
VERTEX
  8
0
 62
7
  6
CONTINUOUS
 10
331.0803555519
 20
235.4037928693
  0
VERTEX
  8
0
 62
7
  6
CONTINUOUS
 10
332.7902368896
 20
237.9839112401
  0
VERTEX
  8
0
 62
7
  6
CONTINUOUS
 10
334.3489031842
 20
240.2813504639
  0
VERTEX
  8
0
 62
7
  6
CONTINUOUS
 10
335.7480578257
 20
242.3034481823
  0
VERTEX
  8
0
 62
7
  6
CONTINUOUS
 10
337.0977437987
 20
244.2211134454
  0
VERTEX
  8
0
 62
7
  6
CONTINUOUS
 10
338.5314443384
 20
246.2271973275
  0
VERTEX
  8
0
 62
7
  6
CONTINUOUS
 10
339.9996945263
 20
248.2538932977
  0
VERTEX
  8
0
 62
7
  6
CONTINUOUS
 10
341.5319675934
 20
250.3445208832
  0
VERTEX
  8
0
 62
7
  6
CONTINUOUS
 10
343.0227295092
 20
252.3592570706
  0
VERTEX
  8
0
 62
7
  6
CONTINUOUS
 10
344.3713481621
 20
254.1675447622
  0
VERTEX
  8
0
 62
7
  6
CONTINUOUS
 10
345.5875513836
 20
255.786516563
  0
VERTEX
  8
0
 62
7
  6
CONTINUOUS
 10
346.6563238264
 20
257.1994334642
  0
VERTEX
  8
0
 62
7
  6
CONTINUOUS
 10
347.5536499934
 20
258.376590244
  0
VERTEX
  8
0
 62
7
  6
CONTINUOUS
 10
348.151498198
 20
259.1539934166
  0
VERTEX
  8
0
 62
7
  6
CONTINUOUS
 10
348.7460423965
 20
259.9180434278
  0
VERTEX
  8
0
 62
7
  6
CONTINUOUS
 10
349.6363564306
 20
261.0461201341
  0
VERTEX
  8
0
 62
7
  6
CONTINUOUS
 10
350.7148542481
 20
262.3919759719
  0
VERTEX
  8
0
 62
7
  6
CONTINUOUS
 10
351.9318228094
 20
263.8858298653
  0
VERTEX
  8
0
 62
7
  6
CONTINUOUS
 10
353.4165669356
 20
265.6744316381
  0
VERTEX
  8
0
 62
7
  6
CONTINUOUS
 10
355.2812998476
 20
267.8758027485
  0
VERTEX
  8
0
 62
7
  6
CONTINUOUS
 10
357.5456986186
 20
270.5005570658
  0
VERTEX
  8
0
 62
7
  6
CONTINUOUS
 10
360.268310343
 20
273.6067054642
  0
VERTEX
  8
0
 62
7
  6
CONTINUOUS
 10
361.5367869984
 20
275.0402144354
  0
SEQEND
  0
POLYLINE
  8
0
 62
9
  6
CONTINUOUS
 66
1
 70
0
  0
VERTEX
  8
0
 62
9
  6
CONTINUOUS
 10
304.3615180205
 20
278.3403822771
  0
VERTEX
  8
0
 62
9
  6
CONTINUOUS
 10
304.3367984552
 20
277.5550707007
  0
VERTEX
  8
0
 62
9
  6
CONTINUOUS
 10
304.2616825775
 20
276.7754041502
  0
VERTEX
  8
0
 62
9
  6
CONTINUOUS
 10
304.1380340924
 20
276.0259443284
  0
VERTEX
  8
0
 62
9
  6
CONTINUOUS
 10
303.967252401
 20
275.314803507
  0
VERTEX
  8
0
 62
9
  6
CONTINUOUS
 10
303.7503974098
 20
274.6507793958
  0
VERTEX
  8
0
 62
9
  6
CONTINUOUS
 10
303.4940946482
 20
274.0554321405
  0
SEQEND
  0
POLYLINE
  8
0
 62
7
  6
CONTINUOUS
 66
1
 70
0
  0
VERTEX
  8
0
 62
7
  6
CONTINUOUS
 10
362.6238316548
 20
276.7586188901
  0
VERTEX
  8
0
 62
7
  6
CONTINUOUS
 10
362.8014871299
 20
277.2065772622
  0
VERTEX
  8
0
 62
7
  6
CONTINUOUS
 10
362.9329702846
 20
277.6067863272
  0
SEQEND
  0
POLYLINE
  8
0
 62
9
  6
CONTINUOUS
 66
1
 70
0
  0
VERTEX
  8
0
 62
9
  6
CONTINUOUS
 10
361.8796536435
 20
277.6416274978
  0
VERTEX
  8
0
 62
9
  6
CONTINUOUS
 10
361.7173987519
 20
277.282895658
  0
VERTEX
  8
0
 62
9
  6
CONTINUOUS
 10
361.5307147044
 20
276.9334310522
  0
VERTEX
  8
0
 62
9
  6
CONTINUOUS
 10
361.3204991049
 20
276.5958399467
  0
VERTEX
  8
0
 62
9
  6
CONTINUOUS
 10
361.0877973559
 20
276.2723215343
  0
VERTEX
  8
0
 62
9
  6
CONTINUOUS
 10
360.8339253319
 20
275.9649487229
  0
VERTEX
  8
0
 62
9
  6
CONTINUOUS
 10
360.5606889827
 20
275.6758631264
  0
SEQEND
  0
POLYLINE
  8
0
 62
9
  6
CONTINUOUS
 66
1
 70
0
  0
VERTEX
  8
0
 62
9
  6
CONTINUOUS
 10
329.4618911229
 20
283.6853068207
  0
VERTEX
  8
0
 62
9
  6
CONTINUOUS
 10
328.50823061
 20
283.5403605538
  0
VERTEX
  8
0
 62
9
  6
CONTINUOUS
 10
327.5779259967
 20
283.2201499777
  0
VERTEX
  8
0
 62
9
  6
CONTINUOUS
 10
326.705556871
 20
282.7429111101
  0
VERTEX
  8
0
 62
9
  6
CONTINUOUS
 10
326.3257762928
 20
282.4508008029
  0
SEQEND
  0
POLYLINE
  8
0
 62
9
  6
CONTINUOUS
 66
1
 70
0
  0
VERTEX
  8
0
 62
9
  6
CONTINUOUS
 10
353.1651049082
 20
283.259351408
  0
VERTEX
  8
0
 62
9
  6
CONTINUOUS
 10
352.0011487739
 20
283.1157513185
  0
VERTEX
  8
0
 62
9
  6
CONTINUOUS
 10
350.8564529897
 20
282.833702882
  0
SEQEND
  0
POLYLINE
  8
0
 62
9
  6
CONTINUOUS
 66
1
 70
0
  0
VERTEX
  8
0
 62
9
  6
CONTINUOUS
 10
357.004423705
 20
281.5750347565
  0
VERTEX
  8
0
 62
9
  6
CONTINUOUS
 10
358.0376699296
 20
281.665096705
  0
VERTEX
  8
0
 62
9
  6
CONTINUOUS
 10
358.9166717956
 20
281.799119823
  0
SEQEND
  0
POLYLINE
  8
0
 62
9
  6
CONTINUOUS
 66
1
 70
0
  0
VERTEX
  8
0
 62
9
  6
CONTINUOUS
 10
361.8862485417
 20
277.6498473844
  0
VERTEX
  8
0
 62
9
  6
CONTINUOUS
 10
360.9723705149
 20
277.5882434954
  0
VERTEX
  8
0
 62
9
  6
CONTINUOUS
 10
359.8210381027
 20
277.5984529842
  0
VERTEX
  8
0
 62
9
  6
CONTINUOUS
 10
358.4584326292
 20
277.7412376065
  0
VERTEX
  8
0
 62
9
  6
CONTINUOUS
 10
356.8710584667
 20
277.9780317682
  0
VERTEX
  8
0
 62
9
  6
CONTINUOUS
 10
355.0599564226
 20
278.2533284901
  0
VERTEX
  8
0
 62
9
  6
CONTINUOUS
 10
353.0600165837
 20
278.5895500721
  0
SEQEND
  0
LINE
  8
0
 62
7
  6
CONTINUOUS
 10
357.0036549412
 20
281.5749859912
 11
357.004423705
 21
281.5750347565
  0
POLYLINE
  8
0
 62
9
  6
CONTINUOUS
 66
1
 70
0
  0
VERTEX
  8
0
 62
9
  6
CONTINUOUS
 10
281.3133286578
 20
277.6039241093
  0
VERTEX
  8
0
 62
9
  6
CONTINUOUS
 10
285.2670527299
 20
277.8379143298
  0
VERTEX
  8
0
 62
9
  6
CONTINUOUS
 10
289.1804285626
 20
278.0251198216
  0
VERTEX
  8
0
 62
9
  6
CONTINUOUS
 10
293.0453760945
 20
278.1638271782
  0
VERTEX
  8
0
 62
9
  6
CONTINUOUS
 10
296.864267789
 20
278.2591766193
  0
VERTEX
  8
0
 62
9
  6
CONTINUOUS
 10
300.6389799774
 20
278.3163083647
  0
VERTEX
  8
0
 62
9
  6
CONTINUOUS
 10
304.360893747
 20
278.3335090079
  0
SEQEND
  0
POLYLINE
  8
0
 62
9
  6
CONTINUOUS
 66
1
 70
0
  0
VERTEX
  8
0
 62
9
  6
CONTINUOUS
 10
281.1036949053
 20
273.4246801873
  0
VERTEX
  8
0
 62
9
  6
CONTINUOUS
 10
274.6000746951
 20
273.0786153512
  0
VERTEX
  8
0
 62
9
  6
CONTINUOUS
 10
268.070371724
 20
272.8408594877
  0
VERTEX
  8
0
 62
9
  6
CONTINUOUS
 10
261.5925458167
 20
272.7114297911
  0
VERTEX
  8
0
 62
9
  6
CONTINUOUS
 10
254.939297274
 20
272.6660818843
  0
VERTEX
  8
0
 62
9
  6
CONTINUOUS
 10
247.8033547254
 20
272.6960084524
  0
VERTEX
  8
0
 62
9
  6
CONTINUOUS
 10
240.4917266748
 20
272.7948692996
  0
VERTEX
  8
0
 62
9
  6
CONTINUOUS
 10
233.3138090206
 20
272.9455451335
  0
VERTEX
  8
0
 62
9
  6
CONTINUOUS
 10
225.964519297
 20
273.1371834514
  0
VERTEX
  8
0
 62
9
  6
CONTINUOUS
 10
218.1348726196
 20
273.3714379976
  0
VERTEX
  8
0
 62
9
  6
CONTINUOUS
 10
210.1371821464
 20
273.6259901623
  0
VERTEX
  8
0
 62
9
  6
CONTINUOUS
 10
202.2098821342
 20
273.8655002539
  0
VERTEX
  8
0
 62
9
  6
CONTINUOUS
 10
194.2754096986
 20
274.0947062771
  0
SEQEND
  0
POLYLINE
  8
0
 62
7
  6
CONTINUOUS
 66
1
 70
0
  0
VERTEX
  8
0
 62
7
  6
CONTINUOUS
 10
357.0020868937
 20
281.57367394
  0
VERTEX
  8
0
 62
7
  6
CONTINUOUS
 10
356.3183535011
 20
281.5400970835
  0
VERTEX
  8
0
 62
7
  6
CONTINUOUS
 10
355.0833132211
 20
281.5120357248
  0
VERTEX
  8
0
 62
7
  6
CONTINUOUS
 10
353.6172621703
 20
281.5136747002
  0
VERTEX
  8
0
 62
7
  6
CONTINUOUS
 10
351.9313661622
 20
281.5443881925
  0
VERTEX
  8
0
 62
7
  6
CONTINUOUS
 10
350.4307242177
 20
281.5876900428
  0
SEQEND
  0
POLYLINE
  8
0
 62
9
  6
CONTINUOUS
 66
1
 70
0
  0
VERTEX
  8
0
 62
9
  6
CONTINUOUS
 10
87.2374555284
 20
277.6039241093
  0
VERTEX
  8
0
 62
9
  6
CONTINUOUS
 10
100.6138269082
 20
277.0149141368
  0
VERTEX
  8
0
 62
9
  6
CONTINUOUS
 10
114.4524965506
 20
276.7406744104
  0
VERTEX
  8
0
 62
9
  6
CONTINUOUS
 10
128.7428915691
 20
276.8333391698
  0
VERTEX
  8
0
 62
9
  6
CONTINUOUS
 10
143.4659461185
 20
277.1365056962
  0
VERTEX
  8
0
 62
9
  6
CONTINUOUS
 10
158.5992398751
 20
277.4937712707
  0
VERTEX
  8
0
 62
9
  6
CONTINUOUS
 10
174.1223664583
 20
277.9572701331
  0
SEQEND
  0
POLYLINE
  8
0
 62
9
  6
CONTINUOUS
 66
1
 70
0
  0
VERTEX
  8
0
 62
9
  6
CONTINUOUS
 10
87.4470892809
 20
273.4246801873
  0
VERTEX
  8
0
 62
9
  6
CONTINUOUS
 10
83.5912765625
 20
273.6452767324
  0
VERTEX
  8
0
 62
9
  6
CONTINUOUS
 10
79.7845760134
 20
273.8158152246
  0
VERTEX
  8
0
 62
9
  6
CONTINUOUS
 10
76.0275024883
 20
273.9368304439
  0
VERTEX
  8
0
 62
9
  6
CONTINUOUS
 10
72.3203472225
 20
274.0134679934
  0
VERTEX
  8
0
 62
9
  6
CONTINUOUS
 10
68.6633442639
 20
274.0506632059
  0
VERTEX
  8
0
 62
9
  6
CONTINUOUS
 10
65.0569590961
 20
274.0487693328
  0
SEQEND
  0
LINE
  8
0
 62
7
  6
CONTINUOUS
 10
11.5466167971
 20
281.5750185499
 11
11.5629007316
 21
281.5739902482
  0
POLYLINE
  8
0
 62
9
  6
CONTINUOUS
 66
1
 70
0
  0
VERTEX
  8
0
 62
9
  6
CONTINUOUS
 10
15.4874572808
 20
278.5892947319
  0
VERTEX
  8
0
 62
9
  6
CONTINUOUS
 10
18.7236720387
 20
278.3186217312
  0
VERTEX
  8
0
 62
9
  6
CONTINUOUS
 10
22.3660555541
 20
278.1179191537
  0
VERTEX
  8
0
 62
9
  6
CONTINUOUS
 10
26.3918509377
 20
277.9877699809
  0
VERTEX
  8
0
 62
9
  6
CONTINUOUS
 10
30.7992130143
 20
277.9264252683
  0
VERTEX
  8
0
 62
9
  6
CONTINUOUS
 10
35.5995207169
 20
277.9407224058
  0
VERTEX
  8
0
 62
9
  6
CONTINUOUS
 10
40.7445458747
 20
278.0054853724
  0
VERTEX
  8
0
 62
9
  6
CONTINUOUS
 10
51.8977410506
 20
278.2177181204
  0
SEQEND
  0
POLYLINE
  8
0
 62
9
  6
CONTINUOUS
 66
1
 70
0
  0
VERTEX
  8
0
 62
9
  6
CONTINUOUS
 10
15.3863470967
 20
283.2594586647
  0
VERTEX
  8
0
 62
9
  6
CONTINUOUS
 10
16.5502382969
 20
283.1158586012
  0
VERTEX
  8
0
 62
9
  6
CONTINUOUS
 10
17.6948942813
 20
282.8338137507
  0
SEQEND
  0
POLYLINE
  8
0
 62
9
  6
CONTINUOUS
 66
1
 70
0
  0
VERTEX
  8
0
 62
9
  6
CONTINUOUS
 10
363.0895412595
 20
278.2227609608
  0
VERTEX
  8
0
 62
9
  6
CONTINUOUS
 10
362.9068417049
 20
277.6328772296
  0
VERTEX
  8
0
 62
9
  6
CONTINUOUS
 10
362.6646551397
 20
277.0658154277
  0
VERTEX
  8
0
 62
9
  6
CONTINUOUS
 10
362.3646518968
 20
276.5256022267
  0
VERTEX
  8
0
 62
9
  6
CONTINUOUS
 10
362.0084062191
 20
276.0165320012
  0
SEQEND
  0
POLYLINE
  8
0
 62
9
  6
CONTINUOUS
 66
1
 70
0
  0
VERTEX
  8
0
 62
9
  6
CONTINUOUS
 10
361.5369168727
 20
275.0403628606
  0
VERTEX
  8
0
 62
9
  6
CONTINUOUS
 10
361.5894700884
 20
275.2094913665
  0
VERTEX
  8
0
 62
9
  6
CONTINUOUS
 10
361.5990653129
 20
275.5496204045
  0
SEQEND
  0
LINE
  8
0
 62
7
  6
CONTINUOUS
 10
177.5944984929
 20
280.1250583045
 11
184.2753920931
 21
280.6430497989
  0
LINE
  8
0
 62
7
  6
CONTINUOUS
 10
174.2753907183
 20
279.8707295674
 11
177.5944984929
 21
280.1250583045
  0
LINE
  8
0
 62
7
  6
CONTINUOUS
 10
358.1149500914
 20
284.8001655999
 11
358.0605277437
 21
284.7973061612
  0
POLYLINE
  8
0
 62
9
  6
CONTINUOUS
 66
1
 70
0
  0
VERTEX
  8
0
 62
9
  6
CONTINUOUS
 10
166.3405371942
 20
273.8668982998
  0
VERTEX
  8
0
 62
9
  6
CONTINUOUS
 10
158.4128391443
 20
273.6278542501
  0
VERTEX
  8
0
 62
9
  6
CONTINUOUS
 10
150.4145324202
 20
273.3725942978
  0
VERTEX
  8
0
 62
9
  6
CONTINUOUS
 10
142.5846194879
 20
273.1372318111
  0
VERTEX
  8
0
 62
9
  6
CONTINUOUS
 10
135.2367253127
 20
272.9446752254
  0
VERTEX
  8
0
 62
9
  6
CONTINUOUS
 10
128.059412259
 20
272.7934447581
  0
VERTEX
  8
0
 62
9
  6
CONTINUOUS
 10
120.7437913836
 20
272.695204483
  0
VERTEX
  8
0
 62
9
  6
CONTINUOUS
 10
113.6047120128
 20
272.6660464677
  0
VERTEX
  8
0
 62
9
  6
CONTINUOUS
 10
106.9554797036
 20
272.7109787541
  0
VERTEX
  8
0
 62
9
  6
CONTINUOUS
 10
100.4822992203
 20
272.8398492445
  0
VERTEX
  8
0
 62
9
  6
CONTINUOUS
 10
93.952960177
 20
273.0778207495
  0
VERTEX
  8
0
 62
9
  6
CONTINUOUS
 10
87.4470892809
 20
273.4246801873
  0
SEQEND
  0
LINE
  8
0
 62
7
  6
CONTINUOUS
 10
174.3952343342
 20
286.4152807045
 11
174.3951308138
 21
286.4152777256
  0
POLYLINE
  8
0
 62
7
  6
CONTINUOUS
 66
1
 70
0
  0
VERTEX
  8
0
 62
7
  6
CONTINUOUS
 10
18.1214954152
 20
281.587736666
  0
VERTEX
  8
0
 62
7
  6
CONTINUOUS
 10
16.6074033285
 20
281.5443269015
  0
VERTEX
  8
0
 62
7
  6
CONTINUOUS
 10
14.9105789142
 20
281.5140065432
  0
VERTEX
  8
0
 62
7
  6
CONTINUOUS
 10
13.4291256172
 20
281.5126019411
  0
VERTEX
  8
0
 62
7
  6
CONTINUOUS
 10
12.1791592151
 20
281.5422464438
  0
VERTEX
  8
0
 62
7
  6
CONTINUOUS
 10
11.56267687
 20
281.5731674669
  0
SEQEND
  0
LINE
  8
0
 62
7
  6
CONTINUOUS
 10
128.880815878
 20
285.0961224438
 11
138.8996479176
 21
285.3858251095
  0
POLYLINE
  8
0
 62
7
  6
CONTINUOUS
 66
1
 70
0
  0
VERTEX
  8
0
 62
7
  6
CONTINUOUS
 10
128.880815878
 20
285.0961224438
  0
VERTEX
  8
0
 62
7
  6
CONTINUOUS
 10
127.0478979025
 20
285.0470416701
  0
VERTEX
  8
0
 62
7
  6
CONTINUOUS
 10
125.4081768461
 20
285.0076805547
  0
VERTEX
  8
0
 62
7
  6
CONTINUOUS
 10
123.8815189248
 20
284.9751553767
  0
VERTEX
  8
0
 62
7
  6
CONTINUOUS
 10
122.4480120364
 20
284.9484352178
  0
VERTEX
  8
0
 62
7
  6
CONTINUOUS
 10
121.1009858026
 20
284.92685865
  0
VERTEX
  8
0
 62
7
  6
CONTINUOUS
 10
119.8367989487
 20
284.9098485117
  0
VERTEX
  8
0
 62
7
  6
CONTINUOUS
 10
118.6510414595
 20
284.8968457681
  0
VERTEX
  8
0
 62
7
  6
CONTINUOUS
 10
117.5393476889
 20
284.8873286389
  0
VERTEX
  8
0
 62
7
  6
CONTINUOUS
 10
116.4973860391
 20
284.8808117246
  0
VERTEX
  8
0
 62
7
  6
CONTINUOUS
 10
115.5206426376
 20
284.8768499368
  0
VERTEX
  8
0
 62
7
  6
CONTINUOUS
 10
114.60459118
 20
284.875042517
  0
SEQEND
  0
POLYLINE
  8
0
 62
7
  6
CONTINUOUS
 66
1
 70
0
  0
VERTEX
  8
0
 62
7
  6
CONTINUOUS
 10
174.2680852465
 20
286.412281165
  0
VERTEX
  8
0
 62
7
  6
CONTINUOUS
 10
162.5632351611
 20
286.0992576481
  0
VERTEX
  8
0
 62
7
  6
CONTINUOUS
 10
138.8996479176
 20
285.3858251095
  0
SEQEND
  0
LINE
  8
0
 62
9
  6
CONTINUOUS
 10
166.3405371942
 20
273.8668982998
 11
174.4275004455
 21
274.0981021123
  0
LINE
  8
0
 62
9
  6
CONTINUOUS
 10
278.5525647789
 20
285.4035261322
 11
252.0900195885
 21
284.880656331
  0
POLYLINE
  8
0
 62
9
  6
CONTINUOUS
 66
1
 70
0
  0
VERTEX
  8
0
 62
9
  6
CONTINUOUS
 10
174.1223398248
 20
277.9574934305
  0
VERTEX
  8
0
 62
9
  6
CONTINUOUS
 10
177.6074019385
 20
278.0261605049
  0
VERTEX
  8
0
 62
9
  6
CONTINUOUS
 10
180.9409215856
 20
278.0651850109
  0
VERTEX
  8
0
 62
9
  6
CONTINUOUS
 10
184.2753920931
 20
278.0781931796
  0
VERTEX
  8
0
 62
9
  6
CONTINUOUS
 10
187.6098626006
 20
278.0651850109
  0
VERTEX
  8
0
 62
9
  6
CONTINUOUS
 10
190.9433822477
 20
278.0261605049
  0
SEQEND
  0
POLYLINE
  8
0
 62
9
  6
CONTINUOUS
 66
1
 70
0
  0
VERTEX
  8
0
 62
9
  6
CONTINUOUS
 10
65.0567820169
 20
274.0555510807
  0
VERTEX
  8
0
 62
9
  6
CONTINUOUS
 10
57.6646296006
 20
273.9272218723
  0
VERTEX
  8
0
 62
9
  6
CONTINUOUS
 10
50.6451095452
 20
273.7676770162
  0
VERTEX
  8
0
 62
9
  6
CONTINUOUS
 10
44.0226580891
 20
273.5781921423
  0
VERTEX
  8
0
 62
9
  6
CONTINUOUS
 10
37.8439063507
 20
273.4295868121
  0
VERTEX
  8
0
 62
9
  6
CONTINUOUS
 10
32.1300759256
 20
273.3783423977
  0
VERTEX
  8
0
 62
9
  6
CONTINUOUS
 10
26.9341930298
 20
273.4391004671
  0
VERTEX
  8
0
 62
9
  6
CONTINUOUS
 10
22.2821168149
 20
273.6377605851
  0
VERTEX
  8
0
 62
9
  6
CONTINUOUS
 10
18.2006398341
 20
273.9497737509
  0
VERTEX
  8
0
 62
9
  6
CONTINUOUS
 10
14.6895227325
 20
274.3684001544
  0
VERTEX
  8
0
 62
9
  6
CONTINUOUS
 10
11.8036853125
 20
274.833726938
  0
VERTEX
  8
0
 62
9
  6
CONTINUOUS
 10
9.5926027529
 20
275.2682194964
  0
VERTEX
  8
0
 62
9
  6
CONTINUOUS
 10
7.9906319455
 20
275.6671325586
  0
SEQEND
  0
POLYLINE
  8
0
 62
7
  6
CONTINUOUS
 66
1
 70
0
  0
VERTEX
  8
0
 62
7
  6
CONTINUOUS
 10
251.778313031
 20
284.9121336945
  0
VERTEX
  8
0
 62
7
  6
CONTINUOUS
 10
268.6385810734
 20
285.1938843385
  0
VERTEX
  8
0
 62
7
  6
CONTINUOUS
 10
284.466396661
 20
285.5954214426
  0
VERTEX
  8
0
 62
7
  6
CONTINUOUS
 10
299.3643228559
 20
285.9506090451
  0
VERTEX
  8
0
 62
7
  6
CONTINUOUS
 10
313.2778922292
 20
286.091034288
  0
VERTEX
  8
0
 62
7
  6
CONTINUOUS
 10
326.7476228112
 20
286.0094721577
  0
VERTEX
  8
0
 62
7
  6
CONTINUOUS
 10
340.3611721005
 20
285.6346396917
  0
SEQEND
  0
POLYLINE
  8
0
 62
9
  6
CONTINUOUS
 66
1
 70
0
  0
VERTEX
  8
0
 62
9
  6
CONTINUOUS
 10
9.6323283334
 20
281.7940793895
  0
VERTEX
  8
0
 62
9
  6
CONTINUOUS
 10
9.131820254
 20
281.7868872413
  0
VERTEX
  8
0
 62
9
  6
CONTINUOUS
 10
8.6302272727
 20
281.6926709681
  0
VERTEX
  8
0
 62
9
  6
CONTINUOUS
 10
8.1565339637
 20
281.5158251233
  0
VERTEX
  8
0
 62
9
  6
CONTINUOUS
 10
7.7205091666
 20
281.2619364815
  0
VERTEX
  8
0
 62
9
  6
CONTINUOUS
 10
7.3326913574
 20
280.9375873453
  0
VERTEX
  8
0
 62
9
  6
CONTINUOUS
 10
7.0047426056
 20
280.5526270289
  0
VERTEX
  8
0
 62
9
  6
CONTINUOUS
 10
6.7455227257
 20
280.1176383722
  0
VERTEX
  8
0
 62
9
  6
CONTINUOUS
 10
6.5623397326
 20
279.644571878
  0
VERTEX
  8
0
 62
9
  6
CONTINUOUS
 10
6.4608093941
 20
279.1478651874
  0
VERTEX
  8
0
 62
9
  6
CONTINUOUS
 10
6.4437217407
 20
278.6394908601
  0
VERTEX
  8
0
 62
9
  6
CONTINUOUS
 10
6.5132804384
 20
278.1304233981
  0
VERTEX
  8
0
 62
9
  6
CONTINUOUS
 10
6.6645136951
 20
277.6498059054
  0
SEQEND
  0
POLYLINE
  8
0
 62
7
  6
CONTINUOUS
 66
1
 70
0
  0
VERTEX
  8
0
 62
7
  6
CONTINUOUS
 10
174.2906463142
 20
283.1119787829
  0
VERTEX
  8
0
 62
7
  6
CONTINUOUS
 10
155.0126005196
 20
282.8448167406
  0
VERTEX
  8
0
 62
7
  6
CONTINUOUS
 10
136.8271012771
 20
282.6014404542
  0
VERTEX
  8
0
 62
7
  6
CONTINUOUS
 10
120.6295581922
 20
282.3969595117
  0
VERTEX
  8
0
 62
7
  6
CONTINUOUS
 10
106.2090379023
 20
282.2883817404
  0
VERTEX
  8
0
 62
7
  6
CONTINUOUS
 10
95.2614014848
 20
282.2753261931
  0
SEQEND
  0
POLYLINE
  8
0
 62
9
  6
CONTINUOUS
 66
1
 70
0
  0
VERTEX
  8
0
 62
9
  6
CONTINUOUS
 10
174.2752566318
 20
283.0728704144
  0
VERTEX
  8
0
 62
9
  6
CONTINUOUS
 10
159.3542607983
 20
282.8762018034
  0
VERTEX
  8
0
 62
9
  6
CONTINUOUS
 10
145.5929330014
 20
282.6993827848
  0
VERTEX
  8
0
 62
9
  6
CONTINUOUS
 10
132.839391391
 20
282.5395820219
  0
VERTEX
  8
0
 62
9
  6
CONTINUOUS
 10
120.9790211145
 20
282.3990640304
  0
VERTEX
  8
0
 62
9
  6
CONTINUOUS
 10
109.9304592548
 20
282.3054582035
  0
VERTEX
  8
0
 62
9
  6
CONTINUOUS
 10
99.6314622051
 20
282.2721153532
  0
VERTEX
  8
0
 62
9
  6
CONTINUOUS
 10
95.2521731127
 20
282.2738722137
  0
SEQEND
  0
POLYLINE
  8
0
 62
9
  6
CONTINUOUS
 66
1
 70
0
  0
VERTEX
  8
0
 62
9
  6
CONTINUOUS
 10
51.8977410506
 20
278.2177181204
  0
VERTEX
  8
0
 62
9
  6
CONTINUOUS
 10
57.9129062662
 20
278.2902251237
  0
VERTEX
  8
0
 62
9
  6
CONTINUOUS
 10
64.1898923614
 20
278.3403258798
  0
SEQEND
  0
LINE
  8
0
 62
7
  6
CONTINUOUS
 10
260.1793141708
 20
284.9106040547
 11
258.834296369
 21
284.8961779775
  0
LINE
  8
0
 62
9
  6
CONTINUOUS
 10
159.5680694006
 20
282.728100196
 11
174.2385573669
 21
282.8568649609
  0
POLYLINE
  8
0
 62
9
  6
CONTINUOUS
 66
1
 70
0
  0
VERTEX
  8
0
 62
9
  6
CONTINUOUS
 10
174.2753920931
 20
279.8707295674
  0
VERTEX
  8
0
 62
9
  6
CONTINUOUS
 10
159.4758129501
 20
279.7439141823
  0
VERTEX
  8
0
 62
9
  6
CONTINUOUS
 10
144.7747945262
 20
279.6083181454
  0
VERTEX
  8
0
 62
9
  6
CONTINUOUS
 10
130.2070776757
 20
279.4427570075
  0
VERTEX
  8
0
 62
9
  6
CONTINUOUS
 10
115.7613073842
 20
279.3107841165
  0
VERTEX
  8
0
 62
9
  6
CONTINUOUS
 10
101.426625995
 20
279.2759528203
  0
VERTEX
  8
0
 62
9
  6
CONTINUOUS
 10
87.2374555284
 20
279.3170786697
  0
SEQEND
  0
LINE
  8
0
 62
7
  6
CONTINUOUS
 10
249.9193632767
 20
284.8968262575
 11
251.778313031
 21
284.9121336945
  0
LINE
  8
0
 62
7
  6
CONTINUOUS
 10
258.834296369
 20
284.8961779775
 11
257.6102788142
 21
284.8862000026
  0
POLYLINE
  8
0
 62
9
  6
CONTINUOUS
 66
1
 70
0
  0
VERTEX
  8
0
 62
9
  6
CONTINUOUS
 10
360.2417973566
 20
282.2598285825
  0
VERTEX
  8
0
 62
9
  6
CONTINUOUS
 10
360.2004535866
 20
282.2595454695
  0
VERTEX
  8
0
 62
9
  6
CONTINUOUS
 10
360.1590610564
 20
282.258691315
  0
VERTEX
  8
0
 62
9
  6
CONTINUOUS
 10
360.1176241233
 20
282.2572637907
  0
VERTEX
  8
0
 62
9
  6
CONTINUOUS
 10
360.0761905086
 20
282.2552628693
  0
VERTEX
  8
0
 62
9
  6
CONTINUOUS
 10
360.0348070184
 20
282.2526907712
  0
VERTEX
  8
0
 62
9
  6
CONTINUOUS
 10
359.9934770606
 20
282.2495483839
  0
SEQEND
  0
LINE
  8
0
 62
7
  6
CONTINUOUS
 10
174.1006803988
 20
283.1091893119
 11
174.1007368082
 21
283.1091896561
  0
LINE
  8
0
 62
7
  6
CONTINUOUS
 10
275.3604646542
 20
282.2796695569
 11
280.4433998819
 21
282.315411346
  0
LINE
  8
0
 62
7
  6
CONTINUOUS
 10
174.2906463142
 20
283.1119787829
 11
174.2907094098
 21
283.1119791032
  0
LINE
  8
0
 62
7
  6
CONTINUOUS
 10
257.6102788142
 20
284.8862000026
 11
256.2467980167
 21
284.8786618963
  0
POLYLINE
  8
0
 62
9
  6
CONTINUOUS
 66
1
 70
0
  0
VERTEX
  8
0
 62
9
  6
CONTINUOUS
 10
281.3133286578
 20
279.3170786697
  0
VERTEX
  8
0
 62
9
  6
CONTINUOUS
 10
267.1158863657
 20
279.2760072355
  0
VERTEX
  8
0
 62
9
  6
CONTINUOUS
 10
252.7766992853
 20
279.3108740717
  0
VERTEX
  8
0
 62
9
  6
CONTINUOUS
 10
238.3308645429
 20
279.4428663381
  0
VERTEX
  8
0
 62
9
  6
CONTINUOUS
 10
223.7659746069
 20
279.6084225556
  0
VERTEX
  8
0
 62
9
  6
CONTINUOUS
 10
209.069053813
 20
279.7439812456
  0
VERTEX
  8
0
 62
9
  6
CONTINUOUS
 10
194.2753920931
 20
279.8707295674
  0
SEQEND
  0
LINE
  8
0
 62
9
  6
CONTINUOUS
 10
266.4162425537
 20
282.2545681369
 11
273.3053695137
 21
282.2738811226
  0
LINE
  8
0
 62
9
  6
CONTINUOUS
 10
273.3605167068
 20
282.2739605073
 11
275.3604646542
 21
282.2796695569
  0
POLYLINE
  8
0
 62
9
  6
CONTINUOUS
 66
1
 70
0
  0
VERTEX
  8
0
 62
9
  6
CONTINUOUS
 10
359.9569557684
 20
282.4069830849
  0
VERTEX
  8
0
 62
9
  6
CONTINUOUS
 10
360.4508683466
 20
282.4083155305
  0
VERTEX
  8
0
 62
9
  6
CONTINUOUS
 10
360.9385711689
 20
282.3285423071
  0
VERTEX
  8
0
 62
9
  6
CONTINUOUS
 10
361.391681777
 20
282.1761960314
  0
VERTEX
  8
0
 62
9
  6
CONTINUOUS
 10
361.8126900428
 20
281.9551465576
  0
VERTEX
  8
0
 62
9
  6
CONTINUOUS
 10
362.2009313694
 20
281.6637223767
  0
VERTEX
  8
0
 62
9
  6
CONTINUOUS
 10
362.5416264263
 20
281.3078149639
  0
VERTEX
  8
0
 62
9
  6
CONTINUOUS
 10
362.8231655068
 20
280.8942684072
  0
VERTEX
  8
0
 62
9
  6
CONTINUOUS
 10
363.0000467886
 20
280.5239695204
  0
SEQEND
  0
POLYLINE
  8
0
 62
9
  6
CONTINUOUS
 66
1
 70
0
  0
VERTEX
  8
0
 62
9
  6
CONTINUOUS
 10
315.2640144777
 20
283.6727205399
  0
VERTEX
  8
0
 62
9
  6
CONTINUOUS
 10
322.5809694044
 20
283.6854587917
  0
VERTEX
  8
0
 62
9
  6
CONTINUOUS
 10
326.0759505861
 20
283.6889857835
  0
VERTEX
  8
0
 62
9
  6
CONTINUOUS
 10
329.4619038114
 20
283.6866551628
  0
SEQEND
  0
LINE
  8
0
 62
7
  6
CONTINUOUS
 10
256.2467980167
 20
284.8786618963
 11
254.7370599731
 21
284.8749738976
  0
LINE
  8
0
 62
7
  6
CONTINUOUS
 10
273.3605167068
 20
282.2739605073
 11
273.3053695137
 21
282.2738811226
  0
POLYLINE
  8
0
 62
9
  6
CONTINUOUS
 66
1
 70
0
  0
VERTEX
  8
0
 62
9
  6
CONTINUOUS
 10
39.0502936661
 20
283.6866156273
  0
VERTEX
  8
0
 62
9
  6
CONTINUOUS
 10
42.4763559573
 20
283.6889619743
  0
VERTEX
  8
0
 62
9
  6
CONTINUOUS
 10
46.0004322015
 20
283.6854154266
  0
SEQEND
  0
POLYLINE
  8
0
 62
9
  6
CONTINUOUS
 66
1
 70
0
  0
VERTEX
  8
0
 62
9
  6
CONTINUOUS
 10
273.3053695137
 20
282.2738811226
  0
VERTEX
  8
0
 62
9
  6
CONTINUOUS
 10
269.0525936503
 20
282.272037855
  0
VERTEX
  8
0
 62
9
  6
CONTINUOUS
 10
258.7830428051
 20
282.3045096016
  0
VERTEX
  8
0
 62
9
  6
CONTINUOUS
 10
247.7230128874
 20
282.3974541863
  0
VERTEX
  8
0
 62
9
  6
CONTINUOUS
 10
235.7813706252
 20
282.5387963492
  0
VERTEX
  8
0
 62
9
  6
CONTINUOUS
 10
222.945813478
 20
282.6994720015
  0
VERTEX
  8
0
 62
9
  6
CONTINUOUS
 10
209.168587539
 20
282.876295413
  0
VERTEX
  8
0
 62
9
  6
CONTINUOUS
 10
194.4656104686
 20
283.0702883179
  0
SEQEND
  0
POLYLINE
  8
0
 62
9
  6
CONTINUOUS
 66
1
 70
0
  0
VERTEX
  8
0
 62
9
  6
CONTINUOUS
 10
303.493825
 20
274.0487693314
  0
VERTEX
  8
0
 62
9
  6
CONTINUOUS
 10
299.8874398791
 20
274.0506632056
  0
VERTEX
  8
0
 62
9
  6
CONTINUOUS
 10
296.2304369486
 20
274.0134679932
  0
VERTEX
  8
0
 62
9
  6
CONTINUOUS
 10
292.5232816863
 20
273.9368304434
  0
VERTEX
  8
0
 62
9
  6
CONTINUOUS
 10
288.7662081571
 20
273.815815224
  0
VERTEX
  8
0
 62
9
  6
CONTINUOUS
 10
284.9595076139
 20
273.645276732
  0
VERTEX
  8
0
 62
9
  6
CONTINUOUS
 10
281.1036949053
 20
273.4246801873
  0
SEQEND
  0
POLYLINE
  8
0
 62
7
  6
CONTINUOUS
 66
1
 70
0
  0
VERTEX
  8
0
 62
7
  6
CONTINUOUS
 10
273.2995838373
 20
282.2751998355
  0
VERTEX
  8
0
 62
7
  6
CONTINUOUS
 10
262.4440959523
 20
282.2880138221
  0
VERTEX
  8
0
 62
7
  6
CONTINUOUS
 10
248.1360305949
 20
282.3949002225
  0
VERTEX
  8
0
 62
7
  6
CONTINUOUS
 10
231.9297921429
 20
282.5980109063
  0
VERTEX
  8
0
 62
7
  6
CONTINUOUS
 10
213.6399043068
 20
282.8484594824
  0
VERTEX
  8
0
 62
7
  6
CONTINUOUS
 10
194.4502224192
 20
283.109214737
  0
SEQEND
  0
LINE
  8
0
 62
7
  6
CONTINUOUS
 10
95.2521731127
 20
282.2738722137
 11
95.1913538461
 21
282.2739595701
  0
POLYLINE
  8
0
 62
7
  6
CONTINUOUS
 66
1
 70
0
  0
VERTEX
  8
0
 62
7
  6
CONTINUOUS
 10
194.2752631114
 20
282.8570355042
  0
VERTEX
  8
0
 62
7
  6
CONTINUOUS
 10
192.6455826368
 20
282.859225213
  0
VERTEX
  8
0
 62
7
  6
CONTINUOUS
 10
191.000980107
 20
282.8582017824
  0
VERTEX
  8
0
 62
7
  6
CONTINUOUS
 10
189.341318926
 20
282.8547816561
  0
VERTEX
  8
0
 62
7
  6
CONTINUOUS
 10
187.6670215265
 20
282.8489280741
  0
VERTEX
  8
0
 62
7
  6
CONTINUOUS
 10
185.9784461853
 20
282.8401434581
  0
VERTEX
  8
0
 62
7
  6
CONTINUOUS
 10
184.2753921005
 20
282.8288329742
  0
SEQEND
  0
POLYLINE
  8
0
 62
9
  6
CONTINUOUS
 66
1
 70
0
  0
VERTEX
  8
0
 62
9
  6
CONTINUOUS
 10
46.0004322015
 20
283.6854154266
  0
VERTEX
  8
0
 62
9
  6
CONTINUOUS
 10
53.3425343128
 20
283.6726533253
  0
VERTEX
  8
0
 62
9
  6
CONTINUOUS
 10
57.5742159007
 20
283.6716679115
  0
VERTEX
  8
0
 62
9
  6
CONTINUOUS
 10
62.0477840635
 20
283.6825736454
  0
VERTEX
  8
0
 62
9
  6
CONTINUOUS
 10
66.5608465776
 20
283.7076044774
  0
VERTEX
  8
0
 62
9
  6
CONTINUOUS
 10
71.325089338
 20
283.7505453208
  0
VERTEX
  8
0
 62
9
  6
CONTINUOUS
 10
76.5708500015
 20
283.8189879696
  0
VERTEX
  8
0
 62
9
  6
CONTINUOUS
 10
82.0397058674
 20
283.9135358489
  0
VERTEX
  8
0
 62
9
  6
CONTINUOUS
 10
87.4755372482
 20
284.0246404287
  0
VERTEX
  8
0
 62
9
  6
CONTINUOUS
 10
93.1020635538
 20
284.1524868085
  0
VERTEX
  8
0
 62
9
  6
CONTINUOUS
 10
99.132812145
 20
284.2999324386
  0
VERTEX
  8
0
 62
9
  6
CONTINUOUS
 10
105.342164327
 20
284.4591970069
  0
VERTEX
  8
0
 62
9
  6
CONTINUOUS
 10
111.5074841775
 20
284.6215814415
  0
VERTEX
  8
0
 62
9
  6
CONTINUOUS
 10
117.8333614853
 20
284.79130029
  0
VERTEX
  8
0
 62
9
  6
CONTINUOUS
 10
124.5283116643
 20
284.9745737231
  0
VERTEX
  8
0
 62
9
  6
CONTINUOUS
 10
128.880815878
 20
285.0961224438
  0
SEQEND
  0
LINE
  8
0
 62
7
  6
CONTINUOUS
 10
114.60459118
 20
284.875042517
 11
112.9369981023
 21
284.8765093615
  0
POLYLINE
  8
0
 62
7
  6
CONTINUOUS
 66
1
 70
0
  0
VERTEX
  8
0
 62
7
  6
CONTINUOUS
 10
254.7370599731
 20
284.8749738976
  0
VERTEX
  8
0
 62
7
  6
CONTINUOUS
 10
253.0443303906
 20
284.8768078228
  0
VERTEX
  8
0
 62
7
  6
CONTINUOUS
 10
252.1198505637
 20
284.8804759856
  0
VERTEX
  8
0
 62
7
  6
CONTINUOUS
 10
251.1381953135
 20
284.8864106572
  0
VERTEX
  8
0
 62
7
  6
CONTINUOUS
 10
250.0956611955
 20
284.8949787732
  0
VERTEX
  8
0
 62
7
  6
CONTINUOUS
 10
248.9880639487
 20
284.9065856515
  0
VERTEX
  8
0
 62
7
  6
CONTINUOUS
 10
247.811668606
 20
284.9216639156
  0
VERTEX
  8
0
 62
7
  6
CONTINUOUS
 10
246.561425363
 20
284.9406969155
  0
VERTEX
  8
0
 62
7
  6
CONTINUOUS
 10
245.232039314
 20
284.9642139599
  0
VERTEX
  8
0
 62
7
  6
CONTINUOUS
 10
243.8205125108
 20
284.9927332169
  0
VERTEX
  8
0
 62
7
  6
CONTINUOUS
 10
242.3174616401
 20
285.0269317398
  0
VERTEX
  8
0
 62
7
  6
CONTINUOUS
 10
240.7367483855
 20
285.066926614
  0
SEQEND
  0
LINE
  8
0
 62
9
  6
CONTINUOUS
 10
93.1903728637
 20
282.2796692971
 11
95.1913538461
 21
282.2739595701
  0
POLYLINE
  8
0
 62
9
  6
CONTINUOUS
 66
1
 70
0
  0
VERTEX
  8
0
 62
9
  6
CONTINUOUS
 10
95.2521731127
 20
282.2738722137
  0
VERTEX
  8
0
 62
9
  6
CONTINUOUS
 10
102.1372968258
 20
282.2545687524
  0
VERTEX
  8
0
 62
9
  6
CONTINUOUS
 10
116.2993746504
 20
282.3100239
  0
VERTEX
  8
0
 62
9
  6
CONTINUOUS
 10
130.5962132269
 20
282.4467030092
  0
VERTEX
  8
0
 62
9
  6
CONTINUOUS
 10
145.0213804481
 20
282.5934973336
  0
VERTEX
  8
0
 62
9
  6
CONTINUOUS
 10
159.5680694006
 20
282.728100196
  0
SEQEND
  0
POLYLINE
  8
0
 62
9
  6
CONTINUOUS
 66
1
 70
0
  0
VERTEX
  8
0
 62
9
  6
CONTINUOUS
 10
64.1898903516
 20
278.333509029
  0
VERTEX
  8
0
 62
9
  6
CONTINUOUS
 10
67.9118041753
 20
278.3163083726
  0
VERTEX
  8
0
 62
9
  6
CONTINUOUS
 10
71.6865163973
 20
278.2591766193
  0
VERTEX
  8
0
 62
9
  6
CONTINUOUS
 10
75.5054080976
 20
278.1638271769
  0
VERTEX
  8
0
 62
9
  6
CONTINUOUS
 10
79.3703556237
 20
278.0251198216
  0
VERTEX
  8
0
 62
9
  6
CONTINUOUS
 10
83.2837314563
 20
277.8379143298
  0
VERTEX
  8
0
 62
9
  6
CONTINUOUS
 10
87.2374555284
 20
277.6039241093
  0
SEQEND
  0
LINE
  8
0
 62
7
  6
CONTINUOUS
 10
194.2601415604
 20
283.1119787264
 11
194.2600787018
 21
283.1119790475
  0
POLYLINE
  8
0
 62
9
  6
CONTINUOUS
 66
1
 70
0
  0
VERTEX
  8
0
 62
9
  6
CONTINUOUS
 10
329.4619038114
 20
283.6866551628
  0
VERTEX
  8
0
 62
9
  6
CONTINUOUS
 10
333.3520908474
 20
283.6664721969
  0
VERTEX
  8
0
 62
9
  6
CONTINUOUS
 10
336.8888856241
 20
283.6348889535
  0
VERTEX
  8
0
 62
9
  6
CONTINUOUS
 10
340.0576648982
 20
283.5947022057
  0
SEQEND
  0
LINE
  8
0
 62
7
  6
CONTINUOUS
 10
112.9369981023
 20
284.8765093615
 11
111.4608837774
 21
284.8828637703
  0
LINE
  8
0
 62
7
  6
CONTINUOUS
 10
194.4500284462
 20
283.1091904152
 11
194.4499696705
 21
283.1091907559
  0
POLYLINE
  8
0
 62
7
  6
CONTINUOUS
 66
1
 70
0
  0
VERTEX
  8
0
 62
7
  6
CONTINUOUS
 10
184.2753920856
 20
282.8288329742
  0
VERTEX
  8
0
 62
7
  6
CONTINUOUS
 10
182.5723385448
 20
282.8401434551
  0
VERTEX
  8
0
 62
7
  6
CONTINUOUS
 10
180.8837635293
 20
282.8489280707
  0
VERTEX
  8
0
 62
7
  6
CONTINUOUS
 10
179.209451992
 20
282.8547817136
  0
VERTEX
  8
0
 62
7
  6
CONTINUOUS
 10
177.5498049455
 20
282.8582017814
  0
VERTEX
  8
0
 62
7
  6
CONTINUOUS
 10
175.9052875596
 20
282.8592252388
  0
VERTEX
  8
0
 62
7
  6
CONTINUOUS
 10
174.2757490056
 20
282.8570361349
  0
SEQEND
  0
POLYLINE
  8
0
 62
9
  6
CONTINUOUS
 66
1
 70
0
  0
VERTEX
  8
0
 62
9
  6
CONTINUOUS
 10
190.9427892677
 20
283.1102297981
  0
VERTEX
  8
0
 62
9
  6
CONTINUOUS
 10
187.6093295325
 20
283.1323700578
  0
VERTEX
  8
0
 62
9
  6
CONTINUOUS
 10
184.2753920836
 20
283.1397038907
  0
VERTEX
  8
0
 62
9
  6
CONTINUOUS
 10
180.9414546368
 20
283.1323700586
  0
VERTEX
  8
0
 62
9
  6
CONTINUOUS
 10
177.607994908
 20
283.1102297997
  0
VERTEX
  8
0
 62
9
  6
CONTINUOUS
 10
174.2752547986
 20
283.0728633175
  0
SEQEND
  0
LINE
  8
0
 62
7
  6
CONTINUOUS
 10
88.1073843043
 20
282.315411346
 11
93.1903728637
 21
282.2796692971
  0
LINE
  8
0
 62
7
  6
CONTINUOUS
 10
118.3144121358
 20
284.8939639091
 11
117.7515918974
 21
284.8982424175
  0
LINE
  8
0
 62
7
  6
CONTINUOUS
 10
111.4608837774
 20
284.8828637703
 11
110.148598641
 21
284.8923236188
  0
POLYLINE
  8
0
 62
9
  6
CONTINUOUS
 66
1
 70
0
  0
VERTEX
  8
0
 62
9
  6
CONTINUOUS
 10
304.3608917862
 20
278.3403258706
  0
VERTEX
  8
0
 62
9
  6
CONTINUOUS
 10
310.6378737568
 20
278.2902251954
  0
VERTEX
  8
0
 62
9
  6
CONTINUOUS
 10
316.6530360594
 20
278.2177182476
  0
SEQEND
  0
POLYLINE
  8
0
 62
7
  6
CONTINUOUS
 66
1
 70
0
  0
VERTEX
  8
0
 62
7
  6
CONTINUOUS
 10
191.6002740332
 20
283.1458828949
  0
VERTEX
  8
0
 62
7
  6
CONTINUOUS
 10
187.9582050124
 20
283.1754812895
  0
VERTEX
  8
0
 62
7
  6
CONTINUOUS
 10
184.3155697566
 20
283.1855082612
  0
VERTEX
  8
0
 62
7
  6
CONTINUOUS
 10
180.673038839
 20
283.1759145284
  0
VERTEX
  8
0
 62
7
  6
CONTINUOUS
 10
177.031283145
 20
283.1467507655
  0
VERTEX
  8
0
 62
7
  6
CONTINUOUS
 10
174.2906458772
 20
283.1119722133
  0
SEQEND
  0
POLYLINE
  8
0
 62
9
  6
CONTINUOUS
 66
1
 70
0
  0
VERTEX
  8
0
 62
9
  6
CONTINUOUS
 10
194.3122267548
 20
282.8568649674
  0
VERTEX
  8
0
 62
9
  6
CONTINUOUS
 10
208.9829435224
 20
282.7280967154
  0
VERTEX
  8
0
 62
9
  6
CONTINUOUS
 10
223.5303471998
 20
282.5934890239
  0
VERTEX
  8
0
 62
9
  6
CONTINUOUS
 10
237.9572563567
 20
282.4466777725
  0
VERTEX
  8
0
 62
9
  6
CONTINUOUS
 10
252.2552401681
 20
282.3099953422
  0
VERTEX
  8
0
 62
9
  6
CONTINUOUS
 10
266.4162425537
 20
282.2545681369
  0
SEQEND
  0
POLYLINE
  8
0
 62
7
  6
CONTINUOUS
 66
1
 70
0
  0
VERTEX
  8
0
 62
7
  6
CONTINUOUS
 10
88.1029124103
 20
282.3169698638
  0
VERTEX
  8
0
 62
7
  6
CONTINUOUS
 10
81.1950996256
 20
282.3856441713
  0
VERTEX
  8
0
 62
7
  6
CONTINUOUS
 10
73.6090230098
 20
282.4720597574
  0
VERTEX
  8
0
 62
7
  6
CONTINUOUS
 10
66.2584451439
 20
282.5465390546
  0
VERTEX
  8
0
 62
7
  6
CONTINUOUS
 10
59.1748626374
 20
282.5879305123
  0
VERTEX
  8
0
 62
7
  6
CONTINUOUS
 10
52.4105328927
 20
282.5822549579
  0
VERTEX
  8
0
 62
7
  6
CONTINUOUS
 10
46.0585802671
 20
282.5230365541
  0
VERTEX
  8
0
 62
7
  6
CONTINUOUS
 10
40.1394139086
 20
282.411502093
  0
VERTEX
  8
0
 62
7
  6
CONTINUOUS
 10
34.6669276985
 20
282.2555082338
  0
VERTEX
  8
0
 62
7
  6
CONTINUOUS
 10
29.6542976038
 20
282.0697460261
  0
VERTEX
  8
0
 62
7
  6
CONTINUOUS
 10
25.1331013216
 20
281.8759884317
  0
VERTEX
  8
0
 62
7
  6
CONTINUOUS
 10
21.1753894132
 20
281.7033638515
  0
VERTEX
  8
0
 62
7
  6
CONTINUOUS
 10
18.1215096215
 20
281.5877371233
  0
SEQEND
  0
POLYLINE
  8
0
 62
7
  6
CONTINUOUS
 66
1
 70
0
  0
VERTEX
  8
0
 62
7
  6
CONTINUOUS
 10
110.148598641
 20
284.8923236188
  0
VERTEX
  8
0
 62
7
  6
CONTINUOUS
 10
108.6932121516
 20
284.9067680205
  0
VERTEX
  8
0
 62
7
  6
CONTINUOUS
 10
108.457463433
 20
284.9095424715
  0
SEQEND
  0
POLYLINE
  8
0
 62
9
  6
CONTINUOUS
 66
1
 70
0
  0
VERTEX
  8
0
 62
9
  6
CONTINUOUS
 10
87.2374555284
 20
279.3170786697
  0
VERTEX
  8
0
 62
9
  6
CONTINUOUS
 10
79.4845730338
 20
279.4029808033
  0
VERTEX
  8
0
 62
9
  6
CONTINUOUS
 10
71.9481657384
 20
279.4767046625
  0
VERTEX
  8
0
 62
9
  6
CONTINUOUS
 10
64.6745940282
 20
279.5457863755
  0
VERTEX
  8
0
 62
9
  6
CONTINUOUS
 10
57.6732517606
 20
279.5876175576
  0
VERTEX
  8
0
 62
9
  6
CONTINUOUS
 10
50.9434572135
 20
279.581121151
  0
VERTEX
  8
0
 62
9
  6
CONTINUOUS
 10
44.5707277808
 20
279.5292393032
  0
VERTEX
  8
0
 62
9
  6
CONTINUOUS
 10
38.6334695183
 20
279.4227763138
  0
VERTEX
  8
0
 62
9
  6
CONTINUOUS
 10
33.1074974644
 20
279.2770686682
  0
VERTEX
  8
0
 62
9
  6
CONTINUOUS
 10
27.987102984
 20
279.0948551533
  0
VERTEX
  8
0
 62
9
  6
CONTINUOUS
 10
23.323113335
 20
278.9047331638
  0
VERTEX
  8
0
 62
9
  6
CONTINUOUS
 10
19.1494294891
 20
278.7399018138
  0
VERTEX
  8
0
 62
9
  6
CONTINUOUS
 10
15.4874572808
 20
278.5892947319
  0
SEQEND
  0
POLYLINE
  8
0
 62
7
  6
CONTINUOUS
 66
1
 70
0
  0
VERTEX
  8
0
 62
7
  6
CONTINUOUS
 10
191.0783915241
 20
286.4762079778
  0
VERTEX
  8
0
 62
7
  6
CONTINUOUS
 10
187.2622921618
 20
286.5205602672
  0
VERTEX
  8
0
 62
7
  6
CONTINUOUS
 10
183.5902550284
 20
286.5305949352
  0
VERTEX
  8
0
 62
7
  6
CONTINUOUS
 10
180.0617826141
 20
286.510072803
  0
VERTEX
  8
0
 62
7
  6
CONTINUOUS
 10
176.6764241684
 20
286.4626012368
  0
VERTEX
  8
0
 62
7
  6
CONTINUOUS
 10
174.2680852465
 20
286.412281165
  0
SEQEND
  0
POLYLINE
  8
0
 62
9
  6
CONTINUOUS
 66
1
 70
0
  0
VERTEX
  8
0
 62
9
  6
CONTINUOUS
 10
190.8418695626
 20
274.1672163339
  0
VERTEX
  8
0
 62
9
  6
CONTINUOUS
 10
187.5592495508
 20
274.2095882343
  0
VERTEX
  8
0
 62
9
  6
CONTINUOUS
 10
184.2753917524
 20
274.2237223577
  0
VERTEX
  8
0
 62
9
  6
CONTINUOUS
 10
180.9915340269
 20
274.2095855361
  0
VERTEX
  8
0
 62
9
  6
CONTINUOUS
 10
177.7089142342
 20
274.1672128809
  0
VERTEX
  8
0
 62
9
  6
CONTINUOUS
 10
174.4275006663
 20
274.0967219492
  0
SEQEND
  0
LINE
  8
0
 62
9
  6
CONTINUOUS
 10
190.9427892677
 20
283.1102297981
 11
194.4654279362
 21
283.0703367869
  0
LINE
  8
0
 62
7
  6
CONTINUOUS
 10
191.6002740332
 20
283.1458828949
 11
194.4500284462
 21
283.1091904152
  0
POLYLINE
  8
0
 62
9
  6
CONTINUOUS
 66
1
 70
0
  0
VERTEX
  8
0
 62
9
  6
CONTINUOUS
 10
358.9149834849
 20
281.7938114336
  0
VERTEX
  8
0
 62
9
  6
CONTINUOUS
 10
359.4170632747
 20
281.7864685417
  0
VERTEX
  8
0
 62
9
  6
CONTINUOUS
 10
359.9194801363
 20
281.6917552924
  0
VERTEX
  8
0
 62
9
  6
CONTINUOUS
 10
360.3927649751
 20
281.5146614531
  0
VERTEX
  8
0
 62
9
  6
CONTINUOUS
 10
360.828003029
 20
281.2609084909
  0
VERTEX
  8
0
 62
9
  6
CONTINUOUS
 10
361.2155601046
 20
280.93651987
  0
VERTEX
  8
0
 62
9
  6
CONTINUOUS
 10
361.5433001297
 20
280.5515399742
  0
VERTEX
  8
0
 62
9
  6
CONTINUOUS
 10
361.802244109
 20
280.1167460956
  0
VERTEX
  8
0
 62
9
  6
CONTINUOUS
 10
361.9852150248
 20
279.6439955755
  0
VERTEX
  8
0
 62
9
  6
CONTINUOUS
 10
362.0865576707
 20
279.148388223
  0
VERTEX
  8
0
 62
9
  6
CONTINUOUS
 10
362.1037525424
 20
278.6396527437
  0
VERTEX
  8
0
 62
9
  6
CONTINUOUS
 10
362.033465643
 20
278.1270763931
  0
VERTEX
  8
0
 62
9
  6
CONTINUOUS
 10
361.8796551984
 20
277.6416268908
  0
SEQEND
  0
POLYLINE
  8
0
 62
9
  6
CONTINUOUS
 66
1
 70
0
  0
VERTEX
  8
0
 62
9
  6
CONTINUOUS
 10
340.0576648982
 20
283.5947022057
  0
VERTEX
  8
0
 62
9
  6
CONTINUOUS
 10
345.4764265479
 20
283.5137462401
  0
VERTEX
  8
0
 62
9
  6
CONTINUOUS
 10
347.7370941201
 20
283.4774198529
  0
VERTEX
  8
0
 62
9
  6
CONTINUOUS
 10
349.6724902805
 20
283.4415245452
  0
VERTEX
  8
0
 62
9
  6
CONTINUOUS
 10
351.2437372616
 20
283.3987812441
  0
VERTEX
  8
0
 62
9
  6
CONTINUOUS
 10
352.4026170557
 20
283.3391693516
  0
VERTEX
  8
0
 62
9
  6
CONTINUOUS
 10
353.1651207343
 20
283.2554046354
  0
SEQEND
  0
POLYLINE
  8
0
 62
7
  6
CONTINUOUS
 66
1
 70
0
  0
VERTEX
  8
0
 62
7
  6
CONTINUOUS
 10
117.7515918974
 20
284.8982424175
  0
VERTEX
  8
0
 62
7
  6
CONTINUOUS
 10
101.1448639035
 20
285.1655811717
  0
VERTEX
  8
0
 62
7
  6
CONTINUOUS
 10
85.7077981425
 20
285.55700057
  0
VERTEX
  8
0
 62
7
  6
CONTINUOUS
 10
71.0782019925
 20
285.9132283175
  0
VERTEX
  8
0
 62
7
  6
CONTINUOUS
 10
57.0625587411
 20
286.085346756
  0
VERTEX
  8
0
 62
7
  6
CONTINUOUS
 10
43.2300128612
 20
286.0335969209
  0
VERTEX
  8
0
 62
7
  6
CONTINUOUS
 10
29.0232831176
 20
285.6574058551
  0
SEQEND
  0
POLYLINE
  8
0
 62
9
  6
CONTINUOUS
 66
1
 70
0
  0
VERTEX
  8
0
 62
9
  6
CONTINUOUS
 10
316.6530360594
 20
278.2177182476
  0
VERTEX
  8
0
 62
9
  6
CONTINUOUS
 10
327.8062287087
 20
278.0054855337
  0
VERTEX
  8
0
 62
9
  6
CONTINUOUS
 10
332.9512540952
 20
277.940722479
  0
VERTEX
  8
0
 62
9
  6
CONTINUOUS
 10
337.7515628225
 20
277.9264252284
  0
VERTEX
  8
0
 62
9
  6
CONTINUOUS
 10
342.1589265492
 20
277.9877698324
  0
VERTEX
  8
0
 62
9
  6
CONTINUOUS
 10
346.1847240116
 20
278.1179189476
  0
VERTEX
  8
0
 62
9
  6
CONTINUOUS
 10
349.8271098269
 20
278.3186215816
  0
VERTEX
  8
0
 62
9
  6
CONTINUOUS
 10
353.0633269054
 20
278.5892947319
  0
SEQEND
  0
LINE
  8
0
 62
9
  6
CONTINUOUS
 10
89.9982016775
 20
285.4035265914
 11
116.4604696847
 21
284.8806619875
  0
LINE
  8
0
 62
9
  6
CONTINUOUS
 10
190.8418695626
 20
274.1672163339
 11
194.2754142335
 21
274.0946277939
  0
LINE
  8
0
 62
7
  6
CONTINUOUS
 10
194.2827462697
 20
286.4122799916
 11
191.0783915241
 21
286.4762079778
  0
LINE
  8
0
 62
9
  6
CONTINUOUS
 10
194.4284443614
 20
277.9574934305
 11
190.9433822477
 21
278.0261605049
  0
LINE
  8
0
 62
7
  6
CONTINUOUS
 10
205.9145991098
 20
286.1014230629
 11
194.2830803528
 21
286.4126785014
  0
POLYLINE
  8
0
 62
9
  6
CONTINUOUS
 66
1
 70
0
  0
VERTEX
  8
0
 62
9
  6
CONTINUOUS
 10
240.7367483855
 20
285.066926614
  0
VERTEX
  8
0
 62
9
  6
CONTINUOUS
 10
244.2093567452
 20
284.9693999863
  0
VERTEX
  8
0
 62
9
  6
CONTINUOUS
 10
250.9123475694
 20
284.7860232122
  0
VERTEX
  8
0
 62
9
  6
CONTINUOUS
 10
257.2380922084
 20
284.6164097801
  0
VERTEX
  8
0
 62
9
  6
CONTINUOUS
 10
263.4043507447
 20
284.4541041289
  0
VERTEX
  8
0
 62
9
  6
CONTINUOUS
 10
269.6319088974
 20
284.2945322378
  0
VERTEX
  8
0
 62
9
  6
CONTINUOUS
 10
275.6733060987
 20
284.1471732444
  0
VERTEX
  8
0
 62
9
  6
CONTINUOUS
 10
281.278190974
 20
284.020251061
  0
VERTEX
  8
0
 62
9
  6
CONTINUOUS
 10
286.6760020909
 20
283.9104091232
  0
VERTEX
  8
0
 62
9
  6
CONTINUOUS
 10
292.0908023477
 20
283.8173688458
  0
VERTEX
  8
0
 62
9
  6
CONTINUOUS
 10
297.2884424026
 20
283.7498887163
  0
VERTEX
  8
0
 62
9
  6
CONTINUOUS
 10
302.0398940454
 20
283.7072225495
  0
VERTEX
  8
0
 62
9
  6
CONTINUOUS
 10
306.5535860436
 20
283.6823547105
  0
VERTEX
  8
0
 62
9
  6
CONTINUOUS
 10
311.0305548597
 20
283.6715837345
  0
VERTEX
  8
0
 62
9
  6
CONTINUOUS
 10
315.2640144777
 20
283.6727205399
  0
SEQEND
  0
LINE
  8
0
 62
7
  6
CONTINUOUS
 10
194.1555295874
 20
286.4152812901
 11
194.1556265829
 21
286.4152785281
  0
POLYLINE
  8
0
 62
7
  6
CONTINUOUS
 66
1
 70
0
  0
VERTEX
  8
0
 62
7
  6
CONTINUOUS
 10
240.7367483855
 20
285.066926614
  0
VERTEX
  8
0
 62
7
  6
CONTINUOUS
 10
229.596138763
 20
285.3875105743
  0
VERTEX
  8
0
 62
7
  6
CONTINUOUS
 10
205.9145991098
 20
286.1014230629
  0
SEQEND
  0
POLYLINE
  8
0
 62
9
  6
CONTINUOUS
 66
1
 70
0
  0
VERTEX
  8
0
 62
9
  6
CONTINUOUS
 10
194.4284177278
 20
277.9572701331
  0
VERTEX
  8
0
 62
9
  6
CONTINUOUS
 10
210.0872263523
 20
277.488080771
  0
VERTEX
  8
0
 62
9
  6
CONTINUOUS
 10
225.3001097879
 20
277.1293805618
  0
VERTEX
  8
0
 62
9
  6
CONTINUOUS
 10
240.0462177124
 20
276.8308912021
  0
VERTEX
  8
0
 62
9
  6
CONTINUOUS
 10
254.3064272141
 20
276.7434476023
  0
VERTEX
  8
0
 62
9
  6
CONTINUOUS
 10
268.0653642262
 20
277.0178846725
  0
VERTEX
  8
0
 62
9
  6
CONTINUOUS
 10
281.3133286578
 20
277.6039241093
  0
SEQEND
  0
LINE
  8
0
 62
7
  6
CONTINUOUS
 10
10.4795628205
 20
284.7985471029
 11
10.4358351221
 21
284.8001656458
  0
POLYLINE
  8
0
 62
7
  6
CONTINUOUS
 66
1
 70
0
  0
VERTEX
  8
0
 62
7
  6
CONTINUOUS
 10
350.4292745647
 20
281.5877371233
  0
VERTEX
  8
0
 62
7
  6
CONTINUOUS
 10
347.375394763
 20
281.7033638519
  0
VERTEX
  8
0
 62
7
  6
CONTINUOUS
 10
343.4176828343
 20
281.875988433
  0
VERTEX
  8
0
 62
7
  6
CONTINUOUS
 10
338.8964865169
 20
282.0697460288
  0
VERTEX
  8
0
 62
7
  6
CONTINUOUS
 10
333.8838563777
 20
282.2555082375
  0
VERTEX
  8
0
 62
7
  6
CONTINUOUS
 10
328.4113701167
 20
282.4115020968
  0
VERTEX
  8
0
 62
7
  6
CONTINUOUS
 10
322.4922037073
 20
282.523036557
  0
VERTEX
  8
0
 62
7
  6
CONTINUOUS
 10
316.1402510373
 20
282.5822549592
  0
VERTEX
  8
0
 62
7
  6
CONTINUOUS
 10
309.3759212689
 20
282.5879305115
  0
VERTEX
  8
0
 62
7
  6
CONTINUOUS
 10
302.2923387665
 20
282.5465390523
  0
VERTEX
  8
0
 62
7
  6
CONTINUOUS
 10
294.9417609423
 20
282.4720597548
  0
VERTEX
  8
0
 62
7
  6
CONTINUOUS
 10
287.3556844189
 20
282.3856441698
  0
VERTEX
  8
0
 62
7
  6
CONTINUOUS
 10
280.4478717759
 20
282.3169698638
  0
SEQEND
  0
POLYLINE
  8
0
 62
9
  6
CONTINUOUS
 66
1
 70
0
  0
VERTEX
  8
0
 62
9
  6
CONTINUOUS
 10
353.0633269054
 20
278.5892947319
  0
VERTEX
  8
0
 62
9
  6
CONTINUOUS
 10
349.4013550408
 20
278.7399017965
  0
VERTEX
  8
0
 62
9
  6
CONTINUOUS
 10
345.2276715545
 20
278.9047331337
  0
VERTEX
  8
0
 62
9
  6
CONTINUOUS
 10
340.5636822493
 20
279.094855114
  0
VERTEX
  8
0
 62
9
  6
CONTINUOUS
 10
335.4432880727
 20
279.2770686258
  0
VERTEX
  8
0
 62
9
  6
CONTINUOUS
 10
329.9173162617
 20
279.4227762786
  0
VERTEX
  8
0
 62
9
  6
CONTINUOUS
 10
323.9800581583
 20
279.5292392803
  0
VERTEX
  8
0
 62
9
  6
CONTINUOUS
 10
317.6073287843
 20
279.5811211429
  0
VERTEX
  8
0
 62
9
  6
CONTINUOUS
 10
310.8775341719
 20
279.5876175627
  0
VERTEX
  8
0
 62
9
  6
CONTINUOUS
 10
303.8761916918
 20
279.545786387
  0
VERTEX
  8
0
 62
9
  6
CONTINUOUS
 10
296.6026196202
 20
279.4767046752
  0
VERTEX
  8
0
 62
9
  6
CONTINUOUS
 10
289.066211815
 20
279.4029808122
  0
VERTEX
  8
0
 62
9
  6
CONTINUOUS
 10
281.3133286578
 20
279.3170786697
  0
SEQEND
  0
LINE
  8
0
 62
7
  6
CONTINUOUS
 10
187.6227361493
 20
280.3824978821
 11
194.2753934679
 21
279.8707295674
  0
LINE
  8
0
 62
7
  6
CONTINUOUS
 10
184.2753920931
 20
280.6430497989
 11
187.6227361493
 21
280.3824978821
  0
LINE
  8
0
 62
7
  6
CONTINUOUS
 10
363.160964645
 20
278.5399920361
 11
363.160115842
 21
278.535685701
  0
LINE
  8
0
 62
7
  6
CONTINUOUS
 10
363.115409912
 20
278.3197273304
 11
363.160964645
 21
278.5399920361
  0
LINE
  8
0
 62
9
  6
CONTINUOUS
 10
363.160115842
 20
278.535685701
 11
363.0895412595
 21
278.2227609608
  0
POLYLINE
  8
0
 62
7
  6
CONTINUOUS
 66
1
 70
0
  0
VERTEX
  8
0
 62
7
  6
CONTINUOUS
 10
362.9329702846
 20
277.6067863272
  0
VERTEX
  8
0
 62
7
  6
CONTINUOUS
 10
363.0330066916
 20
277.9689318902
  0
VERTEX
  8
0
 62
7
  6
CONTINUOUS
 10
363.115409912
 20
278.3197273304
  0
SEQEND
  0
LINE
  8
0
 62
9
  6
CONTINUOUS
 10
363.2043619645
 20
278.7852598901
 11
363.136135077
 21
278.5429475685
  0
POLYLINE
  8
0
 62
9
  6
CONTINUOUS
 66
1
 70
0
  0
VERTEX
  8
0
 62
9
  6
CONTINUOUS
 10
15.3860769552
 20
283.2555103977
  0
VERTEX
  8
0
 62
9
  6
CONTINUOUS
 10
16.0740284383
 20
283.3371093842
  0
VERTEX
  8
0
 62
9
  6
CONTINUOUS
 10
17.1509762111
 20
283.3964985618
  0
VERTEX
  8
0
 62
9
  6
CONTINUOUS
 10
18.6271054571
 20
283.4405845061
  0
VERTEX
  8
0
 62
9
  6
CONTINUOUS
 10
20.4716364721
 20
283.4778334112
  0
VERTEX
  8
0
 62
9
  6
CONTINUOUS
 10
22.6519101438
 20
283.5151995458
  0
VERTEX
  8
0
 62
9
  6
CONTINUOUS
 10
25.18382263
 20
283.5546528288
  0
VERTEX
  8
0
 62
9
  6
CONTINUOUS
 10
28.0620004741
 20
283.5966377913
  0
VERTEX
  8
0
 62
9
  6
CONTINUOUS
 10
31.3177151782
 20
283.6368296256
  0
VERTEX
  8
0
 62
9
  6
CONTINUOUS
 10
34.9841523044
 20
283.6679036576
  0
VERTEX
  8
0
 62
9
  6
CONTINUOUS
 10
39.0502936661
 20
283.6866156273
  0
SEQEND
  0
LINE
  8
0
 62
7
  6
CONTINUOUS
 10
14.627992521
 20
284.992823392
 11
12.2175580699
 21
284.862277242
  0
LINE
  8
0
 62
9
  6
CONTINUOUS
 10
12.6034614077
 20
284.8757995115
 11
14.5967352252
 21
284.9832497641
  0
LINE
  8
0
 62
7
  6
CONTINUOUS
 10
29.0232831176
 20
285.6574058551
 11
14.628129922
 21
284.9902978774
  0
POLYLINE
  8
0
 62
9
  6
CONTINUOUS
 66
1
 70
0
  0
VERTEX
  8
0
 62
9
  6
CONTINUOUS
 10
14.5967547154
 20
284.9828960015
  0
VERTEX
  8
0
 62
9
  6
CONTINUOUS
 10
39.287770789
 20
285.9211624501
  0
VERTEX
  8
0
 62
9
  6
CONTINUOUS
 10
64.5005566973
 20
285.9880142495
  0
VERTEX
  8
0
 62
9
  6
CONTINUOUS
 10
89.9982016775
 20
285.4035265914
  0
SEQEND
  0
LINE
  8
0
 62
7
  6
CONTINUOUS
 10
10.7782995949
 20
284.7425079573
 11
10.7721025622
 21
284.7422785728
  0
LINE
  8
0
 62
7
  6
CONTINUOUS
 10
10.8506990452
 20
284.8145728195
 11
10.4358351221
 21
284.8001656458
  0
LINE
  8
0
 62
7
  6
CONTINUOUS
 10
17.3910194303
 20
285.0406974681
 11
10.8506990452
 21
284.8145728195
  0
LINE
  8
0
 62
7
  6
CONTINUOUS
 10
358.1149500914
 20
284.8001655999
 11
351.1519780343
 21
285.0409748867
  0
LINE
  8
0
 62
7
  6
CONTINUOUS
 10
357.7781575343
 20
284.7422924082
 11
357.7724849597
 21
284.7425078997
  0
POLYLINE
  8
0
 62
9
  6
CONTINUOUS
 66
1
 70
0
  0
VERTEX
  8
0
 62
9
  6
CONTINUOUS
 10
353.954029801
 20
284.9828959899
  0
VERTEX
  8
0
 62
9
  6
CONTINUOUS
 10
329.263007939
 20
285.921162545
  0
VERTEX
  8
0
 62
9
  6
CONTINUOUS
 10
304.0502159561
 20
285.9880141017
  0
VERTEX
  8
0
 62
9
  6
CONTINUOUS
 10
278.5525647789
 20
285.4035261322
  0
SEQEND
  0
LINE
  8
0
 62
7
  6
CONTINUOUS
 10
340.3611721005
 20
285.6346396917
 11
353.9226542641
 21
284.9902978774
  0
LINE
  8
0
 62
7
  6
CONTINUOUS
 10
353.9226542641
 20
284.9902978774
 11
356.2966124743
 21
284.863560185
  0
LINE
  8
0
 62
9
  6
CONTINUOUS
 10
355.9473239259
 20
284.8757994499
 11
353.9540493356
 21
284.9832497383
  0
LINE
  8
0
 62
7
  6
CONTINUOUS
 10
363.2044623729
 20
278.7858187651
 11
363.2389133302
 21
279.1296850579
  0
LINE
  8
0
 62
7
  6
CONTINUOUS
 10
363.204504245
 20
278.7861635758
 11
363.2043619645
 21
278.7852598901
  0
LINE
  8
0
 62
7
  6
CONTINUOUS
 10
363.160115842
 20
278.535685701
 11
363.204504245
 21
278.7861635758
  0
LINE
  8
0
 62
9
  6
CONTINUOUS
 10
14.3188764411
 20
284.9359899474
 11
14.596754363
 21
284.9828959826
  0
POLYLINE
  8
0
 62
9
  6
CONTINUOUS
 66
1
 70
0
  0
VERTEX
  8
0
 62
9
  6
CONTINUOUS
 10
15.4909077182
 20
278.5895649002
  0
VERTEX
  8
0
 62
9
  6
CONTINUOUS
 10
13.4912237451
 20
278.2533965244
  0
VERTEX
  8
0
 62
9
  6
CONTINUOUS
 10
11.679931717
 20
277.9781006374
  0
VERTEX
  8
0
 62
9
  6
CONTINUOUS
 10
10.0903328389
 20
277.7411797704
  0
VERTEX
  8
0
 62
9
  6
CONTINUOUS
 10
8.7263447576
 20
277.5983994387
  0
VERTEX
  8
0
 62
9
  6
CONTINUOUS
 10
7.5763214654
 20
277.5881152353
  0
VERTEX
  8
0
 62
9
  6
CONTINUOUS
 10
6.664422811
 20
277.6498646072
  0
SEQEND
  0
LINE
  8
0
 62
7
  6
CONTINUOUS
 10
358.1127227609
 20
284.7850438237
 11
358.0439518645
 21
284.7951732893
  0
LINE
  8
0
 62
9
  6
CONTINUOUS
 10
354.2327658152
 20
284.9358817277
 11
353.9540298232
 21
284.9828959826
  0
POLYLINE
  8
0
 62
9
  6
CONTINUOUS
 66
1
 70
0
  0
VERTEX
  8
0
 62
9
  6
CONTINUOUS
 10
353.1651207343
 20
283.2554046354
  0
VERTEX
  8
0
 62
9
  6
CONTINUOUS
 10
354.3456026676
 20
282.9855212522
  0
VERTEX
  8
0
 62
9
  6
CONTINUOUS
 10
355.164590929
 20
282.6860900834
  0
VERTEX
  8
0
 62
9
  6
CONTINUOUS
 10
355.6537437456
 20
282.3733707885
  0
VERTEX
  8
0
 62
9
  6
CONTINUOUS
 10
355.7185032194
 20
282.0528533012
  0
VERTEX
  8
0
 62
9
  6
CONTINUOUS
 10
355.27193118
 20
281.7480341246
  0
VERTEX
  8
0
 62
9
  6
CONTINUOUS
 10
354.3830550445
 20
281.5128185802
  0
SEQEND
  0
POLYLINE
  8
0
 62
9
  6
CONTINUOUS
 66
1
 70
0
  0
VERTEX
  8
0
 62
9
  6
CONTINUOUS
 10
353.0633268902
 20
278.5892920042
  0
VERTEX
  8
0
 62
9
  6
CONTINUOUS
 10
353.0301558643
 20
279.073909863
  0
VERTEX
  8
0
 62
9
  6
CONTINUOUS
 10
352.9260610621
 20
279.5459733621
  0
VERTEX
  8
0
 62
9
  6
CONTINUOUS
 10
352.7602511481
 20
279.9792101485
  0
VERTEX
  8
0
 62
9
  6
CONTINUOUS
 10
352.5358549931
 20
280.3762940544
  0
VERTEX
  8
0
 62
9
  6
CONTINUOUS
 10
352.2514871872
 20
280.7364564969
  0
VERTEX
  8
0
 62
9
  6
CONTINUOUS
 10
351.9132002147
 20
281.0460451357
  0
VERTEX
  8
0
 62
9
  6
CONTINUOUS
 10
351.5275826593
 20
281.2945492375
  0
VERTEX
  8
0
 62
9
  6
CONTINUOUS
 10
351.1034198935
 20
281.4721690357
  0
VERTEX
  8
0
 62
9
  6
CONTINUOUS
 10
350.6496546889
 20
281.570813245
  0
VERTEX
  8
0
 62
9
  6
CONTINUOUS
 10
350.430709762
 20
281.5876905165
  0
SEQEND
  0
LINE
  8
0
 62
9
  6
CONTINUOUS
 10
363.2390732706
 20
279.1333821093
 11
363.2409287003
 21
279.3331247577
  0
LINE
  8
0
 62
7
  6
CONTINUOUS
 10
363.2390728893
 20
279.1333731679
 11
363.2418997134
 21
279.3070075845
  0
LINE
  8
0
 62
7
  6
CONTINUOUS
 10
363.2389133302
 20
279.1296850579
 11
363.2390732706
 21
279.1333821093
  0
LINE
  8
0
 62
9
  6
CONTINUOUS
 10
353.9540493356
 20
284.9832497383
 11
353.9227859363
 21
284.9928237023
  0
POLYLINE
  8
0
 62
9
  6
CONTINUOUS
 66
1
 70
0
  0
VERTEX
  8
0
 62
9
  6
CONTINUOUS
 10
357.791322795
 20
284.1244148991
  0
VERTEX
  8
0
 62
9
  6
CONTINUOUS
 10
356.9062788138
 20
284.4131369227
  0
VERTEX
  8
0
 62
9
  6
CONTINUOUS
 10
355.9771380498
 20
284.7523831433
  0
VERTEX
  8
0
 62
9
  6
CONTINUOUS
 10
355.1827447651
 20
284.9027908942
  0
SEQEND
  0
POLYLINE
  8
0
 62
9
  6
CONTINUOUS
 66
1
 70
0
  0
VERTEX
  8
0
 62
9
  6
CONTINUOUS
 10
359.4569445875
 20
283.6839291149
  0
VERTEX
  8
0
 62
9
  6
CONTINUOUS
 10
358.6432967634
 20
283.9578917968
  0
VERTEX
  8
0
 62
9
  6
CONTINUOUS
 10
357.791322795
 20
284.1244148991
  0
SEQEND
  0
POLYLINE
  8
0
 62
9
  6
CONTINUOUS
 66
1
 70
0
  0
VERTEX
  8
0
 62
9
  6
CONTINUOUS
 10
363.2409287003
 20
279.3331247577
  0
VERTEX
  8
0
 62
9
  6
CONTINUOUS
 10
363.1850316614
 20
279.8416396744
  0
VERTEX
  8
0
 62
9
  6
CONTINUOUS
 10
363.0493989134
 20
280.3176558669
  0
VERTEX
  8
0
 62
9
  6
CONTINUOUS
 10
362.8386207747
 20
280.7625725471
  0
VERTEX
  8
0
 62
9
  6
CONTINUOUS
 10
362.5512500284
 20
281.1750212756
  0
VERTEX
  8
0
 62
9
  6
CONTINUOUS
 10
362.1930129206
 20
281.5388407264
  0
VERTEX
  8
0
 62
9
  6
CONTINUOUS
 10
361.7707034518
 20
281.8411293193
  0
VERTEX
  8
0
 62
9
  6
CONTINUOUS
 10
361.2943732986
 20
282.0691584885
  0
VERTEX
  8
0
 62
9
  6
CONTINUOUS
 10
360.7746264428
 20
282.2121319735
  0
VERTEX
  8
0
 62
9
  6
CONTINUOUS
 10
360.2417973566
 20
282.2598285825
  0
SEQEND
  0
LINE
  8
0
 62
7
  6
CONTINUOUS
 10
363.2418997134
 20
279.3070075845
 11
363.2227651395
 21
279.6300920049
  0
POLYLINE
  8
0
 62
9
  6
CONTINUOUS
 66
1
 70
0
  0
VERTEX
  8
0
 62
9
  6
CONTINUOUS
 10
359.9935232453
 20
282.2555614747
  0
VERTEX
  8
0
 62
9
  6
CONTINUOUS
 10
359.9923278147
 20
282.2811864339
  0
VERTEX
  8
0
 62
9
  6
CONTINUOUS
 10
359.989092573
 20
282.3069880035
  0
VERTEX
  8
0
 62
9
  6
CONTINUOUS
 10
359.9837396163
 20
282.3329302997
  0
VERTEX
  8
0
 62
9
  6
CONTINUOUS
 10
359.976501754
 20
282.3590034661
  0
VERTEX
  8
0
 62
9
  6
CONTINUOUS
 10
359.9676117981
 20
282.3851979867
  0
VERTEX
  8
0
 62
9
  6
CONTINUOUS
 10
359.9569918479
 20
282.4114784128
  0
SEQEND
  0
POLYLINE
  8
0
 62
7
  6
CONTINUOUS
 66
1
 70
0
  0
VERTEX
  8
0
 62
7
  6
CONTINUOUS
 10
360.7676481997
 20
283.6032913776
  0
VERTEX
  8
0
 62
7
  6
CONTINUOUS
 10
360.2121086855
 20
283.8473237739
  0
VERTEX
  8
0
 62
7
  6
CONTINUOUS
 10
360.3722776416
 20
283.7654206967
  0
SEQEND
  0
POLYLINE
  8
0
 62
7
  6
CONTINUOUS
 66
1
 70
0
  0
VERTEX
  8
0
 62
7
  6
CONTINUOUS
 10
360.3722776416
 20
283.7654206967
  0
VERTEX
  8
0
 62
7
  6
CONTINUOUS
 10
360.6671728604
 20
283.5622548101
  0
VERTEX
  8
0
 62
7
  6
CONTINUOUS
 10
360.582364834
 20
283.6474162402
  0
SEQEND
  0
POLYLINE
  8
0
 62
7
  6
CONTINUOUS
 66
1
 70
0
  0
VERTEX
  8
0
 62
7
  6
CONTINUOUS
 10
360.582364834
 20
283.6474162402
  0
VERTEX
  8
0
 62
7
  6
CONTINUOUS
 10
360.1194935995
 20
284.0576373409
  0
VERTEX
  8
0
 62
7
  6
CONTINUOUS
 10
358.9230232006
 20
284.6656923127
  0
SEQEND
  0
POLYLINE
  8
0
 62
9
  6
CONTINUOUS
 66
1
 70
0
  0
VERTEX
  8
0
 62
9
  6
CONTINUOUS
 10
359.4569648073
 20
283.6874467279
  0
VERTEX
  8
0
 62
9
  6
CONTINUOUS
 10
359.2644155866
 20
283.9722090878
  0
VERTEX
  8
0
 62
9
  6
CONTINUOUS
 10
359.0147283385
 20
284.1259227944
  0
VERTEX
  8
0
 62
9
  6
CONTINUOUS
 10
358.6975066678
 20
284.3797987281
  0
VERTEX
  8
0
 62
9
  6
CONTINUOUS
 10
358.3489673596
 20
284.6946677497
  0
VERTEX
  8
0
 62
9
  6
CONTINUOUS
 10
358.1149500914
 20
284.8001655999
  0
SEQEND
  0
POLYLINE
  8
0
 62
9
  6
CONTINUOUS
 66
1
 70
0
  0
VERTEX
  8
0
 62
9
  6
CONTINUOUS
 10
359.9569918479
 20
282.4114784128
  0
VERTEX
  8
0
 62
9
  6
CONTINUOUS
 10
359.8551404808
 20
282.6597114109
  0
VERTEX
  8
0
 62
9
  6
CONTINUOUS
 10
359.7608368175
 20
282.9031759988
  0
VERTEX
  8
0
 62
9
  6
CONTINUOUS
 10
359.5946295701
 20
283.3441554659
  0
SEQEND
  0
POLYLINE
  8
0
 62
7
  6
CONTINUOUS
 66
1
 70
0
  0
VERTEX
  8
0
 62
7
  6
CONTINUOUS
 10
363.0030885998
 20
280.5162580795
  0
VERTEX
  8
0
 62
7
  6
CONTINUOUS
 10
362.6730966856
 20
281.3555903125
  0
VERTEX
  8
0
 62
7
  6
CONTINUOUS
 10
362.1748935318
 20
282.3040671963
  0
VERTEX
  8
0
 62
7
  6
CONTINUOUS
 10
361.1735475464
 20
283.3526432558
  0
VERTEX
  8
0
 62
7
  6
CONTINUOUS
 10
360.7676481997
 20
283.6032913776
  0
SEQEND
  0
POLYLINE
  8
0
 62
9
  6
CONTINUOUS
 66
1
 70
0
  0
VERTEX
  8
0
 62
9
  6
CONTINUOUS
 10
359.5946295701
 20
283.3441554659
  0
VERTEX
  8
0
 62
9
  6
CONTINUOUS
 10
359.522243026
 20
283.5294573659
  0
VERTEX
  8
0
 62
9
  6
CONTINUOUS
 10
359.4569445875
 20
283.6839291149
  0
SEQEND
  0
POLYLINE
  8
0
 62
9
  6
CONTINUOUS
 66
1
 70
0
  0
VERTEX
  8
0
 62
9
  6
CONTINUOUS
 10
361.5990653129
 20
275.5496204045
  0
VERTEX
  8
0
 62
9
  6
CONTINUOUS
 10
361.5771639305
 20
275.6621101968
  0
VERTEX
  8
0
 62
9
  6
CONTINUOUS
 10
361.4971872471
 20
275.7365549124
  0
VERTEX
  8
0
 62
9
  6
CONTINUOUS
 10
361.3565128365
 20
275.773141725
  0
VERTEX
  8
0
 62
9
  6
CONTINUOUS
 10
361.1543968928
 20
275.7740604453
  0
SEQEND
  0
POLYLINE
  8
0
 62
7
  6
CONTINUOUS
 66
1
 70
0
  0
VERTEX
  8
0
 62
7
  6
CONTINUOUS
 10
363.2227651395
 20
279.6300920049
  0
VERTEX
  8
0
 62
7
  6
CONTINUOUS
 10
363.1749089356
 20
279.9373587678
  0
VERTEX
  8
0
 62
7
  6
CONTINUOUS
 10
363.105164025
 20
280.2184327231
  0
VERTEX
  8
0
 62
7
  6
CONTINUOUS
 10
363.0227203343
 20
280.4651599362
  0
VERTEX
  8
0
 62
7
  6
CONTINUOUS
 10
363.0030842088
 20
280.5162692567
  0
SEQEND
  0
ENDSEC
  0
EOF
