999
DXF file: K:\Client\125_Heirloom\001\00\Final_Data\Drawings\BASINS\lineal-362110_2.dxf
999
Pro/ENGINEER 2017110 by Parametric Technology Corporation
  0
SECTION
  2
HEADER
  9
$EXTMAX
 10
420.0
 20
297.0
 30
0.0
  9
$EXTMIN
 10
0.0
 20
0.0
 30
0.0
  9
$LIMMIN
 10
0.0
 20
0.0
  9
$LIMMAX
 10
420.0
 20
297.0
  9
$VIEWCTR
 10
210.0
 20
148.5
  9
$VIEWSIZE
 40
297.0
  9
$CLAYER
  8
0
  9
$LTSCALE
 40
23.1
  9
$CELTYPE
  6
BYLAYER
  9
$DIMSCALE
 40
1.0
  9
$DIMASZ
 40
3.0
  9
$DIMEXO
 40
1.0
  9
$DIMDLI
 40
15.96
  9
$DIMEXE
 40
1.0
  9
$DIMCEN
 40
3.78
  9
$DIMLFAC
 40
1.0
  9
$DIMBLK
  1
_FILLED
  9
$DIMALT
 70
0
  9
$DIMALTF
 40
0.0393700787
  9
$DIMTXT
 40
3.0
  9
$AUNITS
 70
0
  9
$PDMODE
 70
3
  9
$PDSIZE
 40
5.0
  9
$TILEMODE
 70
1
  0
ENDSEC
  0
SECTION
  2
TABLES
  0
TABLE
  2
LTYPE
 70
6
  0
LTYPE
  2
BYBLOCK
 70
0
  3

 72
65
 73
0
 40
0.0
  0
LTYPE
  2
BYLAYER
 70
0
  3

 72
65
 73
0
 40
0.0
  0
LTYPE
  2
CONTINUOUS
 70
64
  3
Solid line
 72
65
 73
0
 40
0.0
  0
LTYPE
  2
CENTER
 70
64
  3
____ _ ____ _ ____ _ ____ _ ____ _ ____ _ ____
 72
65
 73
4
 40
0.6
 49
0.375
 49
-0.075
 49
0.075
 49
-0.075
  0
LTYPE
  2
HIDDEN
 70
64
  3
- - - - - - - - - - - - - - - - - - - -
 72
65
 73
2
 40
0.2
 49
0.1
 49
-0.1
  0
LTYPE
  2
PHANTOM
 70
64
  3
_____ _ _ _____ _ _ _____ _ _ _____
 72
65
 73
6
 40
0.8
 49
0.45
 49
-0.05
 49
0.1
 49
-0.05
 49
0.1
 49
-0.05
  0
LTYPE
  2
DOT
 70
64
  3
. . . . . . . . . . . . . . . . . . . .
 72
65
 73
2
 40
0.2
 49
0.1
 49
-0.1
  0
LTYPE
  2
DASHED
 70
64
  3
- - - - - - - - - - - - - - - - - - - -
 72
65
 73
2
 40
0.2
 49
0.1
 49
-0.1
  0
ENDTAB
  0
TABLE
  2
LAYER
 70
36
  0
LAYER
  2
0
 70
0
 62
7
  6
CONTINUOUS
  0
LAYER
  2
DEFAULT_1
 70
0
 62
7
  6
CENTER
  0
LAYER
  2
DEFAULT_2
 70
0
 62
8
  6
HIDDEN
  0
LAYER
  2
DEFAULT_3
 70
0
 62
7
  6
PHANTOM
  0
LAYER
  2
0000_BOM
 70
0
 62
7
  6
CONTINUOUS
  0
LAYER
  2
0000_REV_TABLE
 70
0
 62
7
  6
CONTINUOUS
  0
LAYER
  2
0000_STEVENS_NOTE
 70
0
 62
7
  6
CONTINUOUS
  0
LAYER
  2
01_DATUM_PLANES
 70
0
 62
7
  6
CONTINUOUS
  0
LAYER
  2
01_DEF_PLANES
 70
0
 62
7
  6
CONTINUOUS
  0
LAYER
  2
02_DATUM_COS
 70
0
 62
7
  6
CONTINUOUS
  0
LAYER
  2
90_IMP_FEAT
 70
0
 62
7
  6
CONTINUOUS
  0
LAYER
  2
95_STL
 70
0
 62
7
  6
CONTINUOUS
  0
LAYER
  2
99_SOLID
 70
0
 62
7
  6
CONTINUOUS
  0
LAYER
  2
CAD-MASTER_ZINC-PL
 70
0
 62
7
  6
CONTINUOUS
  0
LAYER
  2
CURVE
 70
0
 62
7
  6
CONTINUOUS
  0
LAYER
  2
SHELL
 70
0
 62
7
  6
CONTINUOUS
  0
LAYER
  2
SKEL
 70
0
 62
7
  6
CONTINUOUS
  0
LAYER
  2
SKETCH
 70
0
 62
7
  6
CONTINUOUS
  0
LAYER
  2
SURFACE
 70
0
 62
7
  6
CONTINUOUS
  0
ENDTAB
  0
TABLE
  2
STYLE
 70
1
  0
STYLE
  2
STANDARD
 70
0
 40
0.0
 41
0.75
 50
0.0
 71
0
 42
0.2
  3
txt
  4

  0
STYLE
  2
TEXTSTYLE_1
 70
0
 40
0.0
 41
0.8
 50
0.0
 71
0
 42
0.2
  3
gdt
  4

  0
ENDTAB
  0
ENDSEC
  0
SECTION
  2
BLOCKS
  0
ENDSEC
  0
SECTION
  2
ENTITIES
  0
POLYLINE
  8
0
 62
7
  6
CONTINUOUS
 66
1
 70
0
  0
VERTEX
  8
0
 62
7
  6
CONTINUOUS
 10
-25.5194469391
 20
223.7913959599
  0
VERTEX
  8
0
 62
7
  6
CONTINUOUS
 10
-25.4893077351
 20
221.9967391622
  0
VERTEX
  8
0
 62
7
  6
CONTINUOUS
 10
-25.4242544406
 20
220.2029493367
  0
VERTEX
  8
0
 62
7
  6
CONTINUOUS
 10
-25.3291579228
 20
218.4724628738
  0
VERTEX
  8
0
 62
7
  6
CONTINUOUS
 10
-25.2054473584
 20
216.7437906875
  0
VERTEX
  8
0
 62
7
  6
CONTINUOUS
 10
-25.04906859
 20
214.9346977928
  0
VERTEX
  8
0
 62
7
  6
CONTINUOUS
 10
-24.8692134768
 20
213.1277845822
  0
VERTEX
  8
0
 62
7
  6
CONTINUOUS
 10
-24.4955680741
 20
209.852020027
  0
VERTEX
  8
0
 62
7
  6
CONTINUOUS
 10
-24.0446090076
 20
206.299098349
  0
VERTEX
  8
0
 62
7
  6
CONTINUOUS
 10
-23.525925403
 20
202.4353313066
  0
VERTEX
  8
0
 62
7
  6
CONTINUOUS
 10
-22.9247736962
 20
198.1864644499
  0
VERTEX
  8
0
 62
7
  6
CONTINUOUS
 10
-22.2984961048
 20
193.994176389
  0
VERTEX
  8
0
 62
7
  6
CONTINUOUS
 10
-21.6621821104
 20
189.9578821984
  0
VERTEX
  8
0
 62
7
  6
CONTINUOUS
 10
-20.9314746928
 20
185.5756197378
  0
VERTEX
  8
0
 62
7
  6
CONTINUOUS
 10
-20.151330194
 20
181.1615443461
  0
VERTEX
  8
0
 62
7
  6
CONTINUOUS
 10
-19.3312051306
 20
176.7639815387
  0
VERTEX
  8
0
 62
7
  6
CONTINUOUS
 10
-18.3687320666
 20
171.8627974041
  0
VERTEX
  8
0
 62
7
  6
CONTINUOUS
 10
-17.2522824713
 20
166.473415309
  0
VERTEX
  8
0
 62
7
  6
CONTINUOUS
 10
-15.8475556962
 20
160.1029293401
  0
VERTEX
  8
0
 62
7
  6
CONTINUOUS
 10
-15.1329362601
 20
157.0245198914
  0
VERTEX
  8
0
 62
7
  6
CONTINUOUS
 10
-14.3924310298
 20
153.9522376469
  0
VERTEX
  8
0
 62
7
  6
CONTINUOUS
 10
-13.6644923279
 20
151.0523232563
  0
VERTEX
  8
0
 62
7
  6
CONTINUOUS
 10
-12.9058260808
 20
148.1603074809
  0
VERTEX
  8
0
 62
7
  6
CONTINUOUS
 10
-12.1483538825
 20
145.4052041072
  0
VERTEX
  8
0
 62
7
  6
CONTINUOUS
 10
-11.3563240043
 20
142.6598218393
  0
VERTEX
  8
0
 62
7
  6
CONTINUOUS
 10
-10.3214046786
 20
139.2669440868
  0
VERTEX
  8
0
 62
7
  6
CONTINUOUS
 10
-9.2261963038
 20
135.8930108032
  0
VERTEX
  8
0
 62
7
  6
CONTINUOUS
 10
-7.973587241
 20
132.2764365535
  0
VERTEX
  8
0
 62
7
  6
CONTINUOUS
 10
-6.6443528288
 20
128.6873211684
  0
VERTEX
  8
0
 62
7
  6
CONTINUOUS
 10
-5.1829037583
 20
124.9991118737
  0
VERTEX
  8
0
 62
7
  6
CONTINUOUS
 10
-3.6349227376
 20
121.346329779
  0
VERTEX
  8
0
 62
7
  6
CONTINUOUS
 10
-2.4377312663
 20
118.6776398094
  0
VERTEX
  8
0
 62
7
  6
CONTINUOUS
 10
-1.1929426964
 20
116.0307951167
  0
VERTEX
  8
0
 62
7
  6
CONTINUOUS
 10
0.0994456454
 20
113.4068715672
  0
VERTEX
  8
0
 62
7
  6
CONTINUOUS
 10
1.5199474703
 20
110.6541806795
  0
VERTEX
  8
0
 62
7
  6
CONTINUOUS
 10
2.9933359454
 20
107.929385187
  0
VERTEX
  8
0
 62
7
  6
CONTINUOUS
 10
4.5191088957
 20
105.2334664859
  0
VERTEX
  8
0
 62
7
  6
CONTINUOUS
 10
6.2220291276
 20
102.360316343
  0
VERTEX
  8
0
 62
7
  6
CONTINUOUS
 10
7.9835418079
 20
99.52277395
  0
VERTEX
  8
0
 62
7
  6
CONTINUOUS
 10
9.8019323352
 20
96.7217404383
  0
SEQEND
  0
POLYLINE
  8
0
 62
7
  6
CONTINUOUS
 66
1
 70
0
  0
VERTEX
  8
0
 62
7
  6
CONTINUOUS
 10
381.934100886
 20
223.7913959599
  0
VERTEX
  8
0
 62
7
  6
CONTINUOUS
 10
381.903961682
 20
221.9967391622
  0
VERTEX
  8
0
 62
7
  6
CONTINUOUS
 10
381.8389083875
 20
220.2029493367
  0
VERTEX
  8
0
 62
7
  6
CONTINUOUS
 10
381.7438118697
 20
218.4724628738
  0
VERTEX
  8
0
 62
7
  6
CONTINUOUS
 10
381.6201013053
 20
216.7437906875
  0
VERTEX
  8
0
 62
7
  6
CONTINUOUS
 10
381.463722537
 20
214.9346977928
  0
VERTEX
  8
0
 62
7
  6
CONTINUOUS
 10
381.2838674237
 20
213.1277845822
  0
VERTEX
  8
0
 62
7
  6
CONTINUOUS
 10
380.910222021
 20
209.852020027
  0
VERTEX
  8
0
 62
7
  6
CONTINUOUS
 10
380.4592629545
 20
206.299098349
  0
VERTEX
  8
0
 62
7
  6
CONTINUOUS
 10
379.9405793499
 20
202.4353313066
  0
VERTEX
  8
0
 62
7
  6
CONTINUOUS
 10
379.3394276431
 20
198.1864644499
  0
VERTEX
  8
0
 62
7
  6
CONTINUOUS
 10
378.7131500517
 20
193.994176389
  0
VERTEX
  8
0
 62
7
  6
CONTINUOUS
 10
378.0768360573
 20
189.9578821984
  0
VERTEX
  8
0
 62
7
  6
CONTINUOUS
 10
377.3461286398
 20
185.5756197378
  0
VERTEX
  8
0
 62
7
  6
CONTINUOUS
 10
376.565984141
 20
181.1615443461
  0
VERTEX
  8
0
 62
7
  6
CONTINUOUS
 10
375.7458590775
 20
176.7639815387
  0
VERTEX
  8
0
 62
7
  6
CONTINUOUS
 10
374.7833860135
 20
171.8627974041
  0
VERTEX
  8
0
 62
7
  6
CONTINUOUS
 10
373.6669364182
 20
166.473415309
  0
VERTEX
  8
0
 62
7
  6
CONTINUOUS
 10
372.2622096431
 20
160.1029293401
  0
VERTEX
  8
0
 62
7
  6
CONTINUOUS
 10
371.547590207
 20
157.0245198914
  0
VERTEX
  8
0
 62
7
  6
CONTINUOUS
 10
370.8070849767
 20
153.9522376469
  0
VERTEX
  8
0
 62
7
  6
CONTINUOUS
 10
370.0791462748
 20
151.0523232563
  0
VERTEX
  8
0
 62
7
  6
CONTINUOUS
 10
369.3204800277
 20
148.1603074809
  0
VERTEX
  8
0
 62
7
  6
CONTINUOUS
 10
368.5630078294
 20
145.4052041072
  0
VERTEX
  8
0
 62
7
  6
CONTINUOUS
 10
367.7709779512
 20
142.6598218393
  0
VERTEX
  8
0
 62
7
  6
CONTINUOUS
 10
366.7360586255
 20
139.2669440868
  0
VERTEX
  8
0
 62
7
  6
CONTINUOUS
 10
365.6408502507
 20
135.8930108032
  0
VERTEX
  8
0
 62
7
  6
CONTINUOUS
 10
364.3882411879
 20
132.2764365535
  0
VERTEX
  8
0
 62
7
  6
CONTINUOUS
 10
363.0590067757
 20
128.6873211684
  0
VERTEX
  8
0
 62
7
  6
CONTINUOUS
 10
361.5975577053
 20
124.9991118737
  0
VERTEX
  8
0
 62
7
  6
CONTINUOUS
 10
360.0495766845
 20
121.346329779
  0
VERTEX
  8
0
 62
7
  6
CONTINUOUS
 10
358.8523852132
 20
118.6776398094
  0
VERTEX
  8
0
 62
7
  6
CONTINUOUS
 10
357.6075966433
 20
116.0307951167
  0
VERTEX
  8
0
 62
7
  6
CONTINUOUS
 10
356.3152083015
 20
113.4068715672
  0
VERTEX
  8
0
 62
7
  6
CONTINUOUS
 10
354.8947064766
 20
110.6541806795
  0
VERTEX
  8
0
 62
7
  6
CONTINUOUS
 10
353.4213180015
 20
107.929385187
  0
VERTEX
  8
0
 62
7
  6
CONTINUOUS
 10
351.8955450512
 20
105.2334664859
  0
VERTEX
  8
0
 62
7
  6
CONTINUOUS
 10
350.1926248193
 20
102.360316343
  0
VERTEX
  8
0
 62
7
  6
CONTINUOUS
 10
348.431112139
 20
99.52277395
  0
VERTEX
  8
0
 62
7
  6
CONTINUOUS
 10
346.6127216117
 20
96.7217404383
  0
SEQEND
  0
POLYLINE
  8
0
 62
7
  6
CONTINUOUS
 66
1
 70
0
  0
VERTEX
  8
0
 62
7
  6
CONTINUOUS
 10
2.3934762906
 20
223.8397363799
  0
VERTEX
  8
0
 62
7
  6
CONTINUOUS
 10
2.4772881006
 20
220.2875467493
  0
VERTEX
  8
0
 62
7
  6
CONTINUOUS
 10
2.6072558045
 20
216.7116087515
  0
VERTEX
  8
0
 62
7
  6
CONTINUOUS
 10
2.7821736747
 20
213.1552773785
  0
VERTEX
  8
0
 62
7
  6
CONTINUOUS
 10
3.0110872209
 20
209.4912422251
  0
VERTEX
  8
0
 62
7
  6
CONTINUOUS
 10
3.3056178206
 20
205.5753995987
  0
VERTEX
  8
0
 62
7
  6
CONTINUOUS
 10
3.6613759449
 20
201.503790078
  0
VERTEX
  8
0
 62
7
  6
CONTINUOUS
 10
4.0775562916
 20
197.3118571799
  0
VERTEX
  8
0
 62
7
  6
CONTINUOUS
 10
4.551637804
 20
193.0355682873
  0
VERTEX
  8
0
 62
7
  6
CONTINUOUS
 10
5.0806022743
 20
188.7109793571
  0
VERTEX
  8
0
 62
7
  6
CONTINUOUS
 10
5.6603298678
 20
184.3708294175
  0
VERTEX
  8
0
 62
7
  6
CONTINUOUS
 10
6.286822493
 20
180.0509001501
  0
VERTEX
  8
0
 62
7
  6
CONTINUOUS
 10
6.9554544449
 20
175.7774891715
  0
VERTEX
  8
0
 62
7
  6
CONTINUOUS
 10
7.659499847
 20
171.590098551
  0
VERTEX
  8
0
 62
7
  6
CONTINUOUS
 10
8.3990624457
 20
167.4837809046
  0
VERTEX
  8
0
 62
7
  6
CONTINUOUS
 10
9.1718379604
 20
163.4677964145
  0
VERTEX
  8
0
 62
7
  6
CONTINUOUS
 10
9.9774035882
 20
159.5385570914
  0
VERTEX
  8
0
 62
7
  6
CONTINUOUS
 10
10.8141244273
 20
155.6982588932
  0
VERTEX
  8
0
 62
7
  6
CONTINUOUS
 10
11.6827928271
 20
151.9385363373
  0
VERTEX
  8
0
 62
7
  6
CONTINUOUS
 10
12.586238922
 20
148.244330868
  0
VERTEX
  8
0
 62
7
  6
CONTINUOUS
 10
13.5175610849
 20
144.6383472248
  0
VERTEX
  8
0
 62
7
  6
CONTINUOUS
 10
14.472745849
 20
141.1305683626
  0
VERTEX
  8
0
 62
7
  6
CONTINUOUS
 10
15.4431347251
 20
137.7426676743
  0
VERTEX
  8
0
 62
7
  6
CONTINUOUS
 10
16.4173465576
 20
134.5055326094
  0
VERTEX
  8
0
 62
7
  6
CONTINUOUS
 10
17.3978830402
 20
131.4006656476
  0
VERTEX
  8
0
 62
7
  6
CONTINUOUS
 10
18.3867138372
 20
128.4134957309
  0
VERTEX
  8
0
 62
7
  6
CONTINUOUS
 10
19.3741758987
 20
125.5631941978
  0
VERTEX
  8
0
 62
7
  6
CONTINUOUS
 10
20.354986923
 20
122.8553969499
  0
VERTEX
  8
0
 62
7
  6
CONTINUOUS
 10
21.3148621687
 20
120.3145616555
  0
VERTEX
  8
0
 62
7
  6
CONTINUOUS
 10
22.2345981338
 20
117.9770938363
  0
VERTEX
  8
0
 62
7
  6
CONTINUOUS
 10
23.1204618414
 20
115.8111525866
  0
VERTEX
  8
0
 62
7
  6
CONTINUOUS
 10
23.9726732684
 20
113.8015873751
  0
VERTEX
  8
0
 62
7
  6
CONTINUOUS
 10
24.7918053614
 20
111.9355598555
  0
VERTEX
  8
0
 62
7
  6
CONTINUOUS
 10
25.5789803282
 20
110.1988336227
  0
VERTEX
  8
0
 62
7
  6
CONTINUOUS
 10
26.3347208663
 20
108.5814420727
  0
VERTEX
  8
0
 62
7
  6
CONTINUOUS
 10
27.0603314928
 20
107.0716418539
  0
VERTEX
  8
0
 62
7
  6
CONTINUOUS
 10
27.7564076176
 20
105.6614509548
  0
VERTEX
  8
0
 62
7
  6
CONTINUOUS
 10
28.4242600204
 20
104.3413737555
  0
VERTEX
  8
0
 62
7
  6
CONTINUOUS
 10
29.064612199
 20
103.1050061912
  0
VERTEX
  8
0
 62
7
  6
CONTINUOUS
 10
29.6788192052
 20
101.9447521905
  0
VERTEX
  8
0
 62
7
  6
CONTINUOUS
 10
30.2676774754
 20
100.8554069205
  0
VERTEX
  8
0
 62
7
  6
CONTINUOUS
 10
30.8324703156
 20
99.8308055039
  0
VERTEX
  8
0
 62
7
  6
CONTINUOUS
 10
31.3739634822
 20
98.8666702128
  0
VERTEX
  8
0
 62
7
  6
CONTINUOUS
 10
31.8933318988
 20
97.9579613987
  0
VERTEX
  8
0
 62
7
  6
CONTINUOUS
 10
32.3913069762
 20
97.1011383562
  0
VERTEX
  8
0
 62
7
  6
CONTINUOUS
 10
32.8689547214
 20
96.2920547227
  0
VERTEX
  8
0
 62
7
  6
CONTINUOUS
 10
33.3269764491
 20
95.5277531096
  0
VERTEX
  8
0
 62
7
  6
CONTINUOUS
 10
33.7663405686
 20
94.8048091499
  0
VERTEX
  8
0
 62
7
  6
CONTINUOUS
 10
34.1877279115
 20
94.1206857836
  0
VERTEX
  8
0
 62
7
  6
CONTINUOUS
 10
34.5919816975
 20
93.472486377
  0
VERTEX
  8
0
 62
7
  6
CONTINUOUS
 10
34.9797398427
 20
92.8579414068
  0
VERTEX
  8
0
 62
7
  6
CONTINUOUS
 10
35.351852618
 20
92.2744748224
  0
VERTEX
  8
0
 62
7
  6
CONTINUOUS
 10
35.7088715116
 20
91.7202844796
  0
VERTEX
  8
0
 62
7
  6
CONTINUOUS
 10
36.0515422776
 20
91.1932775688
  0
VERTEX
  8
0
 62
7
  6
CONTINUOUS
 10
36.3804160639
 20
90.6918943482
  0
VERTEX
  8
0
 62
7
  6
CONTINUOUS
 10
36.6962199323
 20
90.2143139523
  0
VERTEX
  8
0
 62
7
  6
CONTINUOUS
 10
36.9993853365
 20
89.7593358365
  0
VERTEX
  8
0
 62
7
  6
CONTINUOUS
 10
37.2905154874
 20
89.3255150116
  0
VERTEX
  8
0
 62
7
  6
CONTINUOUS
 10
37.5699788521
 20
88.9118440651
  0
VERTEX
  8
0
 62
7
  6
CONTINUOUS
 10
37.8382340169
 20
88.5171926521
  0
VERTEX
  8
0
 62
7
  6
CONTINUOUS
 10
38.0957316487
 20
88.1405449794
  0
VERTEX
  8
0
 62
7
  6
CONTINUOUS
 10
38.3429757341
 20
87.7808055444
  0
VERTEX
  8
0
 62
7
  6
CONTINUOUS
 10
38.5803592232
 20
87.4371316636
  0
VERTEX
  8
0
 62
7
  6
CONTINUOUS
 10
38.8083487568
 20
87.1085686126
  0
VERTEX
  8
0
 62
7
  6
CONTINUOUS
 10
39.0272998937
 20
86.794394499
  0
VERTEX
  8
0
 62
7
  6
CONTINUOUS
 10
39.2376330688
 20
86.4937898314
  0
VERTEX
  8
0
 62
7
  6
CONTINUOUS
 10
39.439676212
 20
86.2061216181
  0
VERTEX
  8
0
 62
7
  6
CONTINUOUS
 10
39.633801977
 20
85.9306913485
  0
VERTEX
  8
0
 62
7
  6
CONTINUOUS
 10
39.8203400598
 20
85.6668986262
  0
VERTEX
  8
0
 62
7
  6
CONTINUOUS
 10
39.9996939573
 20
85.4140667387
  0
VERTEX
  8
0
 62
7
  6
CONTINUOUS
 10
40.1720495813
 20
85.171744165
  0
VERTEX
  8
0
 62
7
  6
CONTINUOUS
 10
40.3377929533
 20
84.939182592
  0
VERTEX
  8
0
 62
7
  6
CONTINUOUS
 10
40.4967535803
 20
84.7166094201
  0
SEQEND
  0
POLYLINE
  8
0
 62
7
  6
CONTINUOUS
 66
1
 70
0
  0
VERTEX
  8
0
 62
7
  6
CONTINUOUS
 10
18.5800055933
 20
84.5812506545
  0
VERTEX
  8
0
 62
7
  6
CONTINUOUS
 10
18.8135917782
 20
84.2852629789
  0
VERTEX
  8
0
 62
7
  6
CONTINUOUS
 10
19.0550870468
 20
83.9956462039
  0
VERTEX
  8
0
 62
7
  6
CONTINUOUS
 10
19.3043346496
 20
83.7125942264
  0
VERTEX
  8
0
 62
7
  6
CONTINUOUS
 10
19.5611070241
 20
83.4363681639
  0
VERTEX
  8
0
 62
7
  6
CONTINUOUS
 10
19.8251396529
 20
83.1672444284
  0
VERTEX
  8
0
 62
7
  6
CONTINUOUS
 10
20.096330894
 20
82.9053200867
  0
VERTEX
  8
0
 62
7
  6
CONTINUOUS
 10
20.3745952169
 20
82.650687169
  0
VERTEX
  8
0
 62
7
  6
CONTINUOUS
 10
20.6596214594
 20
82.4036392659
  0
VERTEX
  8
0
 62
7
  6
CONTINUOUS
 10
20.9510565729
 20
82.1644727797
  0
VERTEX
  8
0
 62
7
  6
CONTINUOUS
 10
21.2488774408
 20
81.9332004428
  0
VERTEX
  8
0
 62
7
  6
CONTINUOUS
 10
21.5530792688
 20
81.7098456089
  0
VERTEX
  8
0
 62
7
  6
CONTINUOUS
 10
21.8632811326
 20
81.4947094307
  0
VERTEX
  8
0
 62
7
  6
CONTINUOUS
 10
22.1791870462
 20
81.2880034603
  0
VERTEX
  8
0
 62
7
  6
CONTINUOUS
 10
22.5004738455
 20
81.0899356803
  0
VERTEX
  8
0
 62
7
  6
CONTINUOUS
 10
22.8266889186
 20
80.9007647661
  0
VERTEX
  8
0
 62
7
  6
CONTINUOUS
 10
23.157866533
 20
80.720454318
  0
VERTEX
  8
0
 62
7
  6
CONTINUOUS
 10
23.4940329637
 20
80.5490022479
  0
VERTEX
  8
0
 62
7
  6
CONTINUOUS
 10
23.834795108
 20
80.3866266537
  0
VERTEX
  8
0
 62
7
  6
CONTINUOUS
 10
24.1798868749
 20
80.2334627859
  0
VERTEX
  8
0
 62
7
  6
CONTINUOUS
 10
24.5289151103
 20
80.0896855313
  0
VERTEX
  8
0
 62
7
  6
CONTINUOUS
 10
24.8813755543
 20
79.9554846305
  0
VERTEX
  8
0
 62
7
  6
CONTINUOUS
 10
25.2372884984
 20
79.8308361729
  0
VERTEX
  8
0
 62
7
  6
CONTINUOUS
 10
25.5966334605
 20
79.7157548889
  0
VERTEX
  8
0
 62
7
  6
CONTINUOUS
 10
25.9590496783
 20
79.6103697698
  0
VERTEX
  8
0
 62
7
  6
CONTINUOUS
 10
26.3243129502
 20
79.5147563698
  0
VERTEX
  8
0
 62
7
  6
CONTINUOUS
 10
26.6919739174
 20
79.4290361988
  0
VERTEX
  8
0
 62
7
  6
CONTINUOUS
 10
27.0615053669
 20
79.353317158
  0
VERTEX
  8
0
 62
7
  6
CONTINUOUS
 10
27.4328864703
 20
79.2875882642
  0
VERTEX
  8
0
 62
7
  6
CONTINUOUS
 10
27.806021476
 20
79.2318690137
  0
VERTEX
  8
0
 62
7
  6
CONTINUOUS
 10
28.1806163617
 20
79.1862120373
  0
VERTEX
  8
0
 62
7
  6
CONTINUOUS
 10
28.5565066039
 20
79.1506494367
  0
VERTEX
  8
0
 62
7
  6
CONTINUOUS
 10
28.9332017745
 20
79.1252350826
  0
VERTEX
  8
0
 62
7
  6
CONTINUOUS
 10
29.3102217476
 20
79.1099915955
  0
VERTEX
  8
0
 62
7
  6
CONTINUOUS
 10
29.6873607875
 20
79.1049119855
  0
SEQEND
  0
POLYLINE
  8
0
 62
7
  6
CONTINUOUS
 66
1
 70
0
  0
VERTEX
  8
0
 62
7
  6
CONTINUOUS
 10
9.8019323352
 20
96.727080839
  0
VERTEX
  8
0
 62
7
  6
CONTINUOUS
 10
10.8216169398
 20
95.2083343266
  0
VERTEX
  8
0
 62
7
  6
CONTINUOUS
 10
11.8746429318
 20
93.6763357025
  0
VERTEX
  8
0
 62
7
  6
CONTINUOUS
 10
12.9728848003
 20
92.1158101239
  0
VERTEX
  8
0
 62
7
  6
CONTINUOUS
 10
14.0835533429
 20
90.5734630483
  0
VERTEX
  8
0
 62
7
  6
CONTINUOUS
 10
15.1524384206
 20
89.1177875013
  0
VERTEX
  8
0
 62
7
  6
CONTINUOUS
 10
16.2368751254
 20
87.6641860425
  0
VERTEX
  8
0
 62
7
  6
CONTINUOUS
 10
17.385707669
 20
86.1444257581
  0
VERTEX
  8
0
 62
7
  6
CONTINUOUS
 10
18.579996514
 20
84.5812542945
  0
SEQEND
  0
POLYLINE
  8
0
 62
7
  6
CONTINUOUS
 66
1
 70
0
  0
VERTEX
  8
0
 62
7
  6
CONTINUOUS
 10
18.579996514
 20
84.5812542945
  0
VERTEX
  8
0
 62
7
  6
CONTINUOUS
 10
18.6102826206
 20
84.5653467852
  0
VERTEX
  8
0
 62
7
  6
CONTINUOUS
 10
18.6404154219
 20
84.5507516423
  0
VERTEX
  8
0
 62
7
  6
CONTINUOUS
 10
18.6699902796
 20
84.5374122103
  0
VERTEX
  8
0
 62
7
  6
CONTINUOUS
 10
18.6989512516
 20
84.5251529793
  0
VERTEX
  8
0
 62
7
  6
CONTINUOUS
 10
18.7272902188
 20
84.5138391556
  0
VERTEX
  8
0
 62
7
  6
CONTINUOUS
 10
18.7548987623
 20
84.5034120252
  0
VERTEX
  8
0
 62
7
  6
CONTINUOUS
 10
18.7814961566
 20
84.4938808134
  0
VERTEX
  8
0
 62
7
  6
CONTINUOUS
 10
18.8077119734
 20
84.4849400878
  0
VERTEX
  8
0
 62
7
  6
CONTINUOUS
 10
18.8344541399
 20
84.4762525202
  0
VERTEX
  8
0
 62
7
  6
CONTINUOUS
 10
18.8610034244
 20
84.4680295242
  0
VERTEX
  8
0
 62
7
  6
CONTINUOUS
 10
18.8863655822
 20
84.4605224114
  0
VERTEX
  8
0
 62
7
  6
CONTINUOUS
 10
18.9120833671
 20
84.4532234276
  0
VERTEX
  8
0
 62
7
  6
CONTINUOUS
 10
18.9395950799
 20
84.4457499259
  0
VERTEX
  8
0
 62
7
  6
CONTINUOUS
 10
18.9688512125
 20
84.4381468215
  0
VERTEX
  8
0
 62
7
  6
CONTINUOUS
 10
19.0000820211
 20
84.4304053423
  0
VERTEX
  8
0
 62
7
  6
CONTINUOUS
 10
19.0341085347
 20
84.4223634131
  0
VERTEX
  8
0
 62
7
  6
CONTINUOUS
 10
19.0718682558
 20
84.4138999452
  0
VERTEX
  8
0
 62
7
  6
CONTINUOUS
 10
19.1137262171
 20
84.4050127615
  0
VERTEX
  8
0
 62
7
  6
CONTINUOUS
 10
19.1603090079
 20
84.3956976453
  0
VERTEX
  8
0
 62
7
  6
CONTINUOUS
 10
19.2121478003
 20
84.3859409751
  0
VERTEX
  8
0
 62
7
  6
CONTINUOUS
 10
19.2705603681
 20
84.3756387128
  0
VERTEX
  8
0
 62
7
  6
CONTINUOUS
 10
19.3342296697
 20
84.3651695482
  0
VERTEX
  8
0
 62
7
  6
CONTINUOUS
 10
19.4022024513
 20
84.3547207712
  0
VERTEX
  8
0
 62
7
  6
CONTINUOUS
 10
19.4737093373
 20
84.3444964592
  0
VERTEX
  8
0
 62
7
  6
CONTINUOUS
 10
19.5462556366
 20
84.3348083209
  0
VERTEX
  8
0
 62
7
  6
CONTINUOUS
 10
19.6228407471
 20
84.3251929401
  0
VERTEX
  8
0
 62
7
  6
CONTINUOUS
 10
19.7060755702
 20
84.3154430875
  0
VERTEX
  8
0
 62
7
  6
CONTINUOUS
 10
19.7962775057
 20
84.3055431384
  0
VERTEX
  8
0
 62
7
  6
CONTINUOUS
 10
19.8964571939
 20
84.2952085043
  0
VERTEX
  8
0
 62
7
  6
CONTINUOUS
 10
20.0015687367
 20
84.28515262
  0
VERTEX
  8
0
 62
7
  6
CONTINUOUS
 10
20.103911662
 20
84.2759357142
  0
VERTEX
  8
0
 62
7
  6
CONTINUOUS
 10
20.210758711
 20
84.2667397924
  0
VERTEX
  8
0
 62
7
  6
CONTINUOUS
 10
20.3271844936
 20
84.2573585858
  0
VERTEX
  8
0
 62
7
  6
CONTINUOUS
 10
20.4558069254
 20
84.2475161865
  0
VERTEX
  8
0
 62
7
  6
CONTINUOUS
 10
20.6037223029
 20
84.236887412
  0
VERTEX
  8
0
 62
7
  6
CONTINUOUS
 10
20.7654351689
 20
84.2261828035
  0
VERTEX
  8
0
 62
7
  6
CONTINUOUS
 10
20.9392747036
 20
84.2154017667
  0
VERTEX
  8
0
 62
7
  6
CONTINUOUS
 10
21.1174132801
 20
84.2054264109
  0
VERTEX
  8
0
 62
7
  6
CONTINUOUS
 10
21.2880673522
 20
84.1965995802
  0
VERTEX
  8
0
 62
7
  6
CONTINUOUS
 10
21.454431127
 20
84.1886586187
  0
VERTEX
  8
0
 62
7
  6
CONTINUOUS
 10
21.6164546718
 20
84.1815904121
  0
VERTEX
  8
0
 62
7
  6
CONTINUOUS
 10
21.773298351
 20
84.1753142548
  0
VERTEX
  8
0
 62
7
  6
CONTINUOUS
 10
21.9244509263
 20
84.1698368333
  0
VERTEX
  8
0
 62
7
  6
CONTINUOUS
 10
22.0695667013
 20
84.1650678659
  0
VERTEX
  8
0
 62
7
  6
CONTINUOUS
 10
22.2074701165
 20
84.1610092275
  0
VERTEX
  8
0
 62
7
  6
CONTINUOUS
 10
22.340493093
 20
84.1574860982
  0
VERTEX
  8
0
 62
7
  6
CONTINUOUS
 10
22.4686805178
 20
84.1544960457
  0
VERTEX
  8
0
 62
7
  6
CONTINUOUS
 10
22.5988954124
 20
84.1518400623
  0
VERTEX
  8
0
 62
7
  6
CONTINUOUS
 10
22.7422340913
 20
84.1494043482
  0
VERTEX
  8
0
 62
7
  6
CONTINUOUS
 10
22.8879767911
 20
84.1474509894
  0
VERTEX
  8
0
 62
7
  6
CONTINUOUS
 10
23.0271027017
 20
84.1460939099
  0
VERTEX
  8
0
 62
7
  6
CONTINUOUS
 10
23.1638703211
 20
84.1451957665
  0
VERTEX
  8
0
 62
7
  6
CONTINUOUS
 10
23.2977449404
 20
84.1447443277
  0
VERTEX
  8
0
 62
7
  6
CONTINUOUS
 10
23.434852972
 20
84.144684264
  0
VERTEX
  8
0
 62
7
  6
CONTINUOUS
 10
23.5818254793
 20
84.1450643347
  0
VERTEX
  8
0
 62
7
  6
CONTINUOUS
 10
23.737951462
 20
84.1459196791
  0
VERTEX
  8
0
 62
7
  6
CONTINUOUS
 10
23.907356595
 20
84.1473444285
  0
VERTEX
  8
0
 62
7
  6
CONTINUOUS
 10
24.082615554
 20
84.149332238
  0
VERTEX
  8
0
 62
7
  6
CONTINUOUS
 10
24.2555837921
 20
84.1517456662
  0
VERTEX
  8
0
 62
7
  6
CONTINUOUS
 10
24.4308210731
 20
84.1546087361
  0
VERTEX
  8
0
 62
7
  6
CONTINUOUS
 10
24.6108681569
 20
84.1579558338
  0
VERTEX
  8
0
 62
7
  6
CONTINUOUS
 10
24.7941258946
 20
84.1617496808
  0
VERTEX
  8
0
 62
7
  6
CONTINUOUS
 10
24.9790564754
 20
84.1659344881
  0
VERTEX
  8
0
 62
7
  6
CONTINUOUS
 10
25.1677343413
 20
84.1705242829
  0
VERTEX
  8
0
 62
7
  6
CONTINUOUS
 10
25.3618763386
 20
84.175560505
  0
VERTEX
  8
0
 62
7
  6
CONTINUOUS
 10
25.5614472162
 20
84.1810205854
  0
VERTEX
  8
0
 62
7
  6
CONTINUOUS
 10
25.7670462941
 20
84.1869118861
  0
VERTEX
  8
0
 62
7
  6
CONTINUOUS
 10
25.9785944306
 20
84.1932149565
  0
VERTEX
  8
0
 62
7
  6
CONTINUOUS
 10
26.195725874
 20
84.1999062939
  0
VERTEX
  8
0
 62
7
  6
CONTINUOUS
 10
26.4198698399
 20
84.2069973321
  0
VERTEX
  8
0
 62
7
  6
CONTINUOUS
 10
26.6524954186
 20
84.2145431273
  0
VERTEX
  8
0
 62
7
  6
CONTINUOUS
 10
26.8936441161
 20
84.222530728
  0
VERTEX
  8
0
 62
7
  6
CONTINUOUS
 10
27.1436735661
 20
84.2309733747
  0
VERTEX
  8
0
 62
7
  6
CONTINUOUS
 10
27.4032104649
 20
84.2398759479
  0
VERTEX
  8
0
 62
7
  6
CONTINUOUS
 10
27.6726772104
 20
84.2492573176
  0
VERTEX
  8
0
 62
7
  6
CONTINUOUS
 10
27.9531994609
 20
84.2591303547
  0
VERTEX
  8
0
 62
7
  6
CONTINUOUS
 10
28.2458201157
 20
84.2695439591
  0
VERTEX
  8
0
 62
7
  6
CONTINUOUS
 10
28.5515613979
 20
84.2805032466
  0
VERTEX
  8
0
 62
7
  6
CONTINUOUS
 10
28.8714012324
 20
84.2920593304
  0
VERTEX
  8
0
 62
7
  6
CONTINUOUS
 10
29.2068969818
 20
84.3042254956
  0
VERTEX
  8
0
 62
7
  6
CONTINUOUS
 10
29.5595062422
 20
84.3170805672
  0
VERTEX
  8
0
 62
7
  6
CONTINUOUS
 10
29.9310946008
 20
84.3306369172
  0
VERTEX
  8
0
 62
7
  6
CONTINUOUS
 10
30.3232806117
 20
84.344994693
  0
VERTEX
  8
0
 62
7
  6
CONTINUOUS
 10
30.7390428024
 20
84.3601786491
  0
VERTEX
  8
0
 62
7
  6
CONTINUOUS
 10
31.180883944
 20
84.3763552646
  0
VERTEX
  8
0
 62
7
  6
CONTINUOUS
 10
32.1590928111
 20
84.4119937209
  0
SEQEND
  0
POLYLINE
  8
0
 62
7
  6
CONTINUOUS
 66
1
 70
0
  0
VERTEX
  8
0
 62
7
  6
CONTINUOUS
 10
89.571830507
 20
84.9166754631
  0
VERTEX
  8
0
 62
7
  6
CONTINUOUS
 10
89.7026022308
 20
84.329694791
  0
VERTEX
  8
0
 62
7
  6
CONTINUOUS
 10
89.8420644759
 20
83.7677480281
  0
VERTEX
  8
0
 62
7
  6
CONTINUOUS
 10
89.9897557083
 20
83.2324581971
  0
VERTEX
  8
0
 62
7
  6
CONTINUOUS
 10
90.1453729262
 20
82.724746281
  0
VERTEX
  8
0
 62
7
  6
CONTINUOUS
 10
90.3086199991
 20
82.2455535903
  0
VERTEX
  8
0
 62
7
  6
CONTINUOUS
 10
90.4790048811
 20
81.7963470258
  0
VERTEX
  8
0
 62
7
  6
CONTINUOUS
 10
90.6560633792
 20
81.3783549695
  0
VERTEX
  8
0
 62
7
  6
CONTINUOUS
 10
90.839300526
 20
80.9927496461
  0
VERTEX
  8
0
 62
7
  6
CONTINUOUS
 10
91.0282052465
 20
80.6406063393
  0
VERTEX
  8
0
 62
7
  6
CONTINUOUS
 10
91.2222568576
 20
80.3228936958
  0
VERTEX
  8
0
 62
7
  6
CONTINUOUS
 10
91.4209170626
 20
80.0404912794
  0
VERTEX
  8
0
 62
7
  6
CONTINUOUS
 10
91.6236428437
 20
79.7941700727
  0
VERTEX
  8
0
 62
7
  6
CONTINUOUS
 10
91.8298827625
 20
79.5846037683
  0
VERTEX
  8
0
 62
7
  6
CONTINUOUS
 10
92.0390586685
 20
79.4123830438
  0
VERTEX
  8
0
 62
7
  6
CONTINUOUS
 10
92.2506562
 20
79.2779500437
  0
VERTEX
  8
0
 62
7
  6
CONTINUOUS
 10
92.4638828302
 20
79.1817863668
  0
VERTEX
  8
0
 62
7
  6
CONTINUOUS
 10
92.6779337991
 20
79.1241180839
  0
VERTEX
  8
0
 62
7
  6
CONTINUOUS
 10
92.8922890761
 20
79.1049119855
  0
SEQEND
  0
POLYLINE
  8
0
 62
7
  6
CONTINUOUS
 66
1
 70
0
  0
VERTEX
  8
0
 62
7
  6
CONTINUOUS
 10
89.5718199889
 20
84.9175856102
  0
VERTEX
  8
0
 62
7
  6
CONTINUOUS
 10
89.7023652304
 20
87.4973184539
  0
VERTEX
  8
0
 62
7
  6
CONTINUOUS
 10
89.8250328814
 20
89.9336724593
  0
VERTEX
  8
0
 62
7
  6
CONTINUOUS
 10
89.9363722501
 20
92.2035599906
  0
VERTEX
  8
0
 62
7
  6
CONTINUOUS
 10
90.0391208972
 20
94.3722626282
  0
VERTEX
  8
0
 62
7
  6
CONTINUOUS
 10
90.1361723396
 20
96.4852223441
  0
VERTEX
  8
0
 62
7
  6
CONTINUOUS
 10
90.2279218996
 20
98.5811015567
  0
VERTEX
  8
0
 62
7
  6
CONTINUOUS
 10
90.318848467
 20
100.7237945218
  0
VERTEX
  8
0
 62
7
  6
CONTINUOUS
 10
90.4081168939
 20
102.8873948554
  0
VERTEX
  8
0
 62
7
  6
CONTINUOUS
 10
90.495568454
 20
105.0621406279
  0
VERTEX
  8
0
 62
7
  6
CONTINUOUS
 10
90.5815397217
 20
107.2624402412
  0
VERTEX
  8
0
 62
7
  6
CONTINUOUS
 10
90.666771964
 20
109.4982133419
  0
VERTEX
  8
0
 62
7
  6
CONTINUOUS
 10
90.7511220409
 20
111.7737924195
  0
VERTEX
  8
0
 62
7
  6
CONTINUOUS
 10
90.8350529628
 20
114.0956855922
  0
VERTEX
  8
0
 62
7
  6
CONTINUOUS
 10
90.9183148016
 20
116.4677044328
  0
VERTEX
  8
0
 62
7
  6
CONTINUOUS
 10
91.0010843687
 20
118.8979179065
  0
VERTEX
  8
0
 62
7
  6
CONTINUOUS
 10
91.0829848244
 20
121.3802845951
  0
VERTEX
  8
0
 62
7
  6
CONTINUOUS
 10
91.1635556705
 20
123.9069583532
  0
VERTEX
  8
0
 62
7
  6
CONTINUOUS
 10
91.2429305145
 20
126.4912711717
  0
VERTEX
  8
0
 62
7
  6
CONTINUOUS
 10
91.3214858886
 20
129.1403070821
  0
VERTEX
  8
0
 62
7
  6
CONTINUOUS
 10
91.3992492433
 20
131.8655813196
  0
VERTEX
  8
0
 62
7
  6
CONTINUOUS
 10
91.4769282173
 20
134.6792034879
  0
VERTEX
  8
0
 62
7
  6
CONTINUOUS
 10
91.5541999652
 20
137.5871552994
  0
VERTEX
  8
0
 62
7
  6
CONTINUOUS
 10
91.6313302003
 20
140.5945660546
  0
VERTEX
  8
0
 62
7
  6
CONTINUOUS
 10
91.7081175849
 20
143.7165376152
  0
VERTEX
  8
0
 62
7
  6
CONTINUOUS
 10
91.7849810275
 20
146.9657142437
  0
VERTEX
  8
0
 62
7
  6
CONTINUOUS
 10
91.8619388426
 20
150.355416801
  0
VERTEX
  8
0
 62
7
  6
CONTINUOUS
 10
91.9395144987
 20
153.9108345951
  0
VERTEX
  8
0
 62
7
  6
CONTINUOUS
 10
92.0175089881
 20
157.6094619458
  0
VERTEX
  8
0
 62
7
  6
CONTINUOUS
 10
92.0949337768
 20
161.4324213135
  0
VERTEX
  8
0
 62
7
  6
CONTINUOUS
 10
92.1721542694
 20
165.3927353712
  0
VERTEX
  8
0
 62
7
  6
CONTINUOUS
 10
92.2490018462
 20
169.4937878429
  0
VERTEX
  8
0
 62
7
  6
CONTINUOUS
 10
92.3254893197
 20
173.7453132075
  0
VERTEX
  8
0
 62
7
  6
CONTINUOUS
 10
92.4016067684
 20
178.1493814127
  0
VERTEX
  8
0
 62
7
  6
CONTINUOUS
 10
92.4773590759
 20
182.7324232274
  0
VERTEX
  8
0
 62
7
  6
CONTINUOUS
 10
92.5536812195
 20
187.5384141646
  0
VERTEX
  8
0
 62
7
  6
CONTINUOUS
 10
92.6298683791
 20
192.5178532303
  0
VERTEX
  8
0
 62
7
  6
CONTINUOUS
 10
92.7050779894
 20
197.6565997461
  0
VERTEX
  8
0
 62
7
  6
CONTINUOUS
 10
92.7792361191
 20
202.8918266158
  0
VERTEX
  8
0
 62
7
  6
CONTINUOUS
 10
92.8508199071
 20
208.1796726483
  0
VERTEX
  8
0
 62
7
  6
CONTINUOUS
 10
92.9200104434
 20
213.447413146
  0
VERTEX
  8
0
 62
7
  6
CONTINUOUS
 10
92.984896504
 20
218.5960014464
  0
VERTEX
  8
0
 62
7
  6
CONTINUOUS
 10
93.0453536215
 20
223.6580666639
  0
SEQEND
  0
POLYLINE
  8
0
 62
7
  6
CONTINUOUS
 66
1
 70
0
  0
VERTEX
  8
0
 62
7
  6
CONTINUOUS
 10
326.7272931594
 20
79.1049119895
  0
VERTEX
  8
0
 62
7
  6
CONTINUOUS
 10
327.104432204
 20
79.1099915996
  0
VERTEX
  8
0
 62
7
  6
CONTINUOUS
 10
327.4814521726
 20
79.1252350867
  0
VERTEX
  8
0
 62
7
  6
CONTINUOUS
 10
327.8581473431
 20
79.1506494409
  0
VERTEX
  8
0
 62
7
  6
CONTINUOUS
 10
328.2340375855
 20
79.1862120414
  0
VERTEX
  8
0
 62
7
  6
CONTINUOUS
 10
328.6086324712
 20
79.2318690178
  0
VERTEX
  8
0
 62
7
  6
CONTINUOUS
 10
328.981767477
 20
79.2875882684
  0
VERTEX
  8
0
 62
7
  6
CONTINUOUS
 10
329.3531485805
 20
79.3533171621
  0
VERTEX
  8
0
 62
7
  6
CONTINUOUS
 10
329.7226800301
 20
79.429036203
  0
VERTEX
  8
0
 62
7
  6
CONTINUOUS
 10
330.0903409973
 20
79.514756374
  0
VERTEX
  8
0
 62
7
  6
CONTINUOUS
 10
330.4556042693
 20
79.610369774
  0
VERTEX
  8
0
 62
7
  6
CONTINUOUS
 10
330.8180204871
 20
79.7157548931
  0
VERTEX
  8
0
 62
7
  6
CONTINUOUS
 10
331.1773654492
 20
79.8308361771
  0
VERTEX
  8
0
 62
7
  6
CONTINUOUS
 10
331.5332783934
 20
79.9554846346
  0
VERTEX
  8
0
 62
7
  6
CONTINUOUS
 10
331.8857388374
 20
80.0896855354
  0
VERTEX
  8
0
 62
7
  6
CONTINUOUS
 10
332.2347670726
 20
80.23346279
  0
VERTEX
  8
0
 62
7
  6
CONTINUOUS
 10
332.5798588396
 20
80.3866266577
  0
VERTEX
  8
0
 62
7
  6
CONTINUOUS
 10
332.9206209838
 20
80.5490022518
  0
VERTEX
  8
0
 62
7
  6
CONTINUOUS
 10
333.2567874145
 20
80.7204543219
  0
VERTEX
  8
0
 62
7
  6
CONTINUOUS
 10
333.5879650289
 20
80.9007647699
  0
VERTEX
  8
0
 62
7
  6
CONTINUOUS
 10
333.9141801018
 20
81.0899356839
  0
VERTEX
  8
0
 62
7
  6
CONTINUOUS
 10
334.2354669009
 20
81.2880034639
  0
VERTEX
  8
0
 62
7
  6
CONTINUOUS
 10
334.5513728146
 20
81.4947094342
  0
VERTEX
  8
0
 62
7
  6
CONTINUOUS
 10
334.8615746781
 20
81.7098456122
  0
VERTEX
  8
0
 62
7
  6
CONTINUOUS
 10
335.1657765061
 20
81.9332004459
  0
VERTEX
  8
0
 62
7
  6
CONTINUOUS
 10
335.463597374
 20
82.1644727827
  0
VERTEX
  8
0
 62
7
  6
CONTINUOUS
 10
335.7550324873
 20
82.4036392687
  0
VERTEX
  8
0
 62
7
  6
CONTINUOUS
 10
336.0400587296
 20
82.6506871716
  0
VERTEX
  8
0
 62
7
  6
CONTINUOUS
 10
336.3183230525
 20
82.9053200891
  0
VERTEX
  8
0
 62
7
  6
CONTINUOUS
 10
336.5895142935
 20
83.1672444306
  0
VERTEX
  8
0
 62
7
  6
CONTINUOUS
 10
336.8535469221
 20
83.4363681659
  0
VERTEX
  8
0
 62
7
  6
CONTINUOUS
 10
337.1103192964
 20
83.7125942282
  0
VERTEX
  8
0
 62
7
  6
CONTINUOUS
 10
337.3595668992
 20
83.9956462054
  0
VERTEX
  8
0
 62
7
  6
CONTINUOUS
 10
337.601062165
 20
84.2852629802
  0
VERTEX
  8
0
 62
7
  6
CONTINUOUS
 10
337.8346483524
 20
84.5812506554
  0
SEQEND
  0
LINE
  8
0
 62
7
  6
CONTINUOUS
 10
326.7272932607
 20
79.1049119855
 11
29.6873606862
 21
79.1049119855
  0
POLYLINE
  8
0
 62
7
  6
CONTINUOUS
 66
1
 70
0
  0
VERTEX
  8
0
 62
7
  6
CONTINUOUS
 10
50.1012449875
 20
79.1049119855
  0
VERTEX
  8
0
 62
7
  6
CONTINUOUS
 10
49.864831197
 20
79.1101194303
  0
VERTEX
  8
0
 62
7
  6
CONTINUOUS
 10
49.592630514
 20
79.1257334483
  0
VERTEX
  8
0
 62
7
  6
CONTINUOUS
 10
49.2751587561
 20
79.151734079
  0
VERTEX
  8
0
 62
7
  6
CONTINUOUS
 10
48.9399244899
 20
79.1881004199
  0
VERTEX
  8
0
 62
7
  6
CONTINUOUS
 10
48.6149059741
 20
79.2348106774
  0
VERTEX
  8
0
 62
7
  6
CONTINUOUS
 10
48.2911003814
 20
79.2918283788
  0
VERTEX
  8
0
 62
7
  6
CONTINUOUS
 10
47.9687494182
 20
79.3591109457
  0
VERTEX
  8
0
 62
7
  6
CONTINUOUS
 10
47.6480922906
 20
79.4366083953
  0
VERTEX
  8
0
 62
7
  6
CONTINUOUS
 10
47.3293673346
 20
79.5242630866
  0
VERTEX
  8
0
 62
7
  6
CONTINUOUS
 10
47.0128113174
 20
79.6220098648
  0
VERTEX
  8
0
 62
7
  6
CONTINUOUS
 10
46.698659398
 20
79.7297760868
  0
VERTEX
  8
0
 62
7
  6
CONTINUOUS
 10
46.3871450789
 20
79.8474816211
  0
VERTEX
  8
0
 62
7
  6
CONTINUOUS
 10
46.0784998863
 20
79.9750389511
  0
VERTEX
  8
0
 62
7
  6
CONTINUOUS
 10
45.7729531477
 20
80.1123532624
  0
VERTEX
  8
0
 62
7
  6
CONTINUOUS
 10
45.4707319028
 20
80.2593224881
  0
VERTEX
  8
0
 62
7
  6
CONTINUOUS
 10
45.1720607323
 20
80.4158373791
  0
VERTEX
  8
0
 62
7
  6
CONTINUOUS
 10
44.8771615795
 20
80.5817815937
  0
VERTEX
  8
0
 62
7
  6
CONTINUOUS
 10
44.5862535714
 20
80.7570317881
  0
VERTEX
  8
0
 62
7
  6
CONTINUOUS
 10
44.2995528745
 20
80.9414577027
  0
VERTEX
  8
0
 62
7
  6
CONTINUOUS
 10
44.0172725233
 20
81.1349222602
  0
VERTEX
  8
0
 62
7
  6
CONTINUOUS
 10
43.7396222712
 20
81.3372816675
  0
VERTEX
  8
0
 62
7
  6
CONTINUOUS
 10
43.4668084242
 20
81.5483855234
  0
VERTEX
  8
0
 62
7
  6
CONTINUOUS
 10
43.1990336982
 20
81.7680769295
  0
VERTEX
  8
0
 62
7
  6
CONTINUOUS
 10
42.9364970583
 20
81.9961926078
  0
VERTEX
  8
0
 62
7
  6
CONTINUOUS
 10
42.6793935811
 20
82.232563021
  0
VERTEX
  8
0
 62
7
  6
CONTINUOUS
 10
42.4279142999
 20
82.4770125002
  0
VERTEX
  8
0
 62
7
  6
CONTINUOUS
 10
42.182246072
 20
82.7293593734
  0
VERTEX
  8
0
 62
7
  6
CONTINUOUS
 10
41.9425714315
 20
82.9894161027
  0
VERTEX
  8
0
 62
7
  6
CONTINUOUS
 10
41.7090684624
 20
83.2569894217
  0
VERTEX
  8
0
 62
7
  6
CONTINUOUS
 10
41.481910657
 20
83.5318804815
  0
VERTEX
  8
0
 62
7
  6
CONTINUOUS
 10
41.2714030332
 20
83.8139002993
  0
VERTEX
  8
0
 62
7
  6
CONTINUOUS
 10
41.0473008156
 20
84.1027933966
  0
VERTEX
  8
0
 62
7
  6
CONTINUOUS
 10
40.7790676726
 20
84.3982948665
  0
VERTEX
  8
0
 62
7
  6
CONTINUOUS
 10
40.4767604122
 20
84.7001963173
  0
SEQEND
  0
POLYLINE
  8
0
 62
7
  6
CONTINUOUS
 66
1
 70
0
  0
VERTEX
  8
0
 62
7
  6
CONTINUOUS
 10
32.1590928111
 20
84.4119937209
  0
VERTEX
  8
0
 62
7
  6
CONTINUOUS
 10
32.7064029838
 20
84.4317341716
  0
VERTEX
  8
0
 62
7
  6
CONTINUOUS
 10
33.3037438174
 20
84.4532756693
  0
VERTEX
  8
0
 62
7
  6
CONTINUOUS
 10
33.9553951303
 20
84.4765245034
  0
VERTEX
  8
0
 62
7
  6
CONTINUOUS
 10
34.6786939736
 20
84.5019507763
  0
VERTEX
  8
0
 62
7
  6
CONTINUOUS
 10
35.4462637979
 20
84.5292095336
  0
VERTEX
  8
0
 62
7
  6
CONTINUOUS
 10
36.2282626902
 20
84.5564725453
  0
VERTEX
  8
0
 62
7
  6
CONTINUOUS
 10
37.0333274735
 20
84.5843396901
  0
VERTEX
  8
0
 62
7
  6
CONTINUOUS
 10
37.8589976881
 20
84.6126899947
  0
VERTEX
  8
0
 62
7
  6
CONTINUOUS
 10
38.7074978076
 20
84.6415292535
  0
VERTEX
  8
0
 62
7
  6
CONTINUOUS
 10
39.5805811061
 20
84.6708652458
  0
VERTEX
  8
0
 62
7
  6
CONTINUOUS
 10
40.4772349721
 20
84.7005810321
  0
SEQEND
  0
POLYLINE
  8
0
 62
7
  6
CONTINUOUS
 66
1
 70
0
  0
VERTEX
  8
0
 62
7
  6
CONTINUOUS
 10
40.4967535803
 20
84.7166094201
  0
VERTEX
  8
0
 62
7
  6
CONTINUOUS
 10
40.9890751341
 20
84.7337421338
  0
VERTEX
  8
0
 62
7
  6
CONTINUOUS
 10
41.5229213335
 20
84.752596892
  0
VERTEX
  8
0
 62
7
  6
CONTINUOUS
 10
42.0971446162
 20
84.7739885189
  0
VERTEX
  8
0
 62
7
  6
CONTINUOUS
 10
42.7197680987
 20
84.797769103
  0
VERTEX
  8
0
 62
7
  6
CONTINUOUS
 10
43.4005512257
 20
84.824494771
  0
VERTEX
  8
0
 62
7
  6
CONTINUOUS
 10
44.1348775407
 20
84.8537479377
  0
VERTEX
  8
0
 62
7
  6
CONTINUOUS
 10
44.9288867866
 20
84.8855595854
  0
VERTEX
  8
0
 62
7
  6
CONTINUOUS
 10
45.760060631
 20
84.9191848325
  0
VERTEX
  8
0
 62
7
  6
CONTINUOUS
 10
46.6064646096
 20
84.9529062438
  0
VERTEX
  8
0
 62
7
  6
CONTINUOUS
 10
47.4668571227
 20
84.9868374045
  0
VERTEX
  8
0
 62
7
  6
CONTINUOUS
 10
48.3319000003
 20
85.0201395155
  0
VERTEX
  8
0
 62
7
  6
CONTINUOUS
 10
49.2015406457
 20
85.0527205145
  0
VERTEX
  8
0
 62
7
  6
CONTINUOUS
 10
50.0714745197
 20
85.084094085
  0
VERTEX
  8
0
 62
7
  6
CONTINUOUS
 10
50.9443914378
 20
85.114215335
  0
VERTEX
  8
0
 62
7
  6
CONTINUOUS
 10
51.8215864602
 20
85.1429894348
  0
VERTEX
  8
0
 62
7
  6
CONTINUOUS
 10
52.7033441024
 20
85.1702799983
  0
VERTEX
  8
0
 62
7
  6
CONTINUOUS
 10
53.590203453
 20
85.1960010407
  0
VERTEX
  8
0
 62
7
  6
CONTINUOUS
 10
54.4829464853
 20
85.2200314417
  0
VERTEX
  8
0
 62
7
  6
CONTINUOUS
 10
55.3822612834
 20
85.242290471
  0
VERTEX
  8
0
 62
7
  6
CONTINUOUS
 10
56.2891610805
 20
85.2626568731
  0
VERTEX
  8
0
 62
7
  6
CONTINUOUS
 10
57.2047786014
 20
85.2810568034
  0
VERTEX
  8
0
 62
7
  6
CONTINUOUS
 10
58.1297254381
 20
85.297405592
  0
VERTEX
  8
0
 62
7
  6
CONTINUOUS
 10
59.0641341036
 20
85.3116649146
  0
VERTEX
  8
0
 62
7
  6
CONTINUOUS
 10
60.0108567705
 20
85.3237687369
  0
VERTEX
  8
0
 62
7
  6
CONTINUOUS
 10
60.9717710256
 20
85.3337550752
  0
VERTEX
  8
0
 62
7
  6
CONTINUOUS
 10
61.9505159684
 20
85.3415720645
  0
VERTEX
  8
0
 62
7
  6
CONTINUOUS
 10
62.9520879698
 20
85.3472868177
  0
VERTEX
  8
0
 62
7
  6
CONTINUOUS
 10
63.9745786048
 20
85.3507302135
  0
VERTEX
  8
0
 62
7
  6
CONTINUOUS
 10
65.0159234134
 20
85.3517935522
  0
VERTEX
  8
0
 62
7
  6
CONTINUOUS
 10
66.0815076142
 20
85.3503227039
  0
VERTEX
  8
0
 62
7
  6
CONTINUOUS
 10
67.1763242428
 20
85.3462760617
  0
VERTEX
  8
0
 62
7
  6
CONTINUOUS
 10
68.3002718883
 20
85.3396065949
  0
VERTEX
  8
0
 62
7
  6
CONTINUOUS
 10
69.4553472526
 20
85.3302732525
  0
VERTEX
  8
0
 62
7
  6
CONTINUOUS
 10
70.6403683988
 20
85.3182814129
  0
VERTEX
  8
0
 62
7
  6
CONTINUOUS
 10
71.8638399506
 20
85.3033042832
  0
VERTEX
  8
0
 62
7
  6
CONTINUOUS
 10
73.0985454943
 20
85.286219347
  0
VERTEX
  8
0
 62
7
  6
CONTINUOUS
 10
74.3166236227
 20
85.2670404934
  0
VERTEX
  8
0
 62
7
  6
CONTINUOUS
 10
75.5247119645
 20
85.2461037125
  0
VERTEX
  8
0
 62
7
  6
CONTINUOUS
 10
76.7174494213
 20
85.2237621117
  0
VERTEX
  8
0
 62
7
  6
CONTINUOUS
 10
77.9029098674
 20
85.1999474806
  0
VERTEX
  8
0
 62
7
  6
CONTINUOUS
 10
79.0819746622
 20
85.1750705595
  0
VERTEX
  8
0
 62
7
  6
CONTINUOUS
 10
80.2719604804
 20
85.1486052958
  0
VERTEX
  8
0
 62
7
  6
CONTINUOUS
 10
81.5048595566
 20
85.1200920305
  0
VERTEX
  8
0
 62
7
  6
CONTINUOUS
 10
82.7397712642
 20
85.0908806603
  0
VERTEX
  8
0
 62
7
  6
CONTINUOUS
 10
83.942835593
 20
85.0615443436
  0
VERTEX
  8
0
 62
7
  6
CONTINUOUS
 10
85.1213837978
 20
85.0321598797
  0
VERTEX
  8
0
 62
7
  6
CONTINUOUS
 10
86.2698851134
 20
85.0029547013
  0
VERTEX
  8
0
 62
7
  6
CONTINUOUS
 10
87.3929689465
 20
84.9740010292
  0
VERTEX
  8
0
 62
7
  6
CONTINUOUS
 10
88.4942552027
 20
84.9457117012
  0
VERTEX
  8
0
 62
7
  6
CONTINUOUS
 10
89.5718199889
 20
84.9175856102
  0
SEQEND
  0
POLYLINE
  8
0
 62
7
  6
CONTINUOUS
 66
1
 70
0
  0
VERTEX
  8
0
 62
7
  6
CONTINUOUS
 10
266.4964850817
 20
84.9166112431
  0
VERTEX
  8
0
 62
7
  6
CONTINUOUS
 10
266.7270963943
 20
84.9226981606
  0
VERTEX
  8
0
 62
7
  6
CONTINUOUS
 10
266.9612602903
 20
84.9288211411
  0
SEQEND
  0
POLYLINE
  8
0
 62
7
  6
CONTINUOUS
 66
1
 70
0
  0
VERTEX
  8
0
 62
7
  6
CONTINUOUS
 10
266.9612602903
 20
84.9288211411
  0
VERTEX
  8
0
 62
7
  6
CONTINUOUS
 10
267.4401958152
 20
84.9412007551
  0
VERTEX
  8
0
 62
7
  6
CONTINUOUS
 10
267.6838835024
 20
84.9474798712
  0
VERTEX
  8
0
 62
7
  6
CONTINUOUS
 10
267.929826452
 20
84.9538107932
  0
SEQEND
  0
POLYLINE
  8
0
 62
7
  6
CONTINUOUS
 66
1
 70
0
  0
VERTEX
  8
0
 62
7
  6
CONTINUOUS
 10
267.929826452
 20
84.9538107932
  0
VERTEX
  8
0
 62
7
  6
CONTINUOUS
 10
268.4268137801
 20
84.9665999149
  0
VERTEX
  8
0
 62
7
  6
CONTINUOUS
 10
268.6769848611
 20
84.9730396897
  0
VERTEX
  8
0
 62
7
  6
CONTINUOUS
 10
268.9276538563
 20
84.9794916973
  0
VERTEX
  8
0
 62
7
  6
CONTINUOUS
 10
269.1783531364
 20
84.9859401658
  0
VERTEX
  8
0
 62
7
  6
CONTINUOUS
 10
269.4286366353
 20
84.9923725031
  0
VERTEX
  8
0
 62
7
  6
CONTINUOUS
 10
269.6780454644
 20
84.9987726566
  0
SEQEND
  0
LINE
  8
0
 62
7
  6
CONTINUOUS
 10
269.6780454644
 20
84.9987726566
 11
270.1723402402
 21
85.0114209616
  0
LINE
  8
0
 62
7
  6
CONTINUOUS
 10
270.1723402402
 20
85.0114209616
 11
270.6594047074
 21
85.0238167759
  0
LINE
  8
0
 62
7
  6
CONTINUOUS
 10
270.6594047074
 20
85.0238167759
 11
271.1415899001
 21
85.0360004214
  0
POLYLINE
  8
0
 62
7
  6
CONTINUOUS
 66
1
 70
0
  0
VERTEX
  8
0
 62
7
  6
CONTINUOUS
 10
271.1415899001
 20
85.0360004214
  0
VERTEX
  8
0
 62
7
  6
CONTINUOUS
 10
271.6229716567
 20
85.0480635507
  0
VERTEX
  8
0
 62
7
  6
CONTINUOUS
 10
271.8640401751
 20
85.0540650596
  0
SEQEND
  0
POLYLINE
  8
0
 62
7
  6
CONTINUOUS
 66
1
 70
0
  0
VERTEX
  8
0
 62
7
  6
CONTINUOUS
 10
271.8640401751
 20
85.0540650596
  0
VERTEX
  8
0
 62
7
  6
CONTINUOUS
 10
272.3469839779
 20
85.0660044308
  0
VERTEX
  8
0
 62
7
  6
CONTINUOUS
 10
272.5887508397
 20
85.0719376788
  0
SEQEND
  0
LINE
  8
0
 62
7
  6
CONTINUOUS
 10
272.5887508397
 20
85.0719376788
 11
273.0728454556
 21
85.0837260168
  0
LINE
  8
0
 62
7
  6
CONTINUOUS
 10
273.0728454556
 20
85.0837260168
 11
273.5577190019
 21
85.0954048238
  0
LINE
  8
0
 62
7
  6
CONTINUOUS
 10
273.5577190019
 20
85.0954048238
 11
274.0435238392
 21
85.106970561
  0
LINE
  8
0
 62
7
  6
CONTINUOUS
 10
274.0435238392
 20
85.106970561
 11
274.5305773189
 21
85.1184234846
  0
LINE
  8
0
 62
7
  6
CONTINUOUS
 10
274.5305773189
 20
85.1184234846
 11
275.0192468377
 21
85.129764895
  0
POLYLINE
  8
0
 62
7
  6
CONTINUOUS
 66
1
 70
0
  0
VERTEX
  8
0
 62
7
  6
CONTINUOUS
 10
275.0192468377
 20
85.129764895
  0
VERTEX
  8
0
 62
7
  6
CONTINUOUS
 10
275.5096197989
 20
85.1409896215
  0
VERTEX
  8
0
 62
7
  6
CONTINUOUS
 10
275.7553977822
 20
85.1465549722
  0
VERTEX
  8
0
 62
7
  6
CONTINUOUS
 10
276.0015423735
 20
85.1520873032
  0
VERTEX
  8
0
 62
7
  6
CONTINUOUS
 10
276.248027847
 20
85.1575849982
  0
VERTEX
  8
0
 62
7
  6
CONTINUOUS
 10
276.4948317121
 20
85.163046851
  0
VERTEX
  8
0
 62
7
  6
CONTINUOUS
 10
276.7419254254
 20
85.1684701842
  0
VERTEX
  8
0
 62
7
  6
CONTINUOUS
 10
276.9892805139
 20
85.1738526234
  0
VERTEX
  8
0
 62
7
  6
CONTINUOUS
 10
277.2368748317
 20
85.1791917693
  0
VERTEX
  8
0
 62
7
  6
CONTINUOUS
 10
277.4846686071
 20
85.1844848409
  0
VERTEX
  8
0
 62
7
  6
CONTINUOUS
 10
277.7326867118
 20
85.1897303698
  0
VERTEX
  8
0
 62
7
  6
CONTINUOUS
 10
277.9809287055
 20
85.1949265486
  0
VERTEX
  8
0
 62
7
  6
CONTINUOUS
 10
278.229430111
 20
85.2000719394
  0
VERTEX
  8
0
 62
7
  6
CONTINUOUS
 10
278.4782174342
 20
85.2051653116
  0
VERTEX
  8
0
 62
7
  6
CONTINUOUS
 10
278.7273159821
 20
85.2102048998
  0
VERTEX
  8
0
 62
7
  6
CONTINUOUS
 10
278.9767591507
 20
85.2151895069
  0
VERTEX
  8
0
 62
7
  6
CONTINUOUS
 10
279.2265478475
 20
85.2201168745
  0
VERTEX
  8
0
 62
7
  6
CONTINUOUS
 10
279.476697342
 20
85.2249852876
  0
VERTEX
  8
0
 62
7
  6
CONTINUOUS
 10
279.7271971539
 20
85.2297923208
  0
VERTEX
  8
0
 62
7
  6
CONTINUOUS
 10
279.9780428304
 20
85.2345357321
  0
VERTEX
  8
0
 62
7
  6
CONTINUOUS
 10
280.2292312143
 20
85.239213431
  0
VERTEX
  8
0
 62
7
  6
CONTINUOUS
 10
280.4807508103
 20
85.2438231358
  0
VERTEX
  8
0
 62
7
  6
CONTINUOUS
 10
280.732621797
 20
85.2483633735
  0
VERTEX
  8
0
 62
7
  6
CONTINUOUS
 10
280.9848502721
 20
85.2528325827
  0
VERTEX
  8
0
 62
7
  6
CONTINUOUS
 10
281.2374659727
 20
85.257229261
  0
VERTEX
  8
0
 62
7
  6
CONTINUOUS
 10
281.4904941262
 20
85.2615522337
  0
VERTEX
  8
0
 62
7
  6
CONTINUOUS
 10
281.7439528414
 20
85.2657997288
  0
VERTEX
  8
0
 62
7
  6
CONTINUOUS
 10
281.9978803293
 20
85.2699706531
  0
VERTEX
  8
0
 62
7
  6
CONTINUOUS
 10
282.2522400694
 20
85.2740625281
  0
VERTEX
  8
0
 62
7
  6
CONTINUOUS
 10
282.5070243167
 20
85.2780732931
  0
VERTEX
  8
0
 62
7
  6
CONTINUOUS
 10
282.7621849763
 20
85.2820005907
  0
VERTEX
  8
0
 62
7
  6
CONTINUOUS
 10
283.0177010788
 20
85.285842056
  0
VERTEX
  8
0
 62
7
  6
CONTINUOUS
 10
283.2734846283
 20
85.2895950774
  0
VERTEX
  8
0
 62
7
  6
CONTINUOUS
 10
283.5295348027
 20
85.293257184
  0
VERTEX
  8
0
 62
7
  6
CONTINUOUS
 10
283.7855717168
 20
85.2968242628
  0
VERTEX
  8
0
 62
7
  6
CONTINUOUS
 10
284.04140468
 20
85.3002907723
  0
VERTEX
  8
0
 62
7
  6
CONTINUOUS
 10
284.2967737078
 20
85.3036542403
  0
VERTEX
  8
0
 62
7
  6
CONTINUOUS
 10
284.5514143205
 20
85.3069089821
  0
VERTEX
  8
0
 62
7
  6
CONTINUOUS
 10
284.8051594945
 20
85.3100539104
  0
VERTEX
  8
0
 62
7
  6
CONTINUOUS
 10
285.0577764983
 20
85.3130847785
  0
VERTEX
  8
0
 62
7
  6
CONTINUOUS
 10
285.3092062387
 20
85.316001175
  0
VERTEX
  8
0
 62
7
  6
CONTINUOUS
 10
285.5593395388
 20
85.3188006037
  0
VERTEX
  8
0
 62
7
  6
CONTINUOUS
 10
285.8080984676
 20
85.3214827562
  0
VERTEX
  8
0
 62
7
  6
CONTINUOUS
 10
286.0553603659
 20
85.3240455955
  0
VERTEX
  8
0
 62
7
  6
CONTINUOUS
 10
286.3011541436
 20
85.3264898247
  0
VERTEX
  8
0
 62
7
  6
CONTINUOUS
 10
286.5454444979
 20
85.3288151402
  0
VERTEX
  8
0
 62
7
  6
CONTINUOUS
 10
286.7883019685
 20
85.3310222395
  0
VERTEX
  8
0
 62
7
  6
CONTINUOUS
 10
287.0297711516
 20
85.3331119338
  0
VERTEX
  8
0
 62
7
  6
CONTINUOUS
 10
287.2698927776
 20
85.3350844942
  0
VERTEX
  8
0
 62
7
  6
CONTINUOUS
 10
287.5087157451
 20
85.3369406963
  0
VERTEX
  8
0
 62
7
  6
CONTINUOUS
 10
287.7462584217
 20
85.338680716
  0
VERTEX
  8
0
 62
7
  6
CONTINUOUS
 10
287.9825487181
 20
85.3403050728
  0
VERTEX
  8
0
 62
7
  6
CONTINUOUS
 10
288.2176058541
 20
85.3418140459
  0
VERTEX
  8
0
 62
7
  6
CONTINUOUS
 10
288.4514537846
 20
85.3432081098
  0
VERTEX
  8
0
 62
7
  6
CONTINUOUS
 10
288.6841053534
 20
85.3444876369
  0
VERTEX
  8
0
 62
7
  6
CONTINUOUS
 10
288.9155828944
 20
85.3456530061
  0
VERTEX
  8
0
 62
7
  6
CONTINUOUS
 10
289.1458812773
 20
85.3467049871
  0
VERTEX
  8
0
 62
7
  6
CONTINUOUS
 10
289.3750031781
 20
85.3476441656
  0
VERTEX
  8
0
 62
7
  6
CONTINUOUS
 10
289.6029478381
 20
85.3484713067
  0
VERTEX
  8
0
 62
7
  6
CONTINUOUS
 10
289.8297042235
 20
85.3491870835
  0
VERTEX
  8
0
 62
7
  6
CONTINUOUS
 10
290.0553063387
 20
85.3497921023
  0
VERTEX
  8
0
 62
7
  6
CONTINUOUS
 10
290.2797677094
 20
85.3502872424
  0
VERTEX
  8
0
 62
7
  6
CONTINUOUS
 10
290.5031377694
 20
85.3506728507
  0
VERTEX
  8
0
 62
7
  6
CONTINUOUS
 10
290.7254604749
 20
85.3509498094
  0
VERTEX
  8
0
 62
7
  6
CONTINUOUS
 10
290.9467639674
 20
85.3511183168
  0
VERTEX
  8
0
 62
7
  6
CONTINUOUS
 10
291.1671004295
 20
85.3511787888
  0
VERTEX
  8
0
 62
7
  6
CONTINUOUS
 10
291.3864402294
 20
85.3511322004
  0
VERTEX
  8
0
 62
7
  6
CONTINUOUS
 10
291.6047797236
 20
85.3509788422
  0
VERTEX
  8
0
 62
7
  6
CONTINUOUS
 10
291.8220935988
 20
85.3507209441
  0
VERTEX
  8
0
 62
7
  6
CONTINUOUS
 10
292.0383550829
 20
85.3503600542
  0
VERTEX
  8
0
 62
7
  6
CONTINUOUS
 10
292.2535659188
 20
85.3498979943
  0
VERTEX
  8
0
 62
7
  6
CONTINUOUS
 10
292.4677079385
 20
85.3493372441
  0
VERTEX
  8
0
 62
7
  6
CONTINUOUS
 10
292.6808144425
 20
85.3486772047
  0
VERTEX
  8
0
 62
7
  6
CONTINUOUS
 10
292.8929057491
 20
85.3479185136
  0
VERTEX
  8
0
 62
7
  6
CONTINUOUS
 10
293.1040017091
 20
85.3470604133
  0
VERTEX
  8
0
 62
7
  6
CONTINUOUS
 10
293.3141379651
 20
85.3461026264
  0
VERTEX
  8
0
 62
7
  6
CONTINUOUS
 10
293.523286522
 20
85.3450448273
  0
VERTEX
  8
0
 62
7
  6
CONTINUOUS
 10
293.7314212332
 20
85.3438858403
  0
VERTEX
  8
0
 62
7
  6
CONTINUOUS
 10
293.9385728108
 20
85.3426276258
  0
VERTEX
  8
0
 62
7
  6
CONTINUOUS
 10
294.1447400503
 20
85.3412707612
  0
VERTEX
  8
0
 62
7
  6
CONTINUOUS
 10
294.3499918035
 20
85.3398186018
  0
VERTEX
  8
0
 62
7
  6
CONTINUOUS
 10
294.5543805852
 20
85.3382746822
  0
VERTEX
  8
0
 62
7
  6
CONTINUOUS
 10
294.7579517309
 20
85.3366402988
  0
VERTEX
  8
0
 62
7
  6
CONTINUOUS
 10
294.9607738503
 20
85.3349187564
  0
VERTEX
  8
0
 62
7
  6
CONTINUOUS
 10
295.1628272912
 20
85.3331087575
  0
VERTEX
  8
0
 62
7
  6
CONTINUOUS
 10
295.3641170148
 20
85.3312106154
  0
VERTEX
  8
0
 62
7
  6
CONTINUOUS
 10
295.5646396626
 20
85.3292218485
  0
VERTEX
  8
0
 62
7
  6
CONTINUOUS
 10
295.764375814
 20
85.327140251
  0
VERTEX
  8
0
 62
7
  6
CONTINUOUS
 10
295.9633807039
 20
85.3249642457
  0
VERTEX
  8
0
 62
7
  6
CONTINUOUS
 10
296.161667328
 20
85.322691773
  0
VERTEX
  8
0
 62
7
  6
CONTINUOUS
 10
296.359341067
 20
85.3203230503
  0
VERTEX
  8
0
 62
7
  6
CONTINUOUS
 10
296.5564949611
 20
85.3178579585
  0
VERTEX
  8
0
 62
7
  6
CONTINUOUS
 10
296.7531747758
 20
85.3152976115
  0
VERTEX
  8
0
 62
7
  6
CONTINUOUS
 10
296.9494623394
 20
85.3126432312
  0
VERTEX
  8
0
 62
7
  6
CONTINUOUS
 10
297.1453394697
 20
85.3098959204
  0
VERTEX
  8
0
 62
7
  6
CONTINUOUS
 10
297.3408258346
 20
85.3070572104
  0
VERTEX
  8
0
 62
7
  6
CONTINUOUS
 10
297.5358892479
 20
85.3041272744
  0
VERTEX
  8
0
 62
7
  6
CONTINUOUS
 10
297.7305091467
 20
85.3011064748
  0
VERTEX
  8
0
 62
7
  6
CONTINUOUS
 10
297.9246711959
 20
85.2979953347
  0
VERTEX
  8
0
 62
7
  6
CONTINUOUS
 10
298.1183523191
 20
85.2947943198
  0
VERTEX
  8
0
 62
7
  6
CONTINUOUS
 10
298.3115588911
 20
85.2915036013
  0
VERTEX
  8
0
 62
7
  6
CONTINUOUS
 10
298.5042850142
 20
85.2881235473
  0
VERTEX
  8
0
 62
7
  6
CONTINUOUS
 10
298.6965443701
 20
85.2846540636
  0
VERTEX
  8
0
 62
7
  6
CONTINUOUS
 10
298.8883432805
 20
85.2810952647
  0
VERTEX
  8
0
 62
7
  6
CONTINUOUS
 10
299.0796973428
 20
85.2774471906
  0
VERTEX
  8
0
 62
7
  6
CONTINUOUS
 10
299.270617085
 20
85.2737100097
  0
VERTEX
  8
0
 62
7
  6
CONTINUOUS
 10
299.4611232007
 20
85.2698838774
  0
VERTEX
  8
0
 62
7
  6
CONTINUOUS
 10
299.6512321716
 20
85.2659690965
  0
VERTEX
  8
0
 62
7
  6
CONTINUOUS
 10
299.8409660444
 20
85.2619659627
  0
VERTEX
  8
0
 62
7
  6
CONTINUOUS
 10
300.0303454087
 20
85.2578749085
  0
VERTEX
  8
0
 62
7
  6
CONTINUOUS
 10
300.2193898382
 20
85.2536964768
  0
VERTEX
  8
0
 62
7
  6
CONTINUOUS
 10
300.4081204981
 20
85.2494312719
  0
VERTEX
  8
0
 62
7
  6
CONTINUOUS
 10
300.5965519415
 20
85.2450801832
  0
VERTEX
  8
0
 62
7
  6
CONTINUOUS
 10
300.7847034766
 20
85.2406440721
  0
VERTEX
  8
0
 62
7
  6
CONTINUOUS
 10
300.9725809148
 20
85.236124181
  0
VERTEX
  8
0
 62
7
  6
CONTINUOUS
 10
301.1601972449
 20
85.2315217785
  0
VERTEX
  8
0
 62
7
  6
CONTINUOUS
 10
301.3475495218
 20
85.2268380128
  0
VERTEX
  8
0
 62
7
  6
CONTINUOUS
 10
301.5346394241
 20
85.2220741089
  0
VERTEX
  8
0
 62
7
  6
CONTINUOUS
 10
301.7214657868
 20
85.2172312481
  0
VERTEX
  8
0
 62
7
  6
CONTINUOUS
 10
301.9080267778
 20
85.2123106108
  0
VERTEX
  8
0
 62
7
  6
CONTINUOUS
 10
302.0943267785
 20
85.2073130662
  0
VERTEX
  8
0
 62
7
  6
CONTINUOUS
 10
302.2803683298
 20
85.2022395419
  0
VERTEX
  8
0
 62
7
  6
CONTINUOUS
 10
302.4661553853
 20
85.1970909082
  0
VERTEX
  8
0
 62
7
  6
CONTINUOUS
 10
302.65169153
 20
85.1918680973
  0
VERTEX
  8
0
 62
7
  6
CONTINUOUS
 10
302.8369800665
 20
85.1865720256
  0
VERTEX
  8
0
 62
7
  6
CONTINUOUS
 10
303.0220241105
 20
85.181203667
  0
VERTEX
  8
0
 62
7
  6
CONTINUOUS
 10
303.206827474
 20
85.1757639502
  0
VERTEX
  8
0
 62
7
  6
CONTINUOUS
 10
303.391393619
 20
85.1702538699
  0
VERTEX
  8
0
 62
7
  6
CONTINUOUS
 10
303.5757263599
 20
85.1646743809
  0
VERTEX
  8
0
 62
7
  6
CONTINUOUS
 10
303.7598293712
 20
85.1590265028
  0
VERTEX
  8
0
 62
7
  6
CONTINUOUS
 10
303.9437061731
 20
85.153311219
  0
VERTEX
  8
0
 62
7
  6
CONTINUOUS
 10
304.1273585931
 20
85.1475296734
  0
VERTEX
  8
0
 62
7
  6
CONTINUOUS
 10
304.3107950294
 20
85.1416825847
  0
VERTEX
  8
0
 62
7
  6
CONTINUOUS
 10
304.4940203749
 20
85.1357709366
  0
VERTEX
  8
0
 62
7
  6
CONTINUOUS
 10
304.6770464172
 20
85.1297953605
  0
VERTEX
  8
0
 62
7
  6
CONTINUOUS
 10
304.8598831543
 20
85.1237566595
  0
VERTEX
  8
0
 62
7
  6
CONTINUOUS
 10
305.0425400796
 20
85.1176556939
  0
VERTEX
  8
0
 62
7
  6
CONTINUOUS
 10
305.2250269394
 20
85.1114933798
  0
VERTEX
  8
0
 62
7
  6
CONTINUOUS
 10
305.4073522195
 20
85.1052707369
  0
VERTEX
  8
0
 62
7
  6
CONTINUOUS
 10
305.5895250372
 20
85.0989888116
  0
VERTEX
  8
0
 62
7
  6
CONTINUOUS
 10
305.7715525304
 20
85.0926488025
  0
VERTEX
  8
0
 62
7
  6
CONTINUOUS
 10
305.9534424709
 20
85.0862519154
  0
VERTEX
  8
0
 62
7
  6
CONTINUOUS
 10
306.1352014253
 20
85.0797995049
  0
VERTEX
  8
0
 62
7
  6
CONTINUOUS
 10
306.3168363151
 20
85.0732929584
  0
VERTEX
  8
0
 62
7
  6
CONTINUOUS
 10
306.4983532397
 20
85.0667336915
  0
VERTEX
  8
0
 62
7
  6
CONTINUOUS
 10
306.6797581528
 20
85.0601232708
  0
VERTEX
  8
0
 62
7
  6
CONTINUOUS
 10
306.8610578338
 20
85.0534629244
  0
VERTEX
  8
0
 62
7
  6
CONTINUOUS
 10
307.0422586992
 20
85.0467540385
  0
VERTEX
  8
0
 62
7
  6
CONTINUOUS
 10
307.2233671824
 20
85.0399980154
  0
VERTEX
  8
0
 62
7
  6
CONTINUOUS
 10
307.404389725
 20
85.0331962951
  0
VERTEX
  8
0
 62
7
  6
CONTINUOUS
 10
307.5853321123
 20
85.0263504595
  0
VERTEX
  8
0
 62
7
  6
CONTINUOUS
 10
307.7661981153
 20
85.0194621915
  0
SEQEND
  0
POLYLINE
  8
0
 62
7
  6
CONTINUOUS
 66
1
 70
0
  0
VERTEX
  8
0
 62
7
  6
CONTINUOUS
 10
176.4928743278
 20
84.4497421867
  0
VERTEX
  8
0
 62
7
  6
CONTINUOUS
 10
176.9971492176
 20
84.4506522343
  0
VERTEX
  8
0
 62
7
  6
CONTINUOUS
 10
178.020325854
 20
84.4525808361
  0
SEQEND
  0
LINE
  8
0
 62
7
  6
CONTINUOUS
 10
175.0067410643
 20
84.4472142735
 11
176.4928743278
 21
84.4497421867
  0
POLYLINE
  8
0
 62
7
  6
CONTINUOUS
 66
1
 70
0
  0
VERTEX
  8
0
 62
7
  6
CONTINUOUS
 10
173.0795244457
 20
84.4442755965
  0
VERTEX
  8
0
 62
7
  6
CONTINUOUS
 10
173.5561527068
 20
84.4449672105
  0
VERTEX
  8
0
 62
7
  6
CONTINUOUS
 10
175.0067410643
 20
84.4472142735
  0
SEQEND
  0
POLYLINE
  8
0
 62
7
  6
CONTINUOUS
 66
1
 70
0
  0
VERTEX
  8
0
 62
7
  6
CONTINUOUS
 10
212.1736428107
 20
84.4408943663
  0
VERTEX
  8
0
 62
7
  6
CONTINUOUS
 10
212.7791193686
 20
84.4416580426
  0
VERTEX
  8
0
 62
7
  6
CONTINUOUS
 10
213.4197782936
 20
84.4425150362
  0
VERTEX
  8
0
 62
7
  6
CONTINUOUS
 10
214.0958230298
 20
84.4434676701
  0
VERTEX
  8
0
 62
7
  6
CONTINUOUS
 10
214.8137949305
 20
84.4445338835
  0
VERTEX
  8
0
 62
7
  6
CONTINUOUS
 10
215.5601306582
 20
84.4457302353
  0
VERTEX
  8
0
 62
7
  6
CONTINUOUS
 10
216.3274398746
 20
84.4470337506
  0
VERTEX
  8
0
 62
7
  6
CONTINUOUS
 10
217.1037219909
 20
84.4484696067
  0
VERTEX
  8
0
 62
7
  6
CONTINUOUS
 10
217.8756738198
 20
84.4499934039
  0
VERTEX
  8
0
 62
7
  6
CONTINUOUS
 10
218.6397784909
 20
84.4516242739
  0
VERTEX
  8
0
 62
7
  6
CONTINUOUS
 10
219.3879007918
 20
84.4533336262
  0
VERTEX
  8
0
 62
7
  6
CONTINUOUS
 10
220.1205734712
 20
84.4551275601
  0
VERTEX
  8
0
 62
7
  6
CONTINUOUS
 10
220.8357896064
 20
84.4569967896
  0
VERTEX
  8
0
 62
7
  6
CONTINUOUS
 10
221.5330284431
 20
84.458936762
  0
VERTEX
  8
0
 62
7
  6
CONTINUOUS
 10
222.2104003656
 20
84.4609379173
  0
VERTEX
  8
0
 62
7
  6
CONTINUOUS
 10
222.8700031932
 20
84.4629970405
  0
VERTEX
  8
0
 62
7
  6
CONTINUOUS
 10
223.5127327283
 20
84.4651156969
  0
VERTEX
  8
0
 62
7
  6
CONTINUOUS
 10
224.1403093848
 20
84.4672892928
  0
VERTEX
  8
0
 62
7
  6
CONTINUOUS
 10
224.7543699126
 20
84.4695228226
  0
VERTEX
  8
0
 62
7
  6
CONTINUOUS
 10
225.3560658352
 20
84.4718120353
  0
VERTEX
  8
0
 62
7
  6
CONTINUOUS
 10
225.9469275333
 20
84.4741618646
  0
VERTEX
  8
0
 62
7
  6
CONTINUOUS
 10
226.5274589077
 20
84.4765678181
  0
VERTEX
  8
0
 62
7
  6
CONTINUOUS
 10
227.0984548948
 20
84.4790314793
  0
VERTEX
  8
0
 62
7
  6
CONTINUOUS
 10
227.6605750605
 20
84.4815506765
  0
VERTEX
  8
0
 62
7
  6
CONTINUOUS
 10
228.2145346935
 20
84.4841279804
  0
VERTEX
  8
0
 62
7
  6
CONTINUOUS
 10
228.7609639644
 20
84.4867624227
  0
VERTEX
  8
0
 62
7
  6
CONTINUOUS
 10
229.3005828534
 20
84.4894568729
  0
VERTEX
  8
0
 62
7
  6
CONTINUOUS
 10
229.8338388458
 20
84.4922102764
  0
VERTEX
  8
0
 62
7
  6
CONTINUOUS
 10
230.3612623668
 20
84.4950246173
  0
VERTEX
  8
0
 62
7
  6
CONTINUOUS
 10
230.8833258228
 20
84.4978996938
  0
VERTEX
  8
0
 62
7
  6
CONTINUOUS
 10
231.4005249801
 20
84.500837732
  0
VERTEX
  8
0
 62
7
  6
CONTINUOUS
 10
231.9133213294
 20
84.5038389877
  0
VERTEX
  8
0
 62
7
  6
CONTINUOUS
 10
232.4222785545
 20
84.5069064494
  0
VERTEX
  8
0
 62
7
  6
CONTINUOUS
 10
232.9275869235
 20
84.5100393914
  0
VERTEX
  8
0
 62
7
  6
CONTINUOUS
 10
233.4295901177
 20
84.5132393748
  0
VERTEX
  8
0
 62
7
  6
CONTINUOUS
 10
233.9283922203
 20
84.5165056328
  0
VERTEX
  8
0
 62
7
  6
CONTINUOUS
 10
234.4241570127
 20
84.5198386199
  0
VERTEX
  8
0
 62
7
  6
CONTINUOUS
 10
234.9170494433
 20
84.5232379882
  0
VERTEX
  8
0
 62
7
  6
CONTINUOUS
 10
235.4072323815
 20
84.5267041886
  0
VERTEX
  8
0
 62
7
  6
CONTINUOUS
 10
235.8948762068
 20
84.5302370281
  0
VERTEX
  8
0
 62
7
  6
CONTINUOUS
 10
236.3801473109
 20
84.533837032
  0
VERTEX
  8
0
 62
7
  6
CONTINUOUS
 10
236.8632208943
 20
84.5375042781
  0
VERTEX
  8
0
 62
7
  6
CONTINUOUS
 10
237.3442700219
 20
84.5412395402
  0
VERTEX
  8
0
 62
7
  6
CONTINUOUS
 10
237.8234678684
 20
84.5450430803
  0
VERTEX
  8
0
 62
7
  6
CONTINUOUS
 10
238.3009890082
 20
84.5489158959
  0
VERTEX
  8
0
 62
7
  6
CONTINUOUS
 10
238.7770026824
 20
84.552858377
  0
VERTEX
  8
0
 62
7
  6
CONTINUOUS
 10
239.2516991692
 20
84.5568718826
  0
VERTEX
  8
0
 62
7
  6
CONTINUOUS
 10
239.725190302
 20
84.560956301
  0
VERTEX
  8
0
 62
7
  6
CONTINUOUS
 10
240.1976246643
 20
84.5651124996
  0
VERTEX
  8
0
 62
7
  6
CONTINUOUS
 10
240.6690825669
 20
84.5693402763
  0
VERTEX
  8
0
 62
7
  6
CONTINUOUS
 10
241.1396621649
 20
84.5736400332
  0
VERTEX
  8
0
 62
7
  6
CONTINUOUS
 10
241.6094587528
 20
84.5780120132
  0
VERTEX
  8
0
 62
7
  6
CONTINUOUS
 10
242.0785685461
 20
84.5824569712
  0
VERTEX
  8
0
 62
7
  6
CONTINUOUS
 10
242.547087267
 20
84.5869753793
  0
VERTEX
  8
0
 62
7
  6
CONTINUOUS
 10
243.0151103731
 20
84.5915681074
  0
VERTEX
  8
0
 62
7
  6
CONTINUOUS
 10
243.4827350863
 20
84.596235747
  0
VERTEX
  8
0
 62
7
  6
CONTINUOUS
 10
243.9500573908
 20
84.6009793321
  0
VERTEX
  8
0
 62
7
  6
CONTINUOUS
 10
244.4171766748
 20
84.6057994608
  0
VERTEX
  8
0
 62
7
  6
CONTINUOUS
 10
244.8841904708
 20
84.610697253
  0
VERTEX
  8
0
 62
7
  6
CONTINUOUS
 10
245.3512005551
 20
84.6156732719
  0
VERTEX
  8
0
 62
7
  6
CONTINUOUS
 10
245.8183083413
 20
84.620728599
  0
VERTEX
  8
0
 62
7
  6
CONTINUOUS
 10
246.2856126855
 20
84.6258639424
  0
VERTEX
  8
0
 62
7
  6
CONTINUOUS
 10
246.7532165529
 20
84.63108051
  0
VERTEX
  8
0
 62
7
  6
CONTINUOUS
 10
247.2212092677
 20
84.6363790383
  0
VERTEX
  8
0
 62
7
  6
CONTINUOUS
 10
247.689684632
 20
84.6417607693
  0
VERTEX
  8
0
 62
7
  6
CONTINUOUS
 10
248.1587324053
 20
84.6472264987
  0
VERTEX
  8
0
 62
7
  6
CONTINUOUS
 10
248.6284427357
 20
84.6527775628
  0
VERTEX
  8
0
 62
7
  6
CONTINUOUS
 10
249.0989084873
 20
84.658414692
  0
VERTEX
  8
0
 62
7
  6
CONTINUOUS
 10
249.5702191305
 20
84.6641391344
  0
VERTEX
  8
0
 62
7
  6
CONTINUOUS
 10
250.0424752316
 20
84.6699518309
  0
VERTEX
  8
0
 62
7
  6
CONTINUOUS
 10
250.5157685482
 20
84.6758541436
  0
VERTEX
  8
0
 62
7
  6
CONTINUOUS
 10
250.9902152356
 20
84.6818473161
  0
VERTEX
  8
0
 62
7
  6
CONTINUOUS
 10
251.46592461
 20
84.6879330984
  0
VERTEX
  8
0
 62
7
  6
CONTINUOUS
 10
251.9430092448
 20
84.6941127816
  0
VERTEX
  8
0
 62
7
  6
CONTINUOUS
 10
252.4215799911
 20
84.7003883078
  0
VERTEX
  8
0
 62
7
  6
CONTINUOUS
 10
252.901751645
 20
84.7067609908
  0
VERTEX
  8
0
 62
7
  6
CONTINUOUS
 10
253.3836292929
 20
84.7132327416
  0
VERTEX
  8
0
 62
7
  6
CONTINUOUS
 10
253.8673532425
 20
84.7198053051
  0
VERTEX
  8
0
 62
7
  6
CONTINUOUS
 10
254.3530482811
 20
84.7264810249
  0
VERTEX
  8
0
 62
7
  6
CONTINUOUS
 10
254.8408664425
 20
84.733261896
  0
VERTEX
  8
0
 62
7
  6
CONTINUOUS
 10
255.3309524354
 20
84.7401508307
  0
VERTEX
  8
0
 62
7
  6
CONTINUOUS
 10
255.8234534621
 20
84.7471495536
  0
VERTEX
  8
0
 62
7
  6
CONTINUOUS
 10
256.3185074602
 20
84.7542607998
  0
VERTEX
  8
0
 62
7
  6
CONTINUOUS
 10
256.8162873944
 20
84.7614866902
  0
VERTEX
  8
0
 62
7
  6
CONTINUOUS
 10
257.3169351772
 20
84.7688300837
  0
VERTEX
  8
0
 62
7
  6
CONTINUOUS
 10
257.8206824329
 20
84.7762940768
  0
VERTEX
  8
0
 62
7
  6
CONTINUOUS
 10
258.3277352688
 20
84.7838828041
  0
VERTEX
  8
0
 62
7
  6
CONTINUOUS
 10
258.8383128308
 20
84.7915993293
  0
VERTEX
  8
0
 62
7
  6
CONTINUOUS
 10
259.3526279679
 20
84.7994481781
  0
VERTEX
  8
0
 62
7
  6
CONTINUOUS
 10
259.8709064148
 20
84.8074326803
  0
VERTEX
  8
0
 62
7
  6
CONTINUOUS
 10
260.3933501443
 20
84.8155575158
  0
VERTEX
  8
0
 62
7
  6
CONTINUOUS
 10
260.9202440863
 20
84.8238270297
  0
VERTEX
  8
0
 62
7
  6
CONTINUOUS
 10
261.4518455466
 20
84.8322472631
  0
VERTEX
  8
0
 62
7
  6
CONTINUOUS
 10
261.9884403384
 20
84.8408225176
  0
VERTEX
  8
0
 62
7
  6
CONTINUOUS
 10
262.5303074109
 20
84.8495595524
  0
VERTEX
  8
0
 62
7
  6
CONTINUOUS
 10
263.0777257353
 20
84.8584622561
  0
VERTEX
  8
0
 62
7
  6
CONTINUOUS
 10
263.6309752229
 20
84.8675372539
  0
VERTEX
  8
0
 62
7
  6
CONTINUOUS
 10
264.1903331444
 20
84.876788653
  0
VERTEX
  8
0
 62
7
  6
CONTINUOUS
 10
264.7560785226
 20
84.8862232943
  0
VERTEX
  8
0
 62
7
  6
CONTINUOUS
 10
265.3284872282
 20
84.8958455145
  0
VERTEX
  8
0
 62
7
  6
CONTINUOUS
 10
265.9079730418
 20
84.9056568867
  0
VERTEX
  8
0
 62
7
  6
CONTINUOUS
 10
266.4944025512
 20
84.9156788442
  0
SEQEND
  0
LINE
  8
0
 62
7
  6
CONTINUOUS
 10
171.6673392147
 20
84.4423605117
 11
173.0795244457
 21
84.4442755965
  0
POLYLINE
  8
0
 62
7
  6
CONTINUOUS
 66
1
 70
0
  0
VERTEX
  8
0
 62
7
  6
CONTINUOUS
 10
210.5191360786
 20
84.4390063447
  0
VERTEX
  8
0
 62
7
  6
CONTINUOUS
 10
211.0477039527
 20
84.4395776199
  0
VERTEX
  8
0
 62
7
  6
CONTINUOUS
 10
212.1736428107
 20
84.4408943663
  0
SEQEND
  0
POLYLINE
  8
0
 62
7
  6
CONTINUOUS
 66
1
 70
0
  0
VERTEX
  8
0
 62
7
  6
CONTINUOUS
 10
169.8179624841
 20
84.4401494428
  0
VERTEX
  8
0
 62
7
  6
CONTINUOUS
 10
170.2773311998
 20
84.4406676656
  0
VERTEX
  8
0
 62
7
  6
CONTINUOUS
 10
171.6673392147
 20
84.4423605117
  0
SEQEND
  0
POLYLINE
  8
0
 62
7
  6
CONTINUOUS
 66
1
 70
0
  0
VERTEX
  8
0
 62
7
  6
CONTINUOUS
 10
209.0262011198
 20
84.4375639964
  0
VERTEX
  8
0
 62
7
  6
CONTINUOUS
 10
209.5110092543
 20
84.4380059923
  0
VERTEX
  8
0
 62
7
  6
CONTINUOUS
 10
210.5191360786
 20
84.4390063447
  0
SEQEND
  0
POLYLINE
  8
0
 62
7
  6
CONTINUOUS
 66
1
 70
0
  0
VERTEX
  8
0
 62
7
  6
CONTINUOUS
 10
167.5432726357
 20
84.4378781628
  0
VERTEX
  8
0
 62
7
  6
CONTINUOUS
 10
167.9956214629
 20
84.4382911723
  0
VERTEX
  8
0
 62
7
  6
CONTINUOUS
 10
168.4491807082
 20
84.4387243576
  0
VERTEX
  8
0
 62
7
  6
CONTINUOUS
 10
169.8179624841
 20
84.4401494428
  0
SEQEND
  0
POLYLINE
  8
0
 62
7
  6
CONTINUOUS
 66
1
 70
0
  0
VERTEX
  8
0
 62
7
  6
CONTINUOUS
 10
207.1603761487
 20
84.4360769905
  0
VERTEX
  8
0
 62
7
  6
CONTINUOUS
 10
207.620572766
 20
84.4364109609
  0
VERTEX
  8
0
 62
7
  6
CONTINUOUS
 10
208.0833270885
 20
84.4367697536
  0
VERTEX
  8
0
 62
7
  6
CONTINUOUS
 10
209.0262011198
 20
84.4375639964
  0
SEQEND
  0
POLYLINE
  8
0
 62
7
  6
CONTINUOUS
 66
1
 70
0
  0
VERTEX
  8
0
 62
7
  6
CONTINUOUS
 10
165.7442090461
 20
84.4364210223
  0
VERTEX
  8
0
 62
7
  6
CONTINUOUS
 10
166.1926363774
 20
84.4367569199
  0
VERTEX
  8
0
 62
7
  6
CONTINUOUS
 10
167.5432726357
 20
84.4378781628
  0
SEQEND
  0
POLYLINE
  8
0
 62
7
  6
CONTINUOUS
 66
1
 70
0
  0
VERTEX
  8
0
 62
7
  6
CONTINUOUS
 10
205.3072265991
 20
84.4349287492
  0
VERTEX
  8
0
 62
7
  6
CONTINUOUS
 10
205.7748441565
 20
84.435188357
  0
VERTEX
  8
0
 62
7
  6
CONTINUOUS
 10
206.2389654011
 20
84.4354661631
  0
VERTEX
  8
0
 62
7
  6
CONTINUOUS
 10
207.1603761487
 20
84.4360769905
  0
SEQEND
  0
POLYLINE
  8
0
 62
7
  6
CONTINUOUS
 66
1
 70
0
  0
VERTEX
  8
0
 62
7
  6
CONTINUOUS
 10
163.5093849903
 20
84.4350101364
  0
VERTEX
  8
0
 62
7
  6
CONTINUOUS
 10
163.9558479652
 20
84.4352574359
  0
VERTEX
  8
0
 62
7
  6
CONTINUOUS
 10
164.4024151547
 20
84.4355219972
  0
VERTEX
  8
0
 62
7
  6
CONTINUOUS
 10
165.7442090461
 20
84.4364210223
  0
SEQEND
  0
POLYLINE
  8
0
 62
7
  6
CONTINUOUS
 66
1
 70
0
  0
VERTEX
  8
0
 62
7
  6
CONTINUOUS
 10
202.9314028122
 20
84.4339111298
  0
VERTEX
  8
0
 62
7
  6
CONTINUOUS
 10
203.4072232946
 20
84.4340744073
  0
VERTEX
  8
0
 62
7
  6
CONTINUOUS
 10
203.8846069131
 20
84.4342597649
  0
VERTEX
  8
0
 62
7
  6
CONTINUOUS
 10
204.3614126692
 20
84.4344631686
  0
VERTEX
  8
0
 62
7
  6
CONTINUOUS
 10
205.3072265991
 20
84.4349287492
  0
SEQEND
  0
POLYLINE
  8
0
 62
7
  6
CONTINUOUS
 66
1
 70
0
  0
VERTEX
  8
0
 62
7
  6
CONTINUOUS
 10
161.7235827631
 20
84.4341895682
  0
VERTEX
  8
0
 62
7
  6
CONTINUOUS
 10
162.1701372479
 20
84.4343696756
  0
VERTEX
  8
0
 62
7
  6
CONTINUOUS
 10
163.5093849903
 20
84.4350101364
  0
SEQEND
  0
POLYLINE
  8
0
 62
7
  6
CONTINUOUS
 66
1
 70
0
  0
VERTEX
  8
0
 62
7
  6
CONTINUOUS
 10
201.0683677342
 20
84.4334529492
  0
VERTEX
  8
0
 62
7
  6
CONTINUOUS
 10
201.5285958124
 20
84.4335393247
  0
VERTEX
  8
0
 62
7
  6
CONTINUOUS
 10
201.9921347062
 20
84.4336436549
  0
VERTEX
  8
0
 62
7
  6
CONTINUOUS
 10
202.9314028122
 20
84.4339111298
  0
SEQEND
  0
POLYLINE
  8
0
 62
7
  6
CONTINUOUS
 66
1
 70
0
  0
VERTEX
  8
0
 62
7
  6
CONTINUOUS
 10
159.4877292262
 20
84.4335335226
  0
VERTEX
  8
0
 62
7
  6
CONTINUOUS
 10
159.9354243609
 20
84.4336323449
  0
VERTEX
  8
0
 62
7
  6
CONTINUOUS
 10
160.3828289234
 20
84.4337473448
  0
VERTEX
  8
0
 62
7
  6
CONTINUOUS
 10
161.7235827631
 20
84.4341895682
  0
SEQEND
  0
POLYLINE
  8
0
 62
7
  6
CONTINUOUS
 66
1
 70
0
  0
VERTEX
  8
0
 62
7
  6
CONTINUOUS
 10
198.7985547846
 20
84.433284524
  0
VERTEX
  8
0
 62
7
  6
CONTINUOUS
 10
199.2496661333
 20
84.43328415
  0
VERTEX
  8
0
 62
7
  6
CONTINUOUS
 10
199.7019064446
 20
84.4333007831
  0
VERTEX
  8
0
 62
7
  6
CONTINUOUS
 10
200.1555871875
 20
84.4333341325
  0
VERTEX
  8
0
 62
7
  6
CONTINUOUS
 10
201.0683677342
 20
84.4334529492
  0
SEQEND
  0
POLYLINE
  8
0
 62
7
  6
CONTINUOUS
 66
1
 70
0
  0
VERTEX
  8
0
 62
7
  6
CONTINUOUS
 10
157.2431786573
 20
84.433284524
  0
VERTEX
  8
0
 62
7
  6
CONTINUOUS
 10
157.6932688044
 20
84.4333013594
  0
VERTEX
  8
0
 62
7
  6
CONTINUOUS
 10
158.1426099648
 20
84.4333348868
  0
VERTEX
  8
0
 62
7
  6
CONTINUOUS
 10
159.4877292262
 20
84.4335335226
  0
SEQEND
  0
POLYLINE
  8
0
 62
7
  6
CONTINUOUS
 66
1
 70
0
  0
VERTEX
  8
0
 62
7
  6
CONTINUOUS
 10
155.4311064425
 20
84.4333850192
  0
VERTEX
  8
0
 62
7
  6
CONTINUOUS
 10
155.8863203382
 20
84.4333341321
  0
VERTEX
  8
0
 62
7
  6
CONTINUOUS
 10
157.2431786573
 20
84.433284524
  0
SEQEND
  0
POLYLINE
  8
0
 62
7
  6
CONTINUOUS
 66
1
 70
0
  0
VERTEX
  8
0
 62
7
  6
CONTINUOUS
 10
196.5537424052
 20
84.4335335193
  0
VERTEX
  8
0
 62
7
  6
CONTINUOUS
 10
197.001792592
 20
84.4334509798
  0
VERTEX
  8
0
 62
7
  6
CONTINUOUS
 10
197.4502174155
 20
84.4333846962
  0
VERTEX
  8
0
 62
7
  6
CONTINUOUS
 10
197.8990146311
 20
84.4333348854
  0
VERTEX
  8
0
 62
7
  6
CONTINUOUS
 10
198.7985547846
 20
84.433284524
  0
SEQEND
  0
POLYLINE
  8
0
 62
7
  6
CONTINUOUS
 66
1
 70
0
  0
VERTEX
  8
0
 62
7
  6
CONTINUOUS
 10
153.1108991872
 20
84.4339111249
  0
VERTEX
  8
0
 62
7
  6
CONTINUOUS
 10
153.5823022501
 20
84.433767439
  0
VERTEX
  8
0
 62
7
  6
CONTINUOUS
 10
154.0500277429
 20
84.4336436533
  0
VERTEX
  8
0
 62
7
  6
CONTINUOUS
 10
155.4311064425
 20
84.4333850192
  0
SEQEND
  0
POLYLINE
  8
0
 62
7
  6
CONTINUOUS
 66
1
 70
0
  0
VERTEX
  8
0
 62
7
  6
CONTINUOUS
 10
194.7644079456
 20
84.43402586
  0
VERTEX
  8
0
 62
7
  6
CONTINUOUS
 10
195.2113619768
 20
84.4338785053
  0
VERTEX
  8
0
 62
7
  6
CONTINUOUS
 10
195.6585474915
 20
84.4337473403
  0
VERTEX
  8
0
 62
7
  6
CONTINUOUS
 10
196.5537424052
 20
84.4335335193
  0
SEQEND
  0
POLYLINE
  8
0
 62
7
  6
CONTINUOUS
 66
1
 70
0
  0
VERTEX
  8
0
 62
7
  6
CONTINUOUS
 10
151.2062271482
 20
84.4346872545
  0
VERTEX
  8
0
 62
7
  6
CONTINUOUS
 10
151.6811135674
 20
84.4344631578
  0
VERTEX
  8
0
 62
7
  6
CONTINUOUS
 10
153.1108991872
 20
84.4339111249
  0
SEQEND
  0
POLYLINE
  8
0
 62
7
  6
CONTINUOUS
 66
1
 70
0
  0
VERTEX
  8
0
 62
7
  6
CONTINUOUS
 10
192.5317004604
 20
84.4350101265
  0
VERTEX
  8
0
 62
7
  6
CONTINUOUS
 10
192.9781329924
 20
84.4347798047
  0
VERTEX
  8
0
 62
7
  6
CONTINUOUS
 10
193.4245733108
 20
84.4345663964
  0
VERTEX
  8
0
 62
7
  6
CONTINUOUS
 10
193.8710649964
 20
84.4343696669
  0
VERTEX
  8
0
 62
7
  6
CONTINUOUS
 10
194.7644079456
 20
84.43402586
  0
SEQEND
  0
POLYLINE
  8
0
 62
7
  6
CONTINUOUS
 66
1
 70
0
  0
VERTEX
  8
0
 62
7
  6
CONTINUOUS
 10
149.3421687739
 20
84.4357616097
  0
VERTEX
  8
0
 62
7
  6
CONTINUOUS
 10
149.8038769914
 20
84.4354661474
  0
VERTEX
  8
0
 62
7
  6
CONTINUOUS
 10
151.2062271482
 20
84.4346872545
  0
SEQEND
  0
POLYLINE
  8
0
 62
7
  6
CONTINUOUS
 66
1
 70
0
  0
VERTEX
  8
0
 62
7
  6
CONTINUOUS
 10
190.7444859754
 20
84.4361035094
  0
VERTEX
  8
0
 62
7
  6
CONTINUOUS
 10
191.191734207
 20
84.4358038736
  0
VERTEX
  8
0
 62
7
  6
CONTINUOUS
 10
191.6385986581
 20
84.4355219876
  0
VERTEX
  8
0
 62
7
  6
CONTINUOUS
 10
192.5317004604
 20
84.4350101265
  0
SEQEND
  0
POLYLINE
  8
0
 62
7
  6
CONTINUOUS
 66
1
 70
0
  0
VERTEX
  8
0
 62
7
  6
CONTINUOUS
 10
147.4921736508
 20
84.4371514773
  0
VERTEX
  8
0
 62
7
  6
CONTINUOUS
 10
147.9598506015
 20
84.4367697322
  0
VERTEX
  8
0
 62
7
  6
CONTINUOUS
 10
149.3421687739
 20
84.4357616097
  0
SEQEND
  0
POLYLINE
  8
0
 62
7
  6
CONTINUOUS
 66
1
 70
0
  0
VERTEX
  8
0
 62
7
  6
CONTINUOUS
 10
188.497526076
 20
84.4378781496
  0
VERTEX
  8
0
 62
7
  6
CONTINUOUS
 10
188.9487710335
 20
84.4374850735
  0
VERTEX
  8
0
 62
7
  6
CONTINUOUS
 10
189.39898602
 20
84.4371113939
  0
VERTEX
  8
0
 62
7
  6
CONTINUOUS
 10
189.8482480439
 20
84.4367569088
  0
VERTEX
  8
0
 62
7
  6
CONTINUOUS
 10
190.7444859754
 20
84.4361035094
  0
SEQEND
  0
LINE
  8
0
 62
7
  6
CONTINUOUS
 10
146.0359106058
 20
84.4384869456
 11
147.4921736508
 21
84.4371514773
  0
POLYLINE
  8
0
 62
7
  6
CONTINUOUS
 66
1
 70
0
  0
VERTEX
  8
0
 62
7
  6
CONTINUOUS
 10
186.6804325246
 20
84.4396530684
  0
VERTEX
  8
0
 62
7
  6
CONTINUOUS
 10
187.1366960519
 20
84.4391782233
  0
VERTEX
  8
0
 62
7
  6
CONTINUOUS
 10
187.5915663916
 20
84.4387243448
  0
VERTEX
  8
0
 62
7
  6
CONTINUOUS
 10
188.497526076
 20
84.4378781496
  0
SEQEND
  0
POLYLINE
  8
0
 62
7
  6
CONTINUOUS
 66
1
 70
0
  0
VERTEX
  8
0
 62
7
  6
CONTINUOUS
 10
184.8388117823
 20
84.4417724771
  0
VERTEX
  8
0
 62
7
  6
CONTINUOUS
 10
185.3020976891
 20
84.4412085276
  0
VERTEX
  8
0
 62
7
  6
CONTINUOUS
 10
185.7633274763
 20
84.4406676559
  0
VERTEX
  8
0
 62
7
  6
CONTINUOUS
 10
186.6804325246
 20
84.4396530684
  0
SEQEND
  0
POLYLINE
  8
0
 62
7
  6
CONTINUOUS
 66
1
 70
0
  0
VERTEX
  8
0
 62
7
  6
CONTINUOUS
 10
183.4345880791
 20
84.4436112549
  0
VERTEX
  8
0
 62
7
  6
CONTINUOUS
 10
183.9052580616
 20
84.4429730665
  0
VERTEX
  8
0
 62
7
  6
CONTINUOUS
 10
184.8388117823
 20
84.4417724771
  0
SEQEND
  0
POLYLINE
  8
0
 62
7
  6
CONTINUOUS
 66
1
 70
0
  0
VERTEX
  8
0
 62
7
  6
CONTINUOUS
 10
181.5209844851
 20
84.4464355313
  0
VERTEX
  8
0
 62
7
  6
CONTINUOUS
 10
182.0044524524
 20
84.4456867521
  0
VERTEX
  8
0
 62
7
  6
CONTINUOUS
 10
182.4843989412
 20
84.4449671981
  0
VERTEX
  8
0
 62
7
  6
CONTINUOUS
 10
183.4345880791
 20
84.4436112549
  0
SEQEND
  0
LINE
  8
0
 62
7
  6
CONTINUOUS
 10
180.5426314703
 20
84.448024327
 11
181.5209844851
 21
84.4464355313
  0
LINE
  8
0
 62
7
  6
CONTINUOUS
 10
179.5476294345
 20
84.4497421769
 11
180.5426314703
 21
84.448024327
  0
POLYLINE
  8
0
 62
7
  6
CONTINUOUS
 66
1
 70
0
  0
VERTEX
  8
0
 62
7
  6
CONTINUOUS
 10
178.0201677485
 20
84.4525808361
  0
VERTEX
  8
0
 62
7
  6
CONTINUOUS
 10
178.5341603312
 20
84.4515969296
  0
VERTEX
  8
0
 62
7
  6
CONTINUOUS
 10
179.5476294345
 20
84.4497421769
  0
SEQEND
  0
POLYLINE
  8
0
 62
7
  6
CONTINUOUS
 66
1
 70
0
  0
VERTEX
  8
0
 62
7
  6
CONTINUOUS
 10
89.5721261599
 20
84.9156974281
  0
VERTEX
  8
0
 62
7
  6
CONTINUOUS
 10
90.1588472483
 20
84.9056629808
  0
VERTEX
  8
0
 62
7
  6
CONTINUOUS
 10
90.7383649159
 20
84.8958444467
  0
VERTEX
  8
0
 62
7
  6
CONTINUOUS
 10
91.3104801406
 20
84.8862208337
  0
VERTEX
  8
0
 62
7
  6
CONTINUOUS
 10
91.8758034965
 20
84.8767869413
  0
VERTEX
  8
0
 62
7
  6
CONTINUOUS
 10
92.4348074348
 20
84.8675353551
  0
VERTEX
  8
0
 62
7
  6
CONTINUOUS
 10
92.9877056136
 20
84.8584602484
  0
VERTEX
  8
0
 62
7
  6
CONTINUOUS
 10
93.5347754349
 20
84.8495575085
  0
VERTEX
  8
0
 62
7
  6
CONTINUOUS
 10
94.0762969456
 20
84.8408205009
  0
VERTEX
  8
0
 62
7
  6
CONTINUOUS
 10
94.612549223
 20
84.8322453337
  0
VERTEX
  8
0
 62
7
  6
CONTINUOUS
 10
95.1438114752
 20
84.8238252323
  0
VERTEX
  8
0
 62
7
  6
CONTINUOUS
 10
95.6703697068
 20
84.8155558859
  0
VERTEX
  8
0
 62
7
  6
CONTINUOUS
 10
96.1924815694
 20
84.8074312392
  0
VERTEX
  8
0
 62
7
  6
CONTINUOUS
 10
96.7104322255
 20
84.7994469378
  0
VERTEX
  8
0
 62
7
  6
CONTINUOUS
 10
97.2244242115
 20
84.7915982876
  0
VERTEX
  8
0
 62
7
  6
CONTINUOUS
 10
97.7346837393
 20
84.783881949
  0
VERTEX
  8
0
 62
7
  6
CONTINUOUS
 10
98.241424175
 20
84.7762933849
  0
VERTEX
  8
0
 62
7
  6
CONTINUOUS
 10
98.7448652484
 20
84.7688295223
  0
VERTEX
  8
0
 62
7
  6
CONTINUOUS
 10
99.2452133684
 20
84.7614862206
  0
VERTEX
  8
0
 62
7
  6
CONTINUOUS
 10
99.7427009391
 20
84.7542603721
  0
VERTEX
  8
0
 62
7
  6
CONTINUOUS
 10
100.2374690461
 20
84.7471491316
  0
VERTEX
  8
0
 62
7
  6
CONTINUOUS
 10
100.7296903747
 20
84.7401503828
  0
VERTEX
  8
0
 62
7
  6
CONTINUOUS
 10
101.2195020197
 20
84.7332614034
  0
VERTEX
  8
0
 62
7
  6
CONTINUOUS
 10
101.7070504631
 20
84.7264804782
  0
VERTEX
  8
0
 62
7
  6
CONTINUOUS
 10
102.1924797866
 20
84.7198047013
  0
VERTEX
  8
0
 62
7
  6
CONTINUOUS
 10
102.6759412678
 20
84.7132320836
  0
VERTEX
  8
0
 62
7
  6
CONTINUOUS
 10
103.157559379
 20
84.7067602853
  0
VERTEX
  8
0
 62
7
  6
CONTINUOUS
 10
103.6374738627
 20
84.7003875662
  0
VERTEX
  8
0
 62
7
  6
CONTINUOUS
 10
104.1157898133
 20
84.694112014
  0
VERTEX
  8
0
 62
7
  6
CONTINUOUS
 10
104.5926218799
 20
84.6879323157
  0
VERTEX
  8
0
 62
7
  6
CONTINUOUS
 10
105.0680808241
 20
84.6818465275
  0
VERTEX
  8
0
 62
7
  6
CONTINUOUS
 10
105.5422791122
 20
84.6758533567
  0
VERTEX
  8
0
 62
7
  6
CONTINUOUS
 10
106.0153259784
 20
84.6699510534
  0
VERTEX
  8
0
 62
7
  6
CONTINUOUS
 10
106.4873374235
 20
84.6641383736
  0
VERTEX
  8
0
 62
7
  6
CONTINUOUS
 10
106.9584053272
 20
84.6584139538
  0
VERTEX
  8
0
 62
7
  6
CONTINUOUS
 10
107.4286302787
 20
84.6527768525
  0
VERTEX
  8
0
 62
7
  6
CONTINUOUS
 10
107.8981018998
 20
84.6472258195
  0
VERTEX
  8
0
 62
7
  6
CONTINUOUS
 10
108.3669131629
 20
84.6417601245
  0
VERTEX
  8
0
 62
7
  6
CONTINUOUS
 10
108.8351543751
 20
84.6363784266
  0
VERTEX
  8
0
 62
7
  6
CONTINUOUS
 10
109.3029154831
 20
84.6310799266
  0
VERTEX
  8
0
 62
7
  6
CONTINUOUS
 10
109.7702903189
 20
84.6258633811
  0
VERTEX
  8
0
 62
7
  6
CONTINUOUS
 10
110.2373684023
 20
84.6207280504
  0
VERTEX
  8
0
 62
7
  6
CONTINUOUS
 10
110.7042523978
 20
84.6156727306
  0
VERTEX
  8
0
 62
7
  6
CONTINUOUS
 10
111.1710410131
 20
84.6106967148
  0
VERTEX
  8
0
 62
7
  6
CONTINUOUS
 10
111.6378354098
 20
84.6057989258
  0
VERTEX
  8
0
 62
7
  6
CONTINUOUS
 10
112.1047371305
 20
84.600978804
  0
VERTEX
  8
0
 62
7
  6
CONTINUOUS
 10
112.5718435134
 20
84.5962352293
  0
VERTEX
  8
0
 62
7
  6
CONTINUOUS
 10
113.0392536932
 20
84.5915676047
  0
VERTEX
  8
0
 62
7
  6
CONTINUOUS
 10
113.5070636064
 20
84.5869748943
  0
VERTEX
  8
0
 62
7
  6
CONTINUOUS
 10
113.9753702966
 20
84.5824565057
  0
VERTEX
  8
0
 62
7
  6
CONTINUOUS
 10
114.4442693681
 20
84.578011567
  0
VERTEX
  8
0
 62
7
  6
CONTINUOUS
 10
114.9138566052
 20
84.573639604
  0
VERTEX
  8
0
 62
7
  6
CONTINUOUS
 10
115.3842283074
 20
84.5693398619
  0
VERTEX
  8
0
 62
7
  6
CONTINUOUS
 10
115.8554798554
 20
84.5651120965
  0
VERTEX
  8
0
 62
7
  6
CONTINUOUS
 10
116.3277094725
 20
84.560955907
  0
VERTEX
  8
0
 62
7
  6
CONTINUOUS
 10
116.8009975983
 20
84.5568714963
  0
VERTEX
  8
0
 62
7
  6
CONTINUOUS
 10
117.2754927295
 20
84.552857998
  0
VERTEX
  8
0
 62
7
  6
CONTINUOUS
 10
117.7513067287
 20
84.5489155257
  0
VERTEX
  8
0
 62
7
  6
CONTINUOUS
 10
118.2286296642
 20
84.545042719
  0
VERTEX
  8
0
 62
7
  6
CONTINUOUS
 10
118.7076306342
 20
84.5412391865
  0
VERTEX
  8
0
 62
7
  6
CONTINUOUS
 10
119.1884840544
 20
84.5375039308
  0
VERTEX
  8
0
 62
7
  6
CONTINUOUS
 10
119.6713629419
 20
84.5338366892
  0
VERTEX
  8
0
 62
7
  6
CONTINUOUS
 10
120.1564402286
 20
84.530236689
  0
VERTEX
  8
0
 62
7
  6
CONTINUOUS
 10
120.6438909286
 20
84.5267038527
  0
VERTEX
  8
0
 62
7
  6
CONTINUOUS
 10
121.1338814501
 20
84.5232376561
  0
VERTEX
  8
0
 62
7
  6
CONTINUOUS
 10
121.6265821183
 20
84.519838294
  0
VERTEX
  8
0
 62
7
  6
CONTINUOUS
 10
122.1221558428
 20
84.5165053147
  0
VERTEX
  8
0
 62
7
  6
CONTINUOUS
 10
122.6207675884
 20
84.5132390671
  0
VERTEX
  8
0
 62
7
  6
CONTINUOUS
 10
123.1225811674
 20
84.510039095
  0
VERTEX
  8
0
 62
7
  6
CONTINUOUS
 10
123.6277007235
 20
84.5069061636
  0
VERTEX
  8
0
 62
7
  6
CONTINUOUS
 10
124.1364698783
 20
84.5038387125
  0
VERTEX
  8
0
 62
7
  6
CONTINUOUS
 10
124.6490789342
 20
84.5008374676
  0
VERTEX
  8
0
 62
7
  6
CONTINUOUS
 10
125.166091375
 20
84.4978994396
  0
VERTEX
  8
0
 62
7
  6
CONTINUOUS
 10
125.687968563
 20
84.4950243721
  0
VERTEX
  8
0
 62
7
  6
CONTINUOUS
 10
126.2152061232
 20
84.4922100387
  0
VERTEX
  8
0
 62
7
  6
CONTINUOUS
 10
126.7482763319
 20
84.4894566402
  0
VERTEX
  8
0
 62
7
  6
CONTINUOUS
 10
127.2877094946
 20
84.4867621943
  0
VERTEX
  8
0
 62
7
  6
CONTINUOUS
 10
127.8339529997
 20
84.4841277567
  0
VERTEX
  8
0
 62
7
  6
CONTINUOUS
 10
128.3877266736
 20
84.481550458
  0
VERTEX
  8
0
 62
7
  6
CONTINUOUS
 10
128.9496605638
 20
84.4790312666
  0
VERTEX
  8
0
 62
7
  6
CONTINUOUS
 10
129.5204698299
 20
84.4765676116
  0
VERTEX
  8
0
 62
7
  6
CONTINUOUS
 10
130.1008139344
 20
84.4741616642
  0
VERTEX
  8
0
 62
7
  6
CONTINUOUS
 10
130.6914876997
 20
84.4718118415
  0
VERTEX
  8
0
 62
7
  6
CONTINUOUS
 10
131.2929950311
 20
84.4695226364
  0
VERTEX
  8
0
 62
7
  6
CONTINUOUS
 10
131.9068659335
 20
84.4672891141
  0
VERTEX
  8
0
 62
7
  6
CONTINUOUS
 10
132.534251721
 20
84.4651155236
  0
VERTEX
  8
0
 62
7
  6
CONTINUOUS
 10
133.1767887851
 20
84.4629968723
  0
VERTEX
  8
0
 62
7
  6
CONTINUOUS
 10
133.8361972016
 20
84.4609377543
  0
VERTEX
  8
0
 62
7
  6
CONTINUOUS
 10
134.5133726765
 20
84.4589366054
  0
VERTEX
  8
0
 62
7
  6
CONTINUOUS
 10
135.2104125652
 20
84.4569966421
  0
VERTEX
  8
0
 62
7
  6
CONTINUOUS
 10
135.9254281611
 20
84.4551274224
  0
VERTEX
  8
0
 62
7
  6
CONTINUOUS
 10
136.6578991213
 20
84.4533334983
  0
VERTEX
  8
0
 62
7
  6
CONTINUOUS
 10
137.4058194856
 20
84.4516241554
  0
VERTEX
  8
0
 62
7
  6
CONTINUOUS
 10
138.1697223864
 20
84.4499932944
  0
VERTEX
  8
0
 62
7
  6
CONTINUOUS
 10
138.9414745915
 20
84.4484695063
  0
VERTEX
  8
0
 62
7
  6
CONTINUOUS
 10
139.7175600233
 20
84.4470336592
  0
VERTEX
  8
0
 62
7
  6
CONTINUOUS
 10
140.4846787452
 20
84.4457301529
  0
VERTEX
  8
0
 62
7
  6
CONTINUOUS
 10
141.2308327129
 20
84.4445338102
  0
VERTEX
  8
0
 62
7
  6
CONTINUOUS
 10
141.948633249
 20
84.4434676051
  0
VERTEX
  8
0
 62
7
  6
CONTINUOUS
 10
142.6245198658
 20
84.4425149788
  0
VERTEX
  8
0
 62
7
  6
CONTINUOUS
 10
143.2650320596
 20
84.4416579916
  0
VERTEX
  8
0
 62
7
  6
CONTINUOUS
 10
143.8703730499
 20
84.4408943209
  0
VERTEX
  8
0
 62
7
  6
CONTINUOUS
 10
144.4459834053
 20
84.4401997305
  0
VERTEX
  8
0
 62
7
  6
CONTINUOUS
 10
146.0359106058
 20
84.4384869456
  0
SEQEND
  0
POLYLINE
  8
0
 62
7
  6
CONTINUOUS
 66
1
 70
0
  0
VERTEX
  8
0
 62
7
  6
CONTINUOUS
 10
315.6782517668
 20
84.7005810304
  0
VERTEX
  8
0
 62
7
  6
CONTINUOUS
 10
316.5786019589
 20
84.6708653264
  0
VERTEX
  8
0
 62
7
  6
CONTINUOUS
 10
317.4554268774
 20
84.6415293708
  0
VERTEX
  8
0
 62
7
  6
CONTINUOUS
 10
318.3077110992
 20
84.6126900997
  0
VERTEX
  8
0
 62
7
  6
CONTINUOUS
 10
319.1372166561
 20
84.5843397965
  0
VERTEX
  8
0
 62
7
  6
CONTINUOUS
 10
319.9461793137
 20
84.5564727193
  0
VERTEX
  8
0
 62
7
  6
CONTINUOUS
 10
320.7321286038
 20
84.5292097631
  0
VERTEX
  8
0
 62
7
  6
CONTINUOUS
 10
321.5037500458
 20
84.501951006
  0
VERTEX
  8
0
 62
7
  6
CONTINUOUS
 10
322.2310360637
 20
84.4765247171
  0
VERTEX
  8
0
 62
7
  6
CONTINUOUS
 10
322.8864359957
 20
84.4532758752
  0
VERTEX
  8
0
 62
7
  6
CONTINUOUS
 10
323.4873544985
 20
84.4317343724
  0
VERTEX
  8
0
 62
7
  6
CONTINUOUS
 10
324.0380703887
 20
84.4119939124
  0
VERTEX
  8
0
 62
7
  6
CONTINUOUS
 10
325.022704565
 20
84.3763554279
  0
SEQEND
  0
POLYLINE
  8
0
 62
7
  6
CONTINUOUS
 66
1
 70
0
  0
VERTEX
  8
0
 62
7
  6
CONTINUOUS
 10
327.0112258956
 20
84.3042256343
  0
VERTEX
  8
0
 62
7
  6
CONTINUOUS
 10
327.349437496
 20
84.2920594643
  0
VERTEX
  8
0
 62
7
  6
CONTINUOUS
 10
327.6719422317
 20
84.2805033769
  0
VERTEX
  8
0
 62
7
  6
CONTINUOUS
 10
327.9803033297
 20
84.2695440881
  0
VERTEX
  8
0
 62
7
  6
CONTINUOUS
 10
328.2755009687
 20
84.2591304808
  0
VERTEX
  8
0
 62
7
  6
CONTINUOUS
 10
328.5585603243
 20
84.2492574359
  0
VERTEX
  8
0
 62
7
  6
CONTINUOUS
 10
328.8305281936
 20
84.2398760589
  0
VERTEX
  8
0
 62
7
  6
CONTINUOUS
 10
329.0925353759
 20
84.2309734807
  0
VERTEX
  8
0
 62
7
  6
CONTINUOUS
 10
329.3450036676
 20
84.2225308303
  0
VERTEX
  8
0
 62
7
  6
CONTINUOUS
 10
329.5885611483
 20
84.2145432296
  0
VERTEX
  8
0
 62
7
  6
CONTINUOUS
 10
329.8235646929
 20
84.2069974322
  0
VERTEX
  8
0
 62
7
  6
CONTINUOUS
 10
330.0500517459
 20
84.1999063848
  0
VERTEX
  8
0
 62
7
  6
CONTINUOUS
 10
330.2695026981
 20
84.1932150384
  0
VERTEX
  8
0
 62
7
  6
CONTINUOUS
 10
330.483358938
 20
84.1869119623
  0
VERTEX
  8
0
 62
7
  6
CONTINUOUS
 10
330.6912482835
 20
84.1810206566
  0
VERTEX
  8
0
 62
7
  6
CONTINUOUS
 10
330.893087871
 20
84.1755605711
  0
VERTEX
  8
0
 62
7
  6
CONTINUOUS
 10
331.0894810466
 20
84.1705243443
  0
VERTEX
  8
0
 62
7
  6
CONTINUOUS
 10
331.2803892945
 20
84.1659345459
  0
VERTEX
  8
0
 62
7
  6
CONTINUOUS
 10
331.4675476574
 20
84.1617497342
  0
VERTEX
  8
0
 62
7
  6
CONTINUOUS
 10
331.6530544093
 20
84.1579558811
  0
VERTEX
  8
0
 62
7
  6
CONTINUOUS
 10
331.8353517272
 20
84.1546087775
  0
VERTEX
  8
0
 62
7
  6
CONTINUOUS
 10
332.0128181769
 20
84.1517457034
  0
VERTEX
  8
0
 62
7
  6
CONTINUOUS
 10
332.1880250708
 20
84.1493322689
  0
VERTEX
  8
0
 62
7
  6
CONTINUOUS
 10
332.3655915556
 20
84.1473444503
  0
VERTEX
  8
0
 62
7
  6
CONTINUOUS
 10
332.5372644629
 20
84.1459196919
  0
VERTEX
  8
0
 62
7
  6
CONTINUOUS
 10
332.6955130849
 20
84.1450643394
  0
VERTEX
  8
0
 62
7
  6
CONTINUOUS
 10
332.8445120801
 20
84.1446842646
  0
VERTEX
  8
0
 62
7
  6
CONTINUOUS
 10
332.9835346506
 20
84.1447443276
  0
VERTEX
  8
0
 62
7
  6
CONTINUOUS
 10
333.1193010476
 20
84.1451957679
  0
VERTEX
  8
0
 62
7
  6
CONTINUOUS
 10
333.2580236941
 20
84.1460939155
  0
VERTEX
  8
0
 62
7
  6
CONTINUOUS
 10
333.3991621351
 20
84.1474510006
  0
VERTEX
  8
0
 62
7
  6
CONTINUOUS
 10
333.5470404888
 20
84.1494043647
  0
VERTEX
  8
0
 62
7
  6
CONTINUOUS
 10
333.6925101791
 20
84.151840083
  0
VERTEX
  8
0
 62
7
  6
CONTINUOUS
 10
333.8246900437
 20
84.1544960685
  0
VERTEX
  8
0
 62
7
  6
CONTINUOUS
 10
333.95484221
 20
84.1574861224
  0
VERTEX
  8
0
 62
7
  6
CONTINUOUS
 10
334.0899388934
 20
84.1610092546
  0
VERTEX
  8
0
 62
7
  6
CONTINUOUS
 10
334.2300341987
 20
84.1650678969
  0
VERTEX
  8
0
 62
7
  6
CONTINUOUS
 10
334.3775074502
 20
84.169836868
  0
VERTEX
  8
0
 62
7
  6
CONTINUOUS
 10
334.5311782046
 20
84.1753142934
  0
VERTEX
  8
0
 62
7
  6
CONTINUOUS
 10
334.6907088411
 20
84.1815904545
  0
VERTEX
  8
0
 62
7
  6
CONTINUOUS
 10
334.8555967885
 20
84.1886586648
  0
VERTEX
  8
0
 62
7
  6
CONTINUOUS
 10
335.025006108
 20
84.1965996302
  0
VERTEX
  8
0
 62
7
  6
CONTINUOUS
 10
335.1989101295
 20
84.2054264649
  0
VERTEX
  8
0
 62
7
  6
CONTINUOUS
 10
335.3805981915
 20
84.2154018243
  0
VERTEX
  8
0
 62
7
  6
CONTINUOUS
 10
335.5580753302
 20
84.2261828634
  0
VERTEX
  8
0
 62
7
  6
CONTINUOUS
 10
335.7233537634
 20
84.2368874688
  0
VERTEX
  8
0
 62
7
  6
CONTINUOUS
 10
335.8747012279
 20
84.2475162375
  0
VERTEX
  8
0
 62
7
  6
CONTINUOUS
 10
336.0064611482
 20
84.2573586329
  0
VERTEX
  8
0
 62
7
  6
CONTINUOUS
 10
336.1258672705
 20
84.2667398374
  0
VERTEX
  8
0
 62
7
  6
CONTINUOUS
 10
336.235578311
 20
84.2759357621
  0
VERTEX
  8
0
 62
7
  6
CONTINUOUS
 10
336.3407988459
 20
84.2851526741
  0
VERTEX
  8
0
 62
7
  6
CONTINUOUS
 10
336.4490176722
 20
84.2952085669
  0
VERTEX
  8
0
 62
7
  6
CONTINUOUS
 10
336.552318354
 20
84.3055432098
  0
VERTEX
  8
0
 62
7
  6
CONTINUOUS
 10
336.6454857578
 20
84.3154431625
  0
VERTEX
  8
0
 62
7
  6
CONTINUOUS
 10
336.7316049396
 20
84.3251930154
  0
VERTEX
  8
0
 62
7
  6
CONTINUOUS
 10
336.8109837032
 20
84.3348083933
  0
VERTEX
  8
0
 62
7
  6
CONTINUOUS
 10
336.8863159131
 20
84.3444965276
  0
VERTEX
  8
0
 62
7
  6
CONTINUOUS
 10
336.9607147012
 20
84.3547208395
  0
VERTEX
  8
0
 62
7
  6
CONTINUOUS
 10
337.0315841116
 20
84.3651696171
  0
VERTEX
  8
0
 62
7
  6
CONTINUOUS
 10
337.0981126239
 20
84.3756387801
  0
VERTEX
  8
0
 62
7
  6
CONTINUOUS
 10
337.1592828788
 20
84.3859410399
  0
VERTEX
  8
0
 62
7
  6
CONTINUOUS
 10
337.2136876058
 20
84.3956977078
  0
VERTEX
  8
0
 62
7
  6
CONTINUOUS
 10
337.2626804001
 20
84.4050128216
  0
VERTEX
  8
0
 62
7
  6
CONTINUOUS
 10
337.3067939029
 20
84.413900003
  0
VERTEX
  8
0
 62
7
  6
CONTINUOUS
 10
337.3466676982
 20
84.4223634689
  0
VERTEX
  8
0
 62
7
  6
CONTINUOUS
 10
337.3826670553
 20
84.4304053972
  0
VERTEX
  8
0
 62
7
  6
CONTINUOUS
 10
337.4157693708
 20
84.4381468747
  0
VERTEX
  8
0
 62
7
  6
CONTINUOUS
 10
337.4468334042
 20
84.4457499734
  0
VERTEX
  8
0
 62
7
  6
CONTINUOUS
 10
337.476096337
 20
84.4532234692
  0
VERTEX
  8
0
 62
7
  6
CONTINUOUS
 10
337.5034976706
 20
84.4605224512
  0
VERTEX
  8
0
 62
7
  6
CONTINUOUS
 10
337.5305672677
 20
84.468029563
  0
VERTEX
  8
0
 62
7
  6
CONTINUOUS
 10
337.5589563251
 20
84.4762525562
  0
VERTEX
  8
0
 62
7
  6
CONTINUOUS
 10
337.5876092219
 20
84.4849401207
  0
VERTEX
  8
0
 62
7
  6
CONTINUOUS
 10
337.615757925
 20
84.493880844
  0
VERTEX
  8
0
 62
7
  6
CONTINUOUS
 10
337.6443810016
 20
84.5034120534
  0
VERTEX
  8
0
 62
7
  6
CONTINUOUS
 10
337.6741655564
 20
84.5138391807
  0
VERTEX
  8
0
 62
7
  6
CONTINUOUS
 10
337.7048215443
 20
84.5251530006
  0
VERTEX
  8
0
 62
7
  6
CONTINUOUS
 10
337.7362445337
 20
84.5374122274
  0
VERTEX
  8
0
 62
7
  6
CONTINUOUS
 10
337.7684440665
 20
84.5507516546
  0
VERTEX
  8
0
 62
7
  6
CONTINUOUS
 10
337.8013855671
 20
84.5653467918
  0
VERTEX
  8
0
 62
7
  6
CONTINUOUS
 10
337.8346574452
 20
84.5812542945
  0
SEQEND
  0
POLYLINE
  8
0
 62
7
  6
CONTINUOUS
 66
1
 70
0
  0
VERTEX
  8
0
 62
7
  6
CONTINUOUS
 10
325.022704565
 20
84.3763554279
  0
VERTEX
  8
0
 62
7
  6
CONTINUOUS
 10
325.4676040029
 20
84.3601788002
  0
VERTEX
  8
0
 62
7
  6
CONTINUOUS
 10
325.8863404555
 20
84.3449948475
  0
VERTEX
  8
0
 62
7
  6
CONTINUOUS
 10
326.2814241015
 20
84.330637073
  0
VERTEX
  8
0
 62
7
  6
CONTINUOUS
 10
327.0112258956
 20
84.3042256343
  0
SEQEND
  0
POLYLINE
  8
0
 62
7
  6
CONTINUOUS
 66
1
 70
0
  0
VERTEX
  8
0
 62
7
  6
CONTINUOUS
 10
313.6265962936
 20
84.7864239547
  0
VERTEX
  8
0
 62
7
  6
CONTINUOUS
 10
313.7872579888
 20
84.7802630752
  0
VERTEX
  8
0
 62
7
  6
CONTINUOUS
 10
313.9474479619
 20
84.7741693954
  0
VERTEX
  8
0
 62
7
  6
CONTINUOUS
 10
314.1071035665
 20
84.7681479811
  0
VERTEX
  8
0
 62
7
  6
CONTINUOUS
 10
314.266166343
 20
84.7622033941
  0
VERTEX
  8
0
 62
7
  6
CONTINUOUS
 10
314.4245827646
 20
84.7563399637
  0
VERTEX
  8
0
 62
7
  6
CONTINUOUS
 10
314.5822986007
 20
84.7505614201
  0
VERTEX
  8
0
 62
7
  6
CONTINUOUS
 10
314.7392617386
 20
84.7448719652
  0
VERTEX
  8
0
 62
7
  6
CONTINUOUS
 10
314.8954200764
 20
84.7392750496
  0
VERTEX
  8
0
 62
7
  6
CONTINUOUS
 10
315.0507235173
 20
84.7337745351
  0
VERTEX
  8
0
 62
7
  6
CONTINUOUS
 10
315.2051246668
 20
84.7283776488
  0
VERTEX
  8
0
 62
7
  6
CONTINUOUS
 10
315.3585673997
 20
84.7230756665
  0
VERTEX
  8
0
 62
7
  6
CONTINUOUS
 10
315.5109699442
 20
84.7178619201
  0
VERTEX
  8
0
 62
7
  6
CONTINUOUS
 10
315.6623657684
 20
84.7127354703
  0
SEQEND
  0
LINE
  8
0
 62
7
  6
CONTINUOUS
 10
307.7661981153
 20
85.0194621915
 11
308.1277436235
 21
85.0055646536
  0
LINE
  8
0
 62
7
  6
CONTINUOUS
 10
313.3040704623
 20
84.7989255867
 11
313.6265962936
 21
84.7864239547
  0
LINE
  8
0
 62
7
  6
CONTINUOUS
 10
308.1277436235
 20
85.0055646536
 11
308.4891213802
 21
84.9915165304
  0
LINE
  8
0
 62
7
  6
CONTINUOUS
 10
312.9800695227
 20
84.8116383111
 11
313.3040704623
 21
84.7989255867
  0
POLYLINE
  8
0
 62
7
  6
CONTINUOUS
 66
1
 70
0
  0
VERTEX
  8
0
 62
7
  6
CONTINUOUS
 10
308.4891213802
 20
84.9915165304
  0
VERTEX
  8
0
 62
7
  6
CONTINUOUS
 10
308.85046129
 20
84.9773302399
  0
VERTEX
  8
0
 62
7
  6
CONTINUOUS
 10
309.0310997277
 20
84.9701919704
  0
SEQEND
  0
LINE
  8
0
 62
7
  6
CONTINUOUS
 10
312.6545003488
 20
84.8245372122
 11
312.9800695227
 21
84.8116383111
  0
LINE
  8
0
 62
7
  6
CONTINUOUS
 10
309.0310997277
 20
84.9701919704
 11
309.3920989332
 21
84.955845463
  0
LINE
  8
0
 62
7
  6
CONTINUOUS
 10
309.3920989332
 20
84.955845463
 11
309.7518120559
 21
84.9414597071
  0
LINE
  8
0
 62
7
  6
CONTINUOUS
 10
312.1628574014
 20
84.8441907861
 11
312.6545003488
 21
84.8245372122
  0
POLYLINE
  8
0
 62
7
  6
CONTINUOUS
 66
1
 70
0
  0
VERTEX
  8
0
 62
7
  6
CONTINUOUS
 10
309.7518120559
 20
84.9414597071
  0
VERTEX
  8
0
 62
7
  6
CONTINUOUS
 10
310.1092323505
 20
84.9270951469
  0
VERTEX
  8
0
 62
7
  6
CONTINUOUS
 10
310.2867776349
 20
84.9199391382
  0
SEQEND
  0
POLYLINE
  8
0
 62
7
  6
CONTINUOUS
 66
1
 70
0
  0
VERTEX
  8
0
 62
7
  6
CONTINUOUS
 10
311.665448803
 20
84.8642155796
  0
VERTEX
  8
0
 62
7
  6
CONTINUOUS
 10
311.8321219679
 20
84.8574937749
  0
VERTEX
  8
0
 62
7
  6
CONTINUOUS
 10
312.1628574014
 20
84.8441907861
  0
SEQEND
  0
POLYLINE
  8
0
 62
7
  6
CONTINUOUS
 66
1
 70
0
  0
VERTEX
  8
0
 62
7
  6
CONTINUOUS
 10
310.2867776349
 20
84.9199391382
  0
VERTEX
  8
0
 62
7
  6
CONTINUOUS
 10
310.6389695227
 20
84.9057163664
  0
VERTEX
  8
0
 62
7
  6
CONTINUOUS
 10
310.8133953539
 20
84.8986635405
  0
SEQEND
  0
POLYLINE
  8
0
 62
7
  6
CONTINUOUS
 66
1
 70
0
  0
VERTEX
  8
0
 62
7
  6
CONTINUOUS
 10
310.8133953539
 20
84.8986635405
  0
VERTEX
  8
0
 62
7
  6
CONTINUOUS
 10
311.1583716048
 20
84.8847081337
  0
VERTEX
  8
0
 62
7
  6
CONTINUOUS
 10
311.3286964743
 20
84.8778198691
  0
VERTEX
  8
0
 62
7
  6
CONTINUOUS
 10
311.665448803
 20
84.8642155796
  0
SEQEND
  0
LINE
  8
0
 62
7
  6
CONTINUOUS
 10
40.4772349721
 20
84.7005810321
 11
40.4934445388
 21
84.7130532154
  0
POLYLINE
  8
0
 62
7
  6
CONTINUOUS
 66
1
 70
0
  0
VERTEX
  8
0
 62
7
  6
CONTINUOUS
 10
178.0331227205
 20
79.1049119893
  0
VERTEX
  8
0
 62
7
  6
CONTINUOUS
 10
178.0326870492
 20
79.1098614691
  0
VERTEX
  8
0
 62
7
  6
CONTINUOUS
 10
178.0322521659
 20
79.1247075342
  0
VERTEX
  8
0
 62
7
  6
CONTINUOUS
 10
178.0318176049
 20
79.1494426283
  0
VERTEX
  8
0
 62
7
  6
CONTINUOUS
 10
178.0313839747
 20
79.1840471786
  0
VERTEX
  8
0
 62
7
  6
CONTINUOUS
 10
178.0309516727
 20
79.2284863794
  0
VERTEX
  8
0
 62
7
  6
CONTINUOUS
 10
178.0305208948
 20
79.2827364968
  0
VERTEX
  8
0
 62
7
  6
CONTINUOUS
 10
178.0300918407
 20
79.346777723
  0
VERTEX
  8
0
 62
7
  6
CONTINUOUS
 10
178.0296649142
 20
79.4205528089
  0
VERTEX
  8
0
 62
7
  6
CONTINUOUS
 10
178.0292405752
 20
79.5039791468
  0
VERTEX
  8
0
 62
7
  6
CONTINUOUS
 10
178.028818889
 20
79.5970420394
  0
SEQEND
  0
LINE
  8
0
 62
7
  6
CONTINUOUS
 10
178.028818889
 20
79.5970420394
 11
178.0279841324
 21
79.8119842701
  0
LINE
  8
0
 62
7
  6
CONTINUOUS
 10
178.0279841324
 20
79.8119842701
 11
178.0271640468
 21
80.0645628165
  0
LINE
  8
0
 62
7
  6
CONTINUOUS
 10
178.0271640468
 20
80.0645628165
 11
178.0263616128
 21
80.3537900363
  0
POLYLINE
  8
0
 62
7
  6
CONTINUOUS
 66
1
 70
0
  0
VERTEX
  8
0
 62
7
  6
CONTINUOUS
 10
178.0263616128
 20
80.3537900363
  0
VERTEX
  8
0
 62
7
  6
CONTINUOUS
 10
178.0255775371
 20
80.6794122029
  0
VERTEX
  8
0
 62
7
  6
CONTINUOUS
 10
178.0251933011
 20
80.8555277927
  0
SEQEND
  0
POLYLINE
  8
0
 62
7
  6
CONTINUOUS
 66
1
 70
0
  0
VERTEX
  8
0
 62
7
  6
CONTINUOUS
 10
178.0251933011
 20
80.8555277927
  0
VERTEX
  8
0
 62
7
  6
CONTINUOUS
 10
178.0244424378
 20
81.2334033721
  0
VERTEX
  8
0
 62
7
  6
CONTINUOUS
 10
178.0240762884
 20
81.4349072716
  0
SEQEND
  0
LINE
  8
0
 62
7
  6
CONTINUOUS
 10
178.0240762884
 20
81.4349072716
 11
178.0233628527
 21
81.8628848041
  0
LINE
  8
0
 62
7
  6
CONTINUOUS
 10
178.0233628527
 20
81.8628848041
 11
178.022676827
 21
82.3228705879
  0
LINE
  8
0
 62
7
  6
CONTINUOUS
 10
178.022676827
 20
82.3228705879
 11
178.0220210538
 21
82.8129091599
  0
POLYLINE
  8
0
 62
7
  6
CONTINUOUS
 66
1
 70
0
  0
VERTEX
  8
0
 62
7
  6
CONTINUOUS
 10
178.0220210538
 20
82.8129091599
  0
VERTEX
  8
0
 62
7
  6
CONTINUOUS
 10
178.0213964063
 20
83.3323046096
  0
VERTEX
  8
0
 62
7
  6
CONTINUOUS
 10
178.021096254
 20
83.6026429061
  0
SEQEND
  0
POLYLINE
  8
0
 62
7
  6
CONTINUOUS
 66
1
 70
0
  0
VERTEX
  8
0
 62
7
  6
CONTINUOUS
 10
178.020325854
 20
84.4525808361
  0
VERTEX
  8
0
 62
7
  6
CONTINUOUS
 10
178.0176005491
 20
86.8829870572
  0
VERTEX
  8
0
 62
7
  6
CONTINUOUS
 10
178.0157062284
 20
89.5016612175
  0
VERTEX
  8
0
 62
7
  6
CONTINUOUS
 10
178.0132457447
 20
92.3200013627
  0
VERTEX
  8
0
 62
7
  6
CONTINUOUS
 10
178.0106329769
 20
95.3208936816
  0
VERTEX
  8
0
 62
7
  6
CONTINUOUS
 10
178.0081127323
 20
98.4921557164
  0
VERTEX
  8
0
 62
7
  6
CONTINUOUS
 10
178.005587761
 20
101.8271507484
  0
VERTEX
  8
0
 62
7
  6
CONTINUOUS
 10
178.003330475
 20
105.3402541825
  0
VERTEX
  8
0
 62
7
  6
CONTINUOUS
 10
178.0009056193
 20
108.9540689869
  0
VERTEX
  8
0
 62
7
  6
CONTINUOUS
 10
177.9990033573
 20
112.6286555601
  0
VERTEX
  8
0
 62
7
  6
CONTINUOUS
 10
177.99684414
 20
116.2543038923
  0
VERTEX
  8
0
 62
7
  6
CONTINUOUS
 10
177.9949994175
 20
119.6714241832
  0
VERTEX
  8
0
 62
7
  6
CONTINUOUS
 10
177.9903508652
 20
129.3551637308
  0
SEQEND
  0
POLYLINE
  8
0
 62
7
  6
CONTINUOUS
 66
1
 70
0
  0
VERTEX
  8
0
 62
7
  6
CONTINUOUS
 10
178.021096254
 20
83.6026429061
  0
VERTEX
  8
0
 62
7
  6
CONTINUOUS
 10
178.0205220245
 20
84.1631252156
  0
VERTEX
  8
0
 62
7
  6
CONTINUOUS
 10
178.0202482003
 20
84.4527589338
  0
SEQEND
  0
POLYLINE
  8
0
 62
7
  6
CONTINUOUS
 66
1
 70
0
  0
VERTEX
  8
0
 62
7
  6
CONTINUOUS
 10
177.9903508652
 20
129.3551637308
  0
VERTEX
  8
0
 62
7
  6
CONTINUOUS
 10
177.9889593492
 20
132.3167058899
  0
VERTEX
  8
0
 62
7
  6
CONTINUOUS
 10
177.9877777855
 20
135.1481223215
  0
VERTEX
  8
0
 62
7
  6
CONTINUOUS
 10
177.9865570794
 20
137.841095026
  0
VERTEX
  8
0
 62
7
  6
CONTINUOUS
 10
177.9835464327
 20
145.9670142469
  0
SEQEND
  0
POLYLINE
  8
0
 62
7
  6
CONTINUOUS
 66
1
 70
0
  0
VERTEX
  8
0
 62
7
  6
CONTINUOUS
 10
177.9835464327
 20
145.9670142469
  0
VERTEX
  8
0
 62
7
  6
CONTINUOUS
 10
177.980875303
 20
153.9735939476
  0
VERTEX
  8
0
 62
7
  6
CONTINUOUS
 10
177.9795152299
 20
159.3695197264
  0
SEQEND
  0
POLYLINE
  8
0
 62
7
  6
CONTINUOUS
 66
1
 70
0
  0
VERTEX
  8
0
 62
7
  6
CONTINUOUS
 10
177.9705772288
 20
196.7872860603
  0
VERTEX
  8
0
 62
7
  6
CONTINUOUS
 10
177.9691325437
 20
203.9437789173
  0
VERTEX
  8
0
 62
7
  6
CONTINUOUS
 10
177.9685888968
 20
207.4822196375
  0
VERTEX
  8
0
 62
7
  6
CONTINUOUS
 10
177.9681352841
 20
211.1383435484
  0
VERTEX
  8
0
 62
7
  6
CONTINUOUS
 10
177.9677103765
 20
214.9187663409
  0
VERTEX
  8
0
 62
7
  6
CONTINUOUS
 10
177.9672024705
 20
218.865680068
  0
VERTEX
  8
0
 62
7
  6
CONTINUOUS
 10
177.9662824567
 20
222.9668630702
  0
SEQEND
  0
POLYLINE
  8
0
 62
7
  6
CONTINUOUS
 66
1
 70
0
  0
VERTEX
  8
0
 62
7
  6
CONTINUOUS
 10
177.976541397
 20
170.7613282793
  0
VERTEX
  8
0
 62
7
  6
CONTINUOUS
 10
177.97505593
 20
176.8208705814
  0
VERTEX
  8
0
 62
7
  6
CONTINUOUS
 10
177.9741895267
 20
180.0489707628
  0
VERTEX
  8
0
 62
7
  6
CONTINUOUS
 10
177.9733756169
 20
183.3040415666
  0
VERTEX
  8
0
 62
7
  6
CONTINUOUS
 10
177.9725852778
 20
186.5903768954
  0
VERTEX
  8
0
 62
7
  6
CONTINUOUS
 10
177.971840039
 20
189.8522688661
  0
VERTEX
  8
0
 62
7
  6
CONTINUOUS
 10
177.9712176813
 20
193.1998479588
  0
VERTEX
  8
0
 62
7
  6
CONTINUOUS
 10
177.9705772288
 20
196.7872860603
  0
SEQEND
  0
POLYLINE
  8
0
 62
7
  6
CONTINUOUS
 66
1
 70
0
  0
VERTEX
  8
0
 62
7
  6
CONTINUOUS
 10
177.9795152299
 20
159.3695197264
  0
VERTEX
  8
0
 62
7
  6
CONTINUOUS
 10
177.9787401391
 20
162.2205311734
  0
VERTEX
  8
0
 62
7
  6
CONTINUOUS
 10
177.9773073471
 20
167.9160867249
  0
SEQEND
  0
LINE
  8
0
 62
7
  6
CONTINUOUS
 10
177.9773073471
 20
167.9160867249
 11
177.976541397
 21
170.7613282793
  0
LINE
  8
0
 62
7
  6
CONTINUOUS
 10
177.9662756951
 20
222.9669001761
 11
177.9662409427
 21
223.5136463464
  0
LINE
  8
0
 62
7
  6
CONTINUOUS
 10
177.9662906295
 20
224.2085728846
 11
177.966240739
 21
223.5136501807
  0
LINE
  8
0
 62
7
  6
CONTINUOUS
 10
177.9665110192
 20
224.697728447
 11
177.9662906295
 21
224.2085728846
  0
LINE
  8
0
 62
7
  6
CONTINUOUS
 10
177.9668028787
 20
225.0559408792
 11
177.9665110192
 21
224.697728447
  0
LINE
  8
0
 62
7
  6
CONTINUOUS
 10
177.9674361848
 20
225.4925712276
 11
177.9668028787
 21
225.0559408792
  0
LINE
  8
0
 62
7
  6
CONTINUOUS
 10
177.9674361848
 20
225.4925712276
 11
177.9677132023
 21
225.6031852592
  0
LINE
  8
0
 62
7
  6
CONTINUOUS
 10
177.9677132023
 20
225.6031852592
 11
177.9680039873
 21
225.6821285786
  0
LINE
  8
0
 62
7
  6
CONTINUOUS
 10
177.9680039873
 20
225.6821285786
 11
177.9682033506
 21
225.7164609823
  0
POLYLINE
  8
0
 62
7
  6
CONTINUOUS
 66
1
 70
0
  0
VERTEX
  8
0
 62
7
  6
CONTINUOUS
 10
177.9682033506
 20
225.7164609823
  0
VERTEX
  8
0
 62
7
  6
CONTINUOUS
 10
177.9684056131
 20
225.7358687793
  0
VERTEX
  8
0
 62
7
  6
CONTINUOUS
 10
177.9685072508
 20
225.7399136024
  0
VERTEX
  8
0
 62
7
  6
CONTINUOUS
 10
177.968565059
 20
225.7405273031
  0
SEQEND
  0
LINE
  8
0
 62
7
  6
CONTINUOUS
 10
178.4460156627
 20
225.739162194
 11
178.4460886264
 21
225.7405272993
  0
LINE
  8
0
 62
7
  6
CONTINUOUS
 10
280.3774542617
 20
225.8477770133
 11
280.5597476558
 21
225.9604700749
  0
LINE
  8
0
 62
7
  6
CONTINUOUS
 10
315.6782517668
 20
84.7005810304
 11
315.6619356083
 21
84.7130532125
  0
POLYLINE
  8
0
 62
7
  6
CONTINUOUS
 66
1
 70
0
  0
VERTEX
  8
0
 62
7
  6
CONTINUOUS
 10
-23.2519863051
 20
225.7925611638
  0
VERTEX
  8
0
 62
7
  6
CONTINUOUS
 10
-23.3393516084
 20
225.8025032469
  0
VERTEX
  8
0
 62
7
  6
CONTINUOUS
 10
-23.4270648895
 20
225.8085979976
  0
VERTEX
  8
0
 62
7
  6
CONTINUOUS
 10
-23.5149600513
 20
225.8108341079
  0
VERTEX
  8
0
 62
7
  6
CONTINUOUS
 10
-23.6028672621
 20
225.809207342
  0
VERTEX
  8
0
 62
7
  6
CONTINUOUS
 10
-23.6906165419
 20
225.803720949
  0
VERTEX
  8
0
 62
7
  6
CONTINUOUS
 10
-23.7780382451
 20
225.794385663
  0
VERTEX
  8
0
 62
7
  6
CONTINUOUS
 10
-23.8649634161
 20
225.7812196763
  0
VERTEX
  8
0
 62
7
  6
CONTINUOUS
 10
-23.9512239869
 20
225.7642486178
  0
VERTEX
  8
0
 62
7
  6
CONTINUOUS
 10
-24.036653478
 20
225.7435054283
  0
VERTEX
  8
0
 62
7
  6
CONTINUOUS
 10
-24.121086965
 20
225.7190303329
  0
VERTEX
  8
0
 62
7
  6
CONTINUOUS
 10
-24.2043614042
 20
225.690870783
  0
VERTEX
  8
0
 62
7
  6
CONTINUOUS
 10
-24.2863160396
 20
225.6590813296
  0
VERTEX
  8
0
 62
7
  6
CONTINUOUS
 10
-24.3667925807
 20
225.6237235811
  0
VERTEX
  8
0
 62
7
  6
CONTINUOUS
 10
-24.4456356127
 20
225.5848660431
  0
VERTEX
  8
0
 62
7
  6
CONTINUOUS
 10
-24.522692974
 20
225.542583954
  0
VERTEX
  8
0
 62
7
  6
CONTINUOUS
 10
-24.597815866
 20
225.4969592184
  0
VERTEX
  8
0
 62
7
  6
CONTINUOUS
 10
-24.6708595579
 20
225.4480800038
  0
VERTEX
  8
0
 62
7
  6
CONTINUOUS
 10
-24.7416832828
 20
225.3960407426
  0
VERTEX
  8
0
 62
7
  6
CONTINUOUS
 10
-24.8101504139
 20
225.3409420644
  0
VERTEX
  8
0
 62
7
  6
CONTINUOUS
 10
-24.8761289239
 20
225.2828904523
  0
VERTEX
  8
0
 62
7
  6
CONTINUOUS
 10
-24.9394915605
 20
225.2219981247
  0
VERTEX
  8
0
 62
7
  6
CONTINUOUS
 10
-25.0001161121
 20
225.1583827849
  0
VERTEX
  8
0
 62
7
  6
CONTINUOUS
 10
-25.0578857583
 20
225.0921672952
  0
VERTEX
  8
0
 62
7
  6
CONTINUOUS
 10
-25.1126891026
 20
225.0234796073
  0
VERTEX
  8
0
 62
7
  6
CONTINUOUS
 10
-25.1644206994
 20
224.9524521544
  0
VERTEX
  8
0
 62
7
  6
CONTINUOUS
 10
-25.2129809764
 20
224.8792218469
  0
VERTEX
  8
0
 62
7
  6
CONTINUOUS
 10
-25.2582762977
 20
224.8039300879
  0
VERTEX
  8
0
 62
7
  6
CONTINUOUS
 10
-25.3002193619
 20
224.7267221697
  0
VERTEX
  8
0
 62
7
  6
CONTINUOUS
 10
-25.3387293232
 20
224.6477471129
  0
VERTEX
  8
0
 62
7
  6
CONTINUOUS
 10
-25.3737319307
 20
224.5671573705
  0
VERTEX
  8
0
 62
7
  6
CONTINUOUS
 10
-25.4051597832
 20
224.4851083279
  0
VERTEX
  8
0
 62
7
  6
CONTINUOUS
 10
-25.4329523034
 20
224.4017582673
  0
VERTEX
  8
0
 62
7
  6
CONTINUOUS
 10
-25.4570559884
 20
224.3172677531
  0
VERTEX
  8
0
 62
7
  6
CONTINUOUS
 10
-25.4774243954
 20
224.2317994905
  0
VERTEX
  8
0
 62
7
  6
CONTINUOUS
 10
-25.4940181763
 20
224.1455184482
  0
VERTEX
  8
0
 62
7
  6
CONTINUOUS
 10
-25.506805275
 20
224.0585910327
  0
VERTEX
  8
0
 62
7
  6
CONTINUOUS
 10
-25.5157609665
 20
223.9711850362
  0
VERTEX
  8
0
 62
7
  6
CONTINUOUS
 10
-25.5208679251
 20
223.883469144
  0
VERTEX
  8
0
 62
7
  6
CONTINUOUS
 10
-25.5221162178
 20
223.7956126357
  0
SEQEND
  0
LINE
  8
0
 62
7
  6
CONTINUOUS
 10
76.1826031276
 20
225.9925597535
 11
76.1928550226
 21
225.9910690492
  0
POLYLINE
  8
0
 62
7
  6
CONTINUOUS
 66
1
 70
0
  0
VERTEX
  8
0
 62
7
  6
CONTINUOUS
 10
352.2699839275
 20
225.9900973247
  0
VERTEX
  8
0
 62
7
  6
CONTINUOUS
 10
352.2742646044
 20
225.9903704978
  0
VERTEX
  8
0
 62
7
  6
CONTINUOUS
 10
352.3023632747
 20
225.9905404288
  0
SEQEND
  0
POLYLINE
  8
0
 62
7
  6
CONTINUOUS
 66
1
 70
0
  0
VERTEX
  8
0
 62
7
  6
CONTINUOUS
 10
190.4663902684
 20
223.4811179801
  0
VERTEX
  8
0
 62
7
  6
CONTINUOUS
 10
187.3611564547
 20
223.3434032995
  0
VERTEX
  8
0
 62
7
  6
CONTINUOUS
 10
184.2426359596
 20
223.2117719293
  0
VERTEX
  8
0
 62
7
  6
CONTINUOUS
 10
181.1109820561
 20
223.0862591066
  0
VERTEX
  8
0
 62
7
  6
CONTINUOUS
 10
177.9663518984
 20
222.9669001762
  0
SEQEND
  0
POLYLINE
  8
0
 62
7
  6
CONTINUOUS
 66
1
 70
0
  0
VERTEX
  8
0
 62
7
  6
CONTINUOUS
 10
381.0619385084
 20
223.8308949663
  0
VERTEX
  8
0
 62
7
  6
CONTINUOUS
 10
381.0012525786
 20
223.8290007428
  0
VERTEX
  8
0
 62
7
  6
CONTINUOUS
 10
380.9351638478
 20
223.8270813983
  0
VERTEX
  8
0
 62
7
  6
CONTINUOUS
 10
380.8636650945
 20
223.8251172003
  0
VERTEX
  8
0
 62
7
  6
CONTINUOUS
 10
380.7872850077
 20
223.8231817955
  0
VERTEX
  8
0
 62
7
  6
CONTINUOUS
 10
380.7065977938
 20
223.821249222
  0
VERTEX
  8
0
 62
7
  6
CONTINUOUS
 10
380.6222399763
 20
223.8193888214
  0
VERTEX
  8
0
 62
7
  6
CONTINUOUS
 10
380.5352097596
 20
223.8175972472
  0
VERTEX
  8
0
 62
7
  6
CONTINUOUS
 10
380.4456319412
 20
223.8158956969
  0
VERTEX
  8
0
 62
7
  6
CONTINUOUS
 10
380.3542435918
 20
223.8143110086
  0
VERTEX
  8
0
 62
7
  6
CONTINUOUS
 10
380.2602676475
 20
223.8128062846
  0
VERTEX
  8
0
 62
7
  6
CONTINUOUS
 10
380.1637210371
 20
223.8114337516
  0
VERTEX
  8
0
 62
7
  6
CONTINUOUS
 10
380.0623875122
 20
223.8101063616
  0
VERTEX
  8
0
 62
7
  6
CONTINUOUS
 10
379.9543356895
 20
223.8088914783
  0
VERTEX
  8
0
 62
7
  6
CONTINUOUS
 10
379.8374283804
 20
223.8077273723
  0
VERTEX
  8
0
 62
7
  6
CONTINUOUS
 10
379.7082446681
 20
223.8066648774
  0
VERTEX
  8
0
 62
7
  6
CONTINUOUS
 10
379.5674906856
 20
223.8057598101
  0
VERTEX
  8
0
 62
7
  6
CONTINUOUS
 10
379.4138100969
 20
223.8050113619
  0
VERTEX
  8
0
 62
7
  6
CONTINUOUS
 10
379.2503453872
 20
223.8045391118
  0
VERTEX
  8
0
 62
7
  6
CONTINUOUS
 10
379.079737425
 20
223.8042871928
  0
VERTEX
  8
0
 62
7
  6
CONTINUOUS
 10
378.903988951
 20
223.8042828232
  0
VERTEX
  8
0
 62
7
  6
CONTINUOUS
 10
378.7260828599
 20
223.8044513597
  0
VERTEX
  8
0
 62
7
  6
CONTINUOUS
 10
378.5468961919
 20
223.8047263995
  0
VERTEX
  8
0
 62
7
  6
CONTINUOUS
 10
378.3676230235
 20
223.8051278466
  0
VERTEX
  8
0
 62
7
  6
CONTINUOUS
 10
378.1891013681
 20
223.8056427487
  0
VERTEX
  8
0
 62
7
  6
CONTINUOUS
 10
378.0123217318
 20
223.8062558917
  0
VERTEX
  8
0
 62
7
  6
CONTINUOUS
 10
377.6687225479
 20
223.8075246888
  0
SEQEND
  0
LINE
  8
0
 62
7
  6
CONTINUOUS
 10
354.7027984906
 20
225.985775989
 11
354.7334179717
 21
225.9860849851
  0
POLYLINE
  8
0
 62
7
  6
CONTINUOUS
 66
1
 70
0
  0
VERTEX
  8
0
 62
7
  6
CONTINUOUS
 10
375.3499769131
 20
223.8005193843
  0
VERTEX
  8
0
 62
7
  6
CONTINUOUS
 10
375.1119615607
 20
223.7986067588
  0
VERTEX
  8
0
 62
7
  6
CONTINUOUS
 10
374.8510327075
 20
223.7965615184
  0
VERTEX
  8
0
 62
7
  6
CONTINUOUS
 10
374.5680957519
 20
223.7944776398
  0
VERTEX
  8
0
 62
7
  6
CONTINUOUS
 10
374.2632696844
 20
223.7923728911
  0
VERTEX
  8
0
 62
7
  6
CONTINUOUS
 10
373.9367736624
 20
223.7903477181
  0
VERTEX
  8
0
 62
7
  6
CONTINUOUS
 10
373.589113686
 20
223.7884248301
  0
VERTEX
  8
0
 62
7
  6
CONTINUOUS
 10
373.2203184219
 20
223.7866483436
  0
VERTEX
  8
0
 62
7
  6
CONTINUOUS
 10
372.8305549903
 20
223.7850093807
  0
VERTEX
  8
0
 62
7
  6
CONTINUOUS
 10
372.4205086876
 20
223.7835299068
  0
VERTEX
  8
0
 62
7
  6
CONTINUOUS
 10
371.9880857775
 20
223.7822788407
  0
VERTEX
  8
0
 62
7
  6
CONTINUOUS
 10
371.5403171417
 20
223.781502131
  0
VERTEX
  8
0
 62
7
  6
CONTINUOUS
 10
371.0815377415
 20
223.7811369144
  0
VERTEX
  8
0
 62
7
  6
CONTINUOUS
 10
370.6206462538
 20
223.7813985783
  0
VERTEX
  8
0
 62
7
  6
CONTINUOUS
 10
370.1704793065
 20
223.7820748498
  0
VERTEX
  8
0
 62
7
  6
CONTINUOUS
 10
369.7281374738
 20
223.783156146
  0
VERTEX
  8
0
 62
7
  6
CONTINUOUS
 10
369.2973896725
 20
223.7846037524
  0
VERTEX
  8
0
 62
7
  6
CONTINUOUS
 10
368.8711996891
 20
223.7862573005
  0
VERTEX
  8
0
 62
7
  6
CONTINUOUS
 10
368.4437392694
 20
223.7882241361
  0
VERTEX
  8
0
 62
7
  6
CONTINUOUS
 10
368.0126405834
 20
223.7903371797
  0
VERTEX
  8
0
 62
7
  6
CONTINUOUS
 10
367.5722983189
 20
223.7926435883
  0
VERTEX
  8
0
 62
7
  6
CONTINUOUS
 10
367.1247994865
 20
223.7950906049
  0
VERTEX
  8
0
 62
7
  6
CONTINUOUS
 10
366.6699063828
 20
223.7976431401
  0
VERTEX
  8
0
 62
7
  6
CONTINUOUS
 10
366.2089806838
 20
223.8002972812
  0
VERTEX
  8
0
 62
7
  6
CONTINUOUS
 10
365.7437122273
 20
223.8029850637
  0
VERTEX
  8
0
 62
7
  6
CONTINUOUS
 10
365.2734976668
 20
223.8056973745
  0
VERTEX
  8
0
 62
7
  6
CONTINUOUS
 10
364.7992624739
 20
223.808411792
  0
VERTEX
  8
0
 62
7
  6
CONTINUOUS
 10
364.3181900352
 20
223.8110787902
  0
VERTEX
  8
0
 62
7
  6
CONTINUOUS
 10
363.8284112509
 20
223.8137431438
  0
VERTEX
  8
0
 62
7
  6
CONTINUOUS
 10
363.327152985
 20
223.8163294103
  0
VERTEX
  8
0
 62
7
  6
CONTINUOUS
 10
362.8129399106
 20
223.8189311524
  0
VERTEX
  8
0
 62
7
  6
CONTINUOUS
 10
362.2788471798
 20
223.8213982516
  0
VERTEX
  8
0
 62
7
  6
CONTINUOUS
 10
361.7216992239
 20
223.823979432
  0
VERTEX
  8
0
 62
7
  6
CONTINUOUS
 10
361.1260560497
 20
223.8263012974
  0
VERTEX
  8
0
 62
7
  6
CONTINUOUS
 10
360.4740320421
 20
223.8287826779
  0
VERTEX
  8
0
 62
7
  6
CONTINUOUS
 10
359.7634026596
 20
223.8310104425
  0
VERTEX
  8
0
 62
7
  6
CONTINUOUS
 10
358.9874547538
 20
223.833170161
  0
VERTEX
  8
0
 62
7
  6
CONTINUOUS
 10
358.1381827037
 20
223.8348474415
  0
VERTEX
  8
0
 62
7
  6
CONTINUOUS
 10
357.2049622847
 20
223.8354041068
  0
VERTEX
  8
0
 62
7
  6
CONTINUOUS
 10
356.184076749
 20
223.8370019008
  0
SEQEND
  0
LINE
  8
0
 62
7
  6
CONTINUOUS
 10
262.7631219032
 20
225.8614785336
 11
262.4182386031
 21
225.8590317924
  0
LINE
  8
0
 62
7
  6
CONTINUOUS
 10
263.2522860501
 20
225.8649302489
 11
262.7631219032
 21
225.8614785336
  0
LINE
  8
0
 62
7
  6
CONTINUOUS
 10
264.2278282784
 20
225.8717032952
 11
263.2522860501
 21
225.8649302489
  0
LINE
  8
0
 62
7
  6
CONTINUOUS
 10
265.1995067053
 20
225.8782944206
 11
264.2278282784
 21
225.8717032952
  0
LINE
  8
0
 62
7
  6
CONTINUOUS
 10
266.1672841815
 20
225.8846940435
 11
265.1995067053
 21
225.8782944206
  0
LINE
  8
0
 62
7
  6
CONTINUOUS
 10
267.1313044682
 20
225.8909057204
 11
266.1672841815
 21
225.8846940435
  0
POLYLINE
  8
0
 62
7
  6
CONTINUOUS
 66
1
 70
0
  0
VERTEX
  8
0
 62
7
  6
CONTINUOUS
 10
268.5701940945
 20
225.8998781497
  0
VERTEX
  8
0
 62
7
  6
CONTINUOUS
 10
268.0915436942
 20
225.8969331564
  0
VERTEX
  8
0
 62
7
  6
CONTINUOUS
 10
267.1313044682
 20
225.8909057204
  0
SEQEND
  0
LINE
  8
0
 62
7
  6
CONTINUOUS
 10
269.5243989557
 20
225.9056305966
 11
268.5701940945
 21
225.8998781497
  0
LINE
  8
0
 62
7
  6
CONTINUOUS
 10
270.4744182913
 20
225.9112006058
 11
269.5243989557
 21
225.9056305966
  0
LINE
  8
0
 62
7
  6
CONTINUOUS
 10
271.4201064877
 20
225.9165894032
 11
270.4744182913
 21
225.9112006058
  0
POLYLINE
  8
0
 62
7
  6
CONTINUOUS
 66
1
 70
0
  0
VERTEX
  8
0
 62
7
  6
CONTINUOUS
 10
262.4178604291
 20
225.9155598931
  0
VERTEX
  8
0
 62
7
  6
CONTINUOUS
 10
256.4214326437
 20
225.8821168518
  0
VERTEX
  8
0
 62
7
  6
CONTINUOUS
 10
249.9808943839
 20
225.8458600049
  0
VERTEX
  8
0
 62
7
  6
CONTINUOUS
 10
243.3353597767
 20
225.8091641676
  0
VERTEX
  8
0
 62
7
  6
CONTINUOUS
 10
236.6460353532
 20
225.7744833234
  0
VERTEX
  8
0
 62
7
  6
CONTINUOUS
 10
230.0197996504
 20
225.7440937217
  0
VERTEX
  8
0
 62
7
  6
CONTINUOUS
 10
223.4131255207
 20
225.7194154216
  0
VERTEX
  8
0
 62
7
  6
CONTINUOUS
 10
215.9759289347
 20
225.7000950249
  0
VERTEX
  8
0
 62
7
  6
CONTINUOUS
 10
208.3433263275
 20
225.6906847712
  0
VERTEX
  8
0
 62
7
  6
CONTINUOUS
 10
200.7760183714
 20
225.6916849318
  0
VERTEX
  8
0
 62
7
  6
CONTINUOUS
 10
193.2495859713
 20
225.7015681742
  0
VERTEX
  8
0
 62
7
  6
CONTINUOUS
 10
185.7110443975
 20
225.7183903393
  0
VERTEX
  8
0
 62
7
  6
CONTINUOUS
 10
177.9685653205
 20
225.7405272993
  0
SEQEND
  0
LINE
  8
0
 62
7
  6
CONTINUOUS
 10
272.3615115145
 20
225.9217992976
 11
271.4201064877
 21
225.9165894032
  0
POLYLINE
  8
0
 62
7
  6
CONTINUOUS
 66
1
 70
0
  0
VERTEX
  8
0
 62
7
  6
CONTINUOUS
 10
262.9085065907
 20
223.6575820572
  0
VERTEX
  8
0
 62
7
  6
CONTINUOUS
 10
259.7263068435
 20
223.6409501581
  0
VERTEX
  8
0
 62
7
  6
CONTINUOUS
 10
256.7238698988
 20
223.627365921
  0
VERTEX
  8
0
 62
7
  6
CONTINUOUS
 10
253.9031528223
 20
223.6134221471
  0
VERTEX
  8
0
 62
7
  6
CONTINUOUS
 10
251.2563702363
 20
223.6000628106
  0
VERTEX
  8
0
 62
7
  6
CONTINUOUS
 10
248.7935586668
 20
223.5879427144
  0
VERTEX
  8
0
 62
7
  6
CONTINUOUS
 10
246.4635487085
 20
223.5761664009
  0
VERTEX
  8
0
 62
7
  6
CONTINUOUS
 10
244.2112619552
 20
223.5651329811
  0
VERTEX
  8
0
 62
7
  6
CONTINUOUS
 10
242.0591069175
 20
223.5547396396
  0
VERTEX
  8
0
 62
7
  6
CONTINUOUS
 10
240.0180625891
 20
223.5451862146
  0
VERTEX
  8
0
 62
7
  6
CONTINUOUS
 10
238.0673849177
 20
223.5361858591
  0
VERTEX
  8
0
 62
7
  6
CONTINUOUS
 10
236.1803589078
 20
223.5277979244
  0
VERTEX
  8
0
 62
7
  6
CONTINUOUS
 10
234.3860749646
 20
223.520146134
  0
VERTEX
  8
0
 62
7
  6
CONTINUOUS
 10
232.7089870298
 20
223.5132959152
  0
VERTEX
  8
0
 62
7
  6
CONTINUOUS
 10
231.1362099049
 20
223.5070957344
  0
VERTEX
  8
0
 62
7
  6
CONTINUOUS
 10
229.6684396106
 20
223.5016378148
  0
VERTEX
  8
0
 62
7
  6
CONTINUOUS
 10
228.2894766506
 20
223.4966935927
  0
VERTEX
  8
0
 62
7
  6
CONTINUOUS
 10
226.9828208695
 20
223.4922976741
  0
VERTEX
  8
0
 62
7
  6
CONTINUOUS
 10
225.7501929191
 20
223.4883472475
  0
VERTEX
  8
0
 62
7
  6
CONTINUOUS
 10
224.588175068
 20
223.4848472192
  0
VERTEX
  8
0
 62
7
  6
CONTINUOUS
 10
223.495726741
 20
223.4817243845
  0
VERTEX
  8
0
 62
7
  6
CONTINUOUS
 10
222.4938009152
 20
223.4790824696
  0
VERTEX
  8
0
 62
7
  6
CONTINUOUS
 10
221.5130303299
 20
223.4765464586
  0
VERTEX
  8
0
 62
7
  6
CONTINUOUS
 10
220.4945884736
 20
223.4741611282
  0
VERTEX
  8
0
 62
7
  6
CONTINUOUS
 10
219.4280173598
 20
223.4717948755
  0
VERTEX
  8
0
 62
7
  6
CONTINUOUS
 10
218.2804285196
 20
223.4694936832
  0
VERTEX
  8
0
 62
7
  6
CONTINUOUS
 10
217.0603941196
 20
223.4672892916
  0
VERTEX
  8
0
 62
7
  6
CONTINUOUS
 10
215.7686675755
 20
223.4652598878
  0
VERTEX
  8
0
 62
7
  6
CONTINUOUS
 10
214.3958364517
 20
223.4634079893
  0
VERTEX
  8
0
 62
7
  6
CONTINUOUS
 10
212.9322424167
 20
223.4618270827
  0
VERTEX
  8
0
 62
7
  6
CONTINUOUS
 10
211.3794261993
 20
223.460562972
  0
VERTEX
  8
0
 62
7
  6
CONTINUOUS
 10
209.7379705323
 20
223.4597179842
  0
VERTEX
  8
0
 62
7
  6
CONTINUOUS
 10
208.0011112978
 20
223.4593140696
  0
VERTEX
  8
0
 62
7
  6
CONTINUOUS
 10
206.1667322263
 20
223.4594878898
  0
VERTEX
  8
0
 62
7
  6
CONTINUOUS
 10
204.2215187145
 20
223.4602216021
  0
VERTEX
  8
0
 62
7
  6
CONTINUOUS
 10
202.1553314748
 20
223.4617269791
  0
VERTEX
  8
0
 62
7
  6
CONTINUOUS
 10
199.9566356144
 20
223.463972013
  0
VERTEX
  8
0
 62
7
  6
CONTINUOUS
 10
197.5609277162
 20
223.4670532188
  0
VERTEX
  8
0
 62
7
  6
CONTINUOUS
 10
195.1170929652
 20
223.471373081
  0
VERTEX
  8
0
 62
7
  6
CONTINUOUS
 10
192.7681656583
 20
223.476098604
  0
VERTEX
  8
0
 62
7
  6
CONTINUOUS
 10
190.466388566
 20
223.4811239246
  0
SEQEND
  0
LINE
  8
0
 62
7
  6
CONTINUOUS
 10
273.2988953159
 20
225.9268332112
 11
272.3615115145
 21
225.9217992976
  0
POLYLINE
  8
0
 62
7
  6
CONTINUOUS
 66
1
 70
0
  0
VERTEX
  8
0
 62
7
  6
CONTINUOUS
 10
-6.6466653753
 20
223.8190187729
  0
VERTEX
  8
0
 62
7
  6
CONTINUOUS
 10
-7.1576558219
 20
223.8163869957
  0
VERTEX
  8
0
 62
7
  6
CONTINUOUS
 10
-7.6559247784
 20
223.8137586907
  0
VERTEX
  8
0
 62
7
  6
CONTINUOUS
 10
-8.1427799441
 20
223.8110599586
  0
VERTEX
  8
0
 62
7
  6
CONTINUOUS
 10
-8.6207069788
 20
223.8083765987
  0
VERTEX
  8
0
 62
7
  6
CONTINUOUS
 10
-9.0916142861
 20
223.8056611421
  0
VERTEX
  8
0
 62
7
  6
CONTINUOUS
 10
-9.5582285812
 20
223.8029646667
  0
VERTEX
  8
0
 62
7
  6
CONTINUOUS
 10
-10.0197410368
 20
223.800302688
  0
VERTEX
  8
0
 62
7
  6
CONTINUOUS
 10
-10.4766318066
 20
223.7976865583
  0
VERTEX
  8
0
 62
7
  6
CONTINUOUS
 10
-10.9278117786
 20
223.7951661203
  0
VERTEX
  8
0
 62
7
  6
CONTINUOUS
 10
-11.3724955307
 20
223.7927450116
  0
VERTEX
  8
0
 62
7
  6
CONTINUOUS
 10
-11.8106783801
 20
223.7904587879
  0
VERTEX
  8
0
 62
7
  6
CONTINUOUS
 10
-12.2405229814
 20
223.7883589473
  0
VERTEX
  8
0
 62
7
  6
CONTINUOUS
 10
-12.6667654707
 20
223.7863949828
  0
VERTEX
  8
0
 62
7
  6
CONTINUOUS
 10
-13.0913240058
 20
223.784701491
  0
VERTEX
  8
0
 62
7
  6
CONTINUOUS
 10
-13.519246792
 20
223.783195659
  0
VERTEX
  8
0
 62
7
  6
CONTINUOUS
 10
-13.956744723
 20
223.782004982
  0
VERTEX
  8
0
 62
7
  6
CONTINUOUS
 10
-14.4000742875
 20
223.7812165749
  0
VERTEX
  8
0
 62
7
  6
CONTINUOUS
 10
-14.8515997886
 20
223.7808382075
  0
VERTEX
  8
0
 62
7
  6
CONTINUOUS
 10
-15.2995143452
 20
223.7811533688
  0
VERTEX
  8
0
 62
7
  6
CONTINUOUS
 10
-15.735687784
 20
223.7820533446
  0
VERTEX
  8
0
 62
7
  6
CONTINUOUS
 10
-16.1557237494
 20
223.7835765175
  0
VERTEX
  8
0
 62
7
  6
CONTINUOUS
 10
-16.5528268913
 20
223.7855623819
  0
VERTEX
  8
0
 62
7
  6
CONTINUOUS
 10
-16.928913401
 20
223.7877340657
  0
VERTEX
  8
0
 62
7
  6
CONTINUOUS
 10
-17.283147579
 20
223.7898888683
  0
VERTEX
  8
0
 62
7
  6
CONTINUOUS
 10
-17.6157016679
 20
223.791989566
  0
VERTEX
  8
0
 62
7
  6
CONTINUOUS
 10
-17.9265771427
 20
223.7938915167
  0
VERTEX
  8
0
 62
7
  6
CONTINUOUS
 10
-18.2158854687
 20
223.7955975087
  0
VERTEX
  8
0
 62
7
  6
CONTINUOUS
 10
-18.4837482952
 20
223.7970104703
  0
VERTEX
  8
0
 62
7
  6
CONTINUOUS
 10
-18.7306028452
 20
223.7981601406
  0
VERTEX
  8
0
 62
7
  6
CONTINUOUS
 10
-18.9561114395
 20
223.7989991332
  0
VERTEX
  8
0
 62
7
  6
CONTINUOUS
 10
-19.1629777214
 20
223.7995926728
  0
VERTEX
  8
0
 62
7
  6
CONTINUOUS
 10
-19.3524926252
 20
223.8000479563
  0
SEQEND
  0
LINE
  8
0
 62
7
  6
CONTINUOUS
 10
274.2325161897
 20
225.931693381
 11
273.2988953159
 21
225.9268332112
  0
POLYLINE
  8
0
 62
7
  6
CONTINUOUS
 66
1
 70
0
  0
VERTEX
  8
0
 62
7
  6
CONTINUOUS
 10
264.0489616091
 20
223.6637239933
  0
VERTEX
  8
0
 62
7
  6
CONTINUOUS
 10
263.481421187
 20
223.6609214715
  0
VERTEX
  8
0
 62
7
  6
CONTINUOUS
 10
262.9081667738
 20
223.6580666639
  0
SEQEND
  0
LINE
  8
0
 62
7
  6
CONTINUOUS
 10
275.1621457333
 20
225.9363789106
 11
274.2325161897
 21
225.931693381
  0
POLYLINE
  8
0
 62
7
  6
CONTINUOUS
 66
1
 70
0
  0
VERTEX
  8
0
 62
7
  6
CONTINUOUS
 10
265.7187627381
 20
223.6717450036
  0
VERTEX
  8
0
 62
7
  6
CONTINUOUS
 10
265.1669883127
 20
223.6691274627
  0
VERTEX
  8
0
 62
7
  6
CONTINUOUS
 10
264.0489616091
 20
223.6637239933
  0
SEQEND
  0
POLYLINE
  8
0
 62
7
  6
CONTINUOUS
 66
1
 70
0
  0
VERTEX
  8
0
 62
7
  6
CONTINUOUS
 10
-22.1939720104
 20
223.8064821142
  0
VERTEX
  8
0
 62
7
  6
CONTINUOUS
 10
-22.5216515778
 20
223.8049079045
  0
VERTEX
  8
0
 62
7
  6
CONTINUOUS
 10
-22.6859353069
 20
223.804333784
  0
VERTEX
  8
0
 62
7
  6
CONTINUOUS
 10
-22.8481009021
 20
223.8040557474
  0
VERTEX
  8
0
 62
7
  6
CONTINUOUS
 10
-23.0069232082
 20
223.8041973783
  0
VERTEX
  8
0
 62
7
  6
CONTINUOUS
 10
-23.1592889404
 20
223.8047284346
  0
VERTEX
  8
0
 62
7
  6
CONTINUOUS
 10
-23.3024470232
 20
223.8055172228
  0
VERTEX
  8
0
 62
7
  6
CONTINUOUS
 10
-23.4356736306
 20
223.8065651531
  0
VERTEX
  8
0
 62
7
  6
CONTINUOUS
 10
-23.556691521
 20
223.8077361277
  0
VERTEX
  8
0
 62
7
  6
CONTINUOUS
 10
-23.6685940892
 20
223.8089928014
  0
VERTEX
  8
0
 62
7
  6
CONTINUOUS
 10
-23.7727497895
 20
223.8103435506
  0
VERTEX
  8
0
 62
7
  6
CONTINUOUS
 10
-23.8712898285
 20
223.8117209446
  0
VERTEX
  8
0
 62
7
  6
CONTINUOUS
 10
-23.9661898708
 20
223.8131866285
  0
VERTEX
  8
0
 62
7
  6
CONTINUOUS
 10
-24.0580896025
 20
223.8146828982
  0
VERTEX
  8
0
 62
7
  6
CONTINUOUS
 10
-24.1483674552
 20
223.8162507924
  0
VERTEX
  8
0
 62
7
  6
CONTINUOUS
 10
-24.2359242691
 20
223.8178863906
  0
VERTEX
  8
0
 62
7
  6
CONTINUOUS
 10
-24.320397744
 20
223.8195735589
  0
VERTEX
  8
0
 62
7
  6
CONTINUOUS
 10
-24.4011750751
 20
223.8213309093
  0
VERTEX
  8
0
 62
7
  6
CONTINUOUS
 10
-24.4777888377
 20
223.8231281695
  0
VERTEX
  8
0
 62
7
  6
CONTINUOUS
 10
-24.5498516246
 20
223.8249853677
  0
VERTEX
  8
0
 62
7
  6
CONTINUOUS
 10
-24.6170111722
 20
223.82686657
  0
VERTEX
  8
0
 62
7
  6
CONTINUOUS
 10
-24.6791513066
 20
223.8287866559
  0
VERTEX
  8
0
 62
7
  6
CONTINUOUS
 10
-24.7361671541
 20
223.8306975993
  0
VERTEX
  8
0
 62
7
  6
CONTINUOUS
 10
-24.7883807549
 20
223.832561869
  0
SEQEND
  0
LINE
  8
0
 62
7
  6
CONTINUOUS
 10
276.0861821872
 20
225.9408822326
 11
275.1621457333
 21
225.9363789106
  0
POLYLINE
  8
0
 62
7
  6
CONTINUOUS
 66
1
 70
0
  0
VERTEX
  8
0
 62
7
  6
CONTINUOUS
 10
267.3517691043
 20
223.6792993073
  0
VERTEX
  8
0
 62
7
  6
CONTINUOUS
 10
266.8106165265
 20
223.6768274857
  0
VERTEX
  8
0
 62
7
  6
CONTINUOUS
 10
265.7187627381
 20
223.6717450036
  0
SEQEND
  0
POLYLINE
  8
0
 62
7
  6
CONTINUOUS
 66
1
 70
0
  0
VERTEX
  8
0
 62
7
  6
CONTINUOUS
 10
277.4577994699
 20
225.9472812768
  0
VERTEX
  8
0
 62
7
  6
CONTINUOUS
 10
277.0028171316
 20
225.9451966525
  0
VERTEX
  8
0
 62
7
  6
CONTINUOUS
 10
276.0861821872
 20
225.9408822326
  0
SEQEND
  0
POLYLINE
  8
0
 62
7
  6
CONTINUOUS
 66
1
 70
0
  0
VERTEX
  8
0
 62
7
  6
CONTINUOUS
 10
268.9612755825
 20
223.686472698
  0
VERTEX
  8
0
 62
7
  6
CONTINUOUS
 10
268.4271102175
 20
223.6841220613
  0
VERTEX
  8
0
 62
7
  6
CONTINUOUS
 10
267.3517691043
 20
223.6792993073
  0
SEQEND
  0
LINE
  8
0
 62
7
  6
CONTINUOUS
 10
278.3599736247
 20
225.9513024922
 11
277.4577994699
 21
225.9472812768
  0
POLYLINE
  8
0
 62
7
  6
CONTINUOUS
 66
1
 70
0
  0
VERTEX
  8
0
 62
7
  6
CONTINUOUS
 10
270.5475290956
 20
223.6932771458
  0
VERTEX
  8
0
 62
7
  6
CONTINUOUS
 10
270.0216774989
 20
223.6910507544
  0
VERTEX
  8
0
 62
7
  6
CONTINUOUS
 10
268.9612755825
 20
223.686472698
  0
SEQEND
  0
LINE
  8
0
 62
7
  6
CONTINUOUS
 10
279.2502800969
 20
225.9551231329
 11
278.3599736247
 21
225.9513024922
  0
POLYLINE
  8
0
 62
7
  6
CONTINUOUS
 66
1
 70
0
  0
VERTEX
  8
0
 62
7
  6
CONTINUOUS
 10
272.1048168595
 20
223.6996986461
  0
VERTEX
  8
0
 62
7
  6
CONTINUOUS
 10
271.5895252699
 20
223.6976022451
  0
VERTEX
  8
0
 62
7
  6
CONTINUOUS
 10
270.5475290956
 20
223.6932771458
  0
SEQEND
  0
LINE
  8
0
 62
7
  6
CONTINUOUS
 10
280.1268881041
 20
225.9587390294
 11
279.2502800969
 21
225.9551231329
  0
POLYLINE
  8
0
 62
7
  6
CONTINUOUS
 66
1
 70
0
  0
VERTEX
  8
0
 62
7
  6
CONTINUOUS
 10
274.1139691213
 20
223.7076156609
  0
VERTEX
  8
0
 62
7
  6
CONTINUOUS
 10
273.6207616724
 20
223.7057108532
  0
VERTEX
  8
0
 62
7
  6
CONTINUOUS
 10
273.1210268006
 20
223.7037544251
  0
VERTEX
  8
0
 62
7
  6
CONTINUOUS
 10
272.1048168595
 20
223.6996986461
  0
SEQEND
  0
POLYLINE
  8
0
 62
7
  6
CONTINUOUS
 66
1
 70
0
  0
VERTEX
  8
0
 62
7
  6
CONTINUOUS
 10
275.552649203
 20
223.7130301823
  0
VERTEX
  8
0
 62
7
  6
CONTINUOUS
 10
275.0798483373
 20
223.7112750081
  0
VERTEX
  8
0
 62
7
  6
CONTINUOUS
 10
274.1139691213
 20
223.7076156609
  0
SEQEND
  0
POLYLINE
  8
0
 62
7
  6
CONTINUOUS
 66
1
 70
0
  0
VERTEX
  8
0
 62
7
  6
CONTINUOUS
 10
277.3873531362
 20
223.7196206543
  0
VERTEX
  8
0
 62
7
  6
CONTINUOUS
 10
276.9361559628
 20
223.7180335686
  0
VERTEX
  8
0
 62
7
  6
CONTINUOUS
 10
276.4802959653
 20
223.7164068851
  0
VERTEX
  8
0
 62
7
  6
CONTINUOUS
 10
275.552649203
 20
223.7130301823
  0
SEQEND
  0
LINE
  8
0
 62
7
  6
CONTINUOUS
 10
288.4322288927
 20
223.7557931376
 11
287.8397771143
 21
223.7538249319
  0
LINE
  8
0
 62
7
  6
CONTINUOUS
 10
287.2148064951
 20
223.7517502987
 11
286.9999935345
 21
223.7510368905
  0
POLYLINE
  8
0
 62
7
  6
CONTINUOUS
 66
1
 70
0
  0
VERTEX
  8
0
 62
7
  6
CONTINUOUS
 10
279.1551083027
 20
223.7256299262
  0
VERTEX
  8
0
 62
7
  6
CONTINUOUS
 10
278.717767111
 20
223.7241750873
  0
VERTEX
  8
0
 62
7
  6
CONTINUOUS
 10
278.2776802751
 20
223.7226892464
  0
VERTEX
  8
0
 62
7
  6
CONTINUOUS
 10
277.3873531362
 20
223.7196206543
  0
SEQEND
  0
POLYLINE
  8
0
 62
7
  6
CONTINUOUS
 66
1
 70
0
  0
VERTEX
  8
0
 62
7
  6
CONTINUOUS
 10
286.9999935345
 20
223.7510368905
  0
VERTEX
  8
0
 62
7
  6
CONTINUOUS
 10
286.8910704561
 20
223.7506753274
  0
VERTEX
  8
0
 62
7
  6
CONTINUOUS
 10
286.7813638161
 20
223.7503109291
  0
SEQEND
  0
LINE
  8
0
 62
7
  6
CONTINUOUS
 10
287.8397771143
 20
223.7538249319
 11
287.2148064951
 21
223.7517502987
  0
POLYLINE
  8
0
 62
7
  6
CONTINUOUS
 66
1
 70
0
  0
VERTEX
  8
0
 62
7
  6
CONTINUOUS
 10
286.7813638161
 20
223.7503109291
  0
VERTEX
  8
0
 62
7
  6
CONTINUOUS
 10
286.4564280834
 20
223.7492332976
  0
VERTEX
  8
0
 62
7
  6
CONTINUOUS
 10
286.3506418178
 20
223.74888271
  0
VERTEX
  8
0
 62
7
  6
CONTINUOUS
 10
286.2460945032
 20
223.7485363712
  0
VERTEX
  8
0
 62
7
  6
CONTINUOUS
 10
286.1427353305
 20
223.7481941692
  0
VERTEX
  8
0
 62
7
  6
CONTINUOUS
 10
286.0405797406
 20
223.7478561395
  0
VERTEX
  8
0
 62
7
  6
CONTINUOUS
 10
285.9396152551
 20
223.7475222629
  0
VERTEX
  8
0
 62
7
  6
CONTINUOUS
 10
285.8398746858
 20
223.7471926617
  0
VERTEX
  8
0
 62
7
  6
CONTINUOUS
 10
285.7415093688
 20
223.7468679094
  0
VERTEX
  8
0
 62
7
  6
CONTINUOUS
 10
285.6441513103
 20
223.7465466045
  0
VERTEX
  8
0
 62
7
  6
CONTINUOUS
 10
285.547787932
 20
223.7462291224
  0
VERTEX
  8
0
 62
7
  6
CONTINUOUS
 10
285.4515022228
 20
223.745911774
  0
VERTEX
  8
0
 62
7
  6
CONTINUOUS
 10
285.2563944554
 20
223.7452697112
  0
SEQEND
  0
POLYLINE
  8
0
 62
7
  6
CONTINUOUS
 66
1
 70
0
  0
VERTEX
  8
0
 62
7
  6
CONTINUOUS
 10
289.8956749494
 20
223.7606470604
  0
VERTEX
  8
0
 62
7
  6
CONTINUOUS
 10
289.8066858553
 20
223.7603524613
  0
VERTEX
  8
0
 62
7
  6
CONTINUOUS
 10
289.7172948349
 20
223.7600563908
  0
VERTEX
  8
0
 62
7
  6
CONTINUOUS
 10
289.6275907238
 20
223.7597591796
  0
VERTEX
  8
0
 62
7
  6
CONTINUOUS
 10
288.4322288927
 20
223.7557931376
  0
SEQEND
  0
POLYLINE
  8
0
 62
7
  6
CONTINUOUS
 66
1
 70
0
  0
VERTEX
  8
0
 62
7
  6
CONTINUOUS
 10
290.6238337736
 20
223.7630528225
  0
VERTEX
  8
0
 62
7
  6
CONTINUOUS
 10
290.432641292
 20
223.7624218553
  0
VERTEX
  8
0
 62
7
  6
CONTINUOUS
 10
290.3405312031
 20
223.7621175817
  0
VERTEX
  8
0
 62
7
  6
CONTINUOUS
 10
290.2503795574
 20
223.7618199806
  0
VERTEX
  8
0
 62
7
  6
CONTINUOUS
 10
290.16140387
 20
223.7615258085
  0
VERTEX
  8
0
 62
7
  6
CONTINUOUS
 10
290.0728147894
 20
223.7612330732
  0
VERTEX
  8
0
 62
7
  6
CONTINUOUS
 10
289.8956749494
 20
223.7606470604
  0
SEQEND
  0
LINE
  8
0
 62
7
  6
CONTINUOUS
 10
290.8261543115
 20
223.7637199291
 11
290.6238337736
 21
223.7630528225
  0
POLYLINE
  8
0
 62
7
  6
CONTINUOUS
 66
1
 70
0
  0
VERTEX
  8
0
 62
7
  6
CONTINUOUS
 10
285.2563944554
 20
223.7452697112
  0
VERTEX
  8
0
 62
7
  6
CONTINUOUS
 10
284.9534014668
 20
223.744273332
  0
VERTEX
  8
0
 62
7
  6
CONTINUOUS
 10
284.8488718939
 20
223.7439295169
  0
VERTEX
  8
0
 62
7
  6
CONTINUOUS
 10
284.7422611499
 20
223.7435790497
  0
VERTEX
  8
0
 62
7
  6
CONTINUOUS
 10
284.6330197893
 20
223.743219677
  0
VERTEX
  8
0
 62
7
  6
CONTINUOUS
 10
284.5190845407
 20
223.7428442149
  0
VERTEX
  8
0
 62
7
  6
CONTINUOUS
 10
284.4048430031
 20
223.7424696036
  0
VERTEX
  8
0
 62
7
  6
CONTINUOUS
 10
284.2936245548
 20
223.7421039237
  0
VERTEX
  8
0
 62
7
  6
CONTINUOUS
 10
284.186566923
 20
223.741753162
  0
SEQEND
  0
POLYLINE
  8
0
 62
7
  6
CONTINUOUS
 66
1
 70
0
  0
VERTEX
  8
0
 62
7
  6
CONTINUOUS
 10
291.5391200989
 20
223.7660640166
  0
VERTEX
  8
0
 62
7
  6
CONTINUOUS
 10
291.4042605618
 20
223.765620706
  0
VERTEX
  8
0
 62
7
  6
CONTINUOUS
 10
291.2771548417
 20
223.7652038186
  0
VERTEX
  8
0
 62
7
  6
CONTINUOUS
 10
291.1568278332
 20
223.7648078945
  0
VERTEX
  8
0
 62
7
  6
CONTINUOUS
 10
291.0421344391
 20
223.7644311211
  0
VERTEX
  8
0
 62
7
  6
CONTINUOUS
 10
290.9322776341
 20
223.7640692704
  0
VERTEX
  8
0
 62
7
  6
CONTINUOUS
 10
290.8261543115
 20
223.7637199291
  0
SEQEND
  0
POLYLINE
  8
0
 62
7
  6
CONTINUOUS
 66
1
 70
0
  0
VERTEX
  8
0
 62
7
  6
CONTINUOUS
 10
280.2320578044
 20
225.9925597751
  0
VERTEX
  8
0
 62
7
  6
CONTINUOUS
 10
277.5134865822
 20
225.9836513932
  0
VERTEX
  8
0
 62
7
  6
CONTINUOUS
 10
274.5851178274
 20
225.9728724639
  0
VERTEX
  8
0
 62
7
  6
CONTINUOUS
 10
271.5974977103
 20
225.9606482311
  0
VERTEX
  8
0
 62
7
  6
CONTINUOUS
 10
268.5498312678
 20
225.9469265894
  0
VERTEX
  8
0
 62
7
  6
CONTINUOUS
 10
265.4383287255
 20
225.9316330463
  0
VERTEX
  8
0
 62
7
  6
CONTINUOUS
 10
262.417837751
 20
225.9155343826
  0
SEQEND
  0
POLYLINE
  8
0
 62
7
  6
CONTINUOUS
 66
1
 70
0
  0
VERTEX
  8
0
 62
7
  6
CONTINUOUS
 10
4.1094579306
 20
225.9910448594
  0
VERTEX
  8
0
 62
7
  6
CONTINUOUS
 10
3.8234860048
 20
225.9900621043
  0
VERTEX
  8
0
 62
7
  6
CONTINUOUS
 10
3.3279940475
 20
225.9886021437
  0
VERTEX
  8
0
 62
7
  6
CONTINUOUS
 10
2.8721792911
 20
225.9875400492
  0
VERTEX
  8
0
 62
7
  6
CONTINUOUS
 10
2.4202130294
 20
225.9867593169
  0
VERTEX
  8
0
 62
7
  6
CONTINUOUS
 10
1.9967115351
 20
225.9862802107
  0
VERTEX
  8
0
 62
7
  6
CONTINUOUS
 10
1.6808009355
 20
225.9860847406
  0
SEQEND
  0
POLYLINE
  8
0
 62
7
  6
CONTINUOUS
 66
1
 70
0
  0
VERTEX
  8
0
 62
7
  6
CONTINUOUS
 10
284.186566923
 20
223.741753162
  0
VERTEX
  8
0
 62
7
  6
CONTINUOUS
 10
283.9008845505
 20
223.7408188032
  0
VERTEX
  8
0
 62
7
  6
CONTINUOUS
 10
283.8139603506
 20
223.7405352468
  0
VERTEX
  8
0
 62
7
  6
CONTINUOUS
 10
283.7304501651
 20
223.74026347
  0
VERTEX
  8
0
 62
7
  6
CONTINUOUS
 10
283.6501367851
 20
223.7400023312
  0
VERTEX
  8
0
 62
7
  6
CONTINUOUS
 10
283.5726957594
 20
223.7397510309
  0
VERTEX
  8
0
 62
7
  6
CONTINUOUS
 10
283.4979781488
 20
223.7395087804
  0
VERTEX
  8
0
 62
7
  6
CONTINUOUS
 10
283.425752055
 20
223.7392749724
  0
VERTEX
  8
0
 62
7
  6
CONTINUOUS
 10
283.3559401796
 20
223.7390491419
  0
SEQEND
  0
LINE
  8
0
 62
7
  6
CONTINUOUS
 10
283.3559401796
 20
223.7390491419
 11
283.2230942132
 21
223.7386199599
  0
LINE
  8
0
 62
7
  6
CONTINUOUS
 10
283.2230942132
 20
223.7386199599
 11
282.9789888812
 21
223.7378321138
  0
POLYLINE
  8
0
 62
7
  6
CONTINUOUS
 66
1
 70
0
  0
VERTEX
  8
0
 62
7
  6
CONTINUOUS
 10
282.9789888812
 20
223.7378321138
  0
VERTEX
  8
0
 62
7
  6
CONTINUOUS
 10
282.8651447889
 20
223.7374649908
  0
VERTEX
  8
0
 62
7
  6
CONTINUOUS
 10
282.8101314474
 20
223.7372877143
  0
VERTEX
  8
0
 62
7
  6
CONTINUOUS
 10
282.7563851353
 20
223.737114616
  0
VERTEX
  8
0
 62
7
  6
CONTINUOUS
 10
282.7039548329
 20
223.7369458967
  0
VERTEX
  8
0
 62
7
  6
CONTINUOUS
 10
282.6526771519
 20
223.7367809825
  0
VERTEX
  8
0
 62
7
  6
CONTINUOUS
 10
282.6024493385
 20
223.7366196348
  0
VERTEX
  8
0
 62
7
  6
CONTINUOUS
 10
282.5531379086
 20
223.7364613337
  0
VERTEX
  8
0
 62
7
  6
CONTINUOUS
 10
282.5045888998
 20
223.7363056439
  0
VERTEX
  8
0
 62
7
  6
CONTINUOUS
 10
282.4567604205
 20
223.7361523654
  0
VERTEX
  8
0
 62
7
  6
CONTINUOUS
 10
282.4095345044
 20
223.7360011302
  0
VERTEX
  8
0
 62
7
  6
CONTINUOUS
 10
282.3629850995
 20
223.7358521669
  0
VERTEX
  8
0
 62
7
  6
CONTINUOUS
 10
282.3171413031
 20
223.7357055498
  0
VERTEX
  8
0
 62
7
  6
CONTINUOUS
 10
282.2720197693
 20
223.7355613396
  0
VERTEX
  8
0
 62
7
  6
CONTINUOUS
 10
282.2276675525
 20
223.735419683
  0
VERTEX
  8
0
 62
7
  6
CONTINUOUS
 10
282.1840225887
 20
223.7352803771
  0
VERTEX
  8
0
 62
7
  6
CONTINUOUS
 10
282.1411349242
 20
223.7351436236
  0
VERTEX
  8
0
 62
7
  6
CONTINUOUS
 10
282.0987151231
 20
223.7350084368
  0
VERTEX
  8
0
 62
7
  6
CONTINUOUS
 10
282.0566071755
 20
223.7348744461
  0
VERTEX
  8
0
 62
7
  6
CONTINUOUS
 10
282.0144601181
 20
223.7347403807
  0
VERTEX
  8
0
 62
7
  6
CONTINUOUS
 10
281.928838727
 20
223.734468374
  0
SEQEND
  0
POLYLINE
  8
0
 62
7
  6
CONTINUOUS
 66
1
 70
0
  0
VERTEX
  8
0
 62
7
  6
CONTINUOUS
 10
281.928838727
 20
223.734468374
  0
VERTEX
  8
0
 62
7
  6
CONTINUOUS
 10
281.8846918854
 20
223.734328262
  0
VERTEX
  8
0
 62
7
  6
CONTINUOUS
 10
281.839084719
 20
223.734183458
  0
VERTEX
  8
0
 62
7
  6
CONTINUOUS
 10
281.7916465049
 20
223.7340330013
  0
VERTEX
  8
0
 62
7
  6
CONTINUOUS
 10
281.7417790319
 20
223.7338747797
  0
SEQEND
  0
POLYLINE
  8
0
 62
7
  6
CONTINUOUS
 66
1
 70
0
  0
VERTEX
  8
0
 62
7
  6
CONTINUOUS
 10
295.0244490946
 20
223.7773201986
  0
VERTEX
  8
0
 62
7
  6
CONTINUOUS
 10
294.5818152105
 20
223.7759126861
  0
VERTEX
  8
0
 62
7
  6
CONTINUOUS
 10
294.3386427677
 20
223.7751351454
  0
VERTEX
  8
0
 62
7
  6
CONTINUOUS
 10
294.0755174049
 20
223.774286831
  0
VERTEX
  8
0
 62
7
  6
CONTINUOUS
 10
293.8039866146
 20
223.7734213395
  0
VERTEX
  8
0
 62
7
  6
CONTINUOUS
 10
293.5311537918
 20
223.7725361878
  0
VERTEX
  8
0
 62
7
  6
CONTINUOUS
 10
293.2654833786
 20
223.7716850383
  0
VERTEX
  8
0
 62
7
  6
CONTINUOUS
 10
293.0194286401
 20
223.7708897441
  0
VERTEX
  8
0
 62
7
  6
CONTINUOUS
 10
292.7883303285
 20
223.7701394787
  0
VERTEX
  8
0
 62
7
  6
CONTINUOUS
 10
292.5719825761
 20
223.7694376281
  0
VERTEX
  8
0
 62
7
  6
CONTINUOUS
 10
292.3694508245
 20
223.7687775009
  0
VERTEX
  8
0
 62
7
  6
CONTINUOUS
 10
292.1799271097
 20
223.7681604751
  0
VERTEX
  8
0
 62
7
  6
CONTINUOUS
 10
292.0027950184
 20
223.7675813904
  0
VERTEX
  8
0
 62
7
  6
CONTINUOUS
 10
291.5391200989
 20
223.7660640166
  0
SEQEND
  0
POLYLINE
  8
0
 62
7
  6
CONTINUOUS
 66
1
 70
0
  0
VERTEX
  8
0
 62
7
  6
CONTINUOUS
 10
281.7417790319
 20
223.7338747797
  0
VERTEX
  8
0
 62
7
  6
CONTINUOUS
 10
281.6325884412
 20
223.7335290234
  0
VERTEX
  8
0
 62
7
  6
CONTINUOUS
 10
281.5722746811
 20
223.7333385737
  0
VERTEX
  8
0
 62
7
  6
CONTINUOUS
 10
281.5079733025
 20
223.7331356316
  0
SEQEND
  0
POLYLINE
  8
0
 62
7
  6
CONTINUOUS
 66
1
 70
0
  0
VERTEX
  8
0
 62
7
  6
CONTINUOUS
 10
281.5079733025
 20
223.7331356316
  0
VERTEX
  8
0
 62
7
  6
CONTINUOUS
 10
281.3668801594
 20
223.732690753
  0
VERTEX
  8
0
 62
7
  6
CONTINUOUS
 10
281.2883758195
 20
223.7324433718
  0
VERTEX
  8
0
 62
7
  6
CONTINUOUS
 10
281.2065755921
 20
223.7321869768
  0
VERTEX
  8
0
 62
7
  6
CONTINUOUS
 10
280.886600782
 20
223.7311869876
  0
SEQEND
  0
LINE
  8
0
 62
7
  6
CONTINUOUS
 10
295.4141699839
 20
223.7785532818
 11
295.0244490946
 21
223.7773201986
  0
POLYLINE
  8
0
 62
7
  6
CONTINUOUS
 66
1
 70
0
  0
VERTEX
  8
0
 62
7
  6
CONTINUOUS
 10
280.886600782
 20
223.7311869876
  0
VERTEX
  8
0
 62
7
  6
CONTINUOUS
 10
280.4556768436
 20
223.7298356854
  0
VERTEX
  8
0
 62
7
  6
CONTINUOUS
 10
280.0234542155
 20
223.7284586851
  0
VERTEX
  8
0
 62
7
  6
CONTINUOUS
 10
279.1551083027
 20
223.7256299262
  0
SEQEND
  0
POLYLINE
  8
0
 62
7
  6
CONTINUOUS
 66
1
 70
0
  0
VERTEX
  8
0
 62
7
  6
CONTINUOUS
 10
296.5745326859
 20
223.7821904649
  0
VERTEX
  8
0
 62
7
  6
CONTINUOUS
 10
296.4523643832
 20
223.7818096318
  0
VERTEX
  8
0
 62
7
  6
CONTINUOUS
 10
296.3256458639
 20
223.7814149381
  0
VERTEX
  8
0
 62
7
  6
CONTINUOUS
 10
296.1935529629
 20
223.7810018912
  0
VERTEX
  8
0
 62
7
  6
CONTINUOUS
 10
296.0553497795
 20
223.7805701465
  0
VERTEX
  8
0
 62
7
  6
CONTINUOUS
 10
295.9096387033
 20
223.7801126104
  0
VERTEX
  8
0
 62
7
  6
CONTINUOUS
 10
295.7552697308
 20
223.7796285432
  0
VERTEX
  8
0
 62
7
  6
CONTINUOUS
 10
295.59074244
 20
223.7791095867
  0
VERTEX
  8
0
 62
7
  6
CONTINUOUS
 10
295.4141699839
 20
223.7785532818
  0
SEQEND
  0
LINE
  8
0
 62
7
  6
CONTINUOUS
 10
297.0393669018
 20
223.7836318273
 11
296.5745326859
 21
223.7821904649
  0
LINE
  8
0
 62
7
  6
CONTINUOUS
 10
297.2717613336
 20
223.7843487528
 11
297.0393669018
 21
223.7836318273
  0
POLYLINE
  8
0
 62
7
  6
CONTINUOUS
 66
1
 70
0
  0
VERTEX
  8
0
 62
7
  6
CONTINUOUS
 10
300.2656237675
 20
223.793361748
  0
VERTEX
  8
0
 62
7
  6
CONTINUOUS
 10
300.0942368103
 20
223.7928555657
  0
VERTEX
  8
0
 62
7
  6
CONTINUOUS
 10
299.9124691342
 20
223.7923197911
  0
VERTEX
  8
0
 62
7
  6
CONTINUOUS
 10
299.7212709601
 20
223.791753498
  0
VERTEX
  8
0
 62
7
  6
CONTINUOUS
 10
299.5174191781
 20
223.7911445415
  0
VERTEX
  8
0
 62
7
  6
CONTINUOUS
 10
299.308911998
 20
223.7905270796
  0
VERTEX
  8
0
 62
7
  6
CONTINUOUS
 10
299.1013814826
 20
223.7899037332
  0
VERTEX
  8
0
 62
7
  6
CONTINUOUS
 10
298.8988158232
 20
223.7892995096
  0
VERTEX
  8
0
 62
7
  6
CONTINUOUS
 10
298.7073731823
 20
223.788724116
  0
VERTEX
  8
0
 62
7
  6
CONTINUOUS
 10
298.5262684792
 20
223.7881788425
  0
VERTEX
  8
0
 62
7
  6
CONTINUOUS
 10
298.3575270194
 20
223.7876697391
  0
VERTEX
  8
0
 62
7
  6
CONTINUOUS
 10
298.1988847616
 20
223.7871876757
  0
VERTEX
  8
0
 62
7
  6
CONTINUOUS
 10
298.0492022782
 20
223.7867330426
  0
VERTEX
  8
0
 62
7
  6
CONTINUOUS
 10
297.9071011232
 20
223.786298557
  0
VERTEX
  8
0
 62
7
  6
CONTINUOUS
 10
297.7710585424
 20
223.7858828352
  0
VERTEX
  8
0
 62
7
  6
CONTINUOUS
 10
297.6403425287
 20
223.7854815547
  0
VERTEX
  8
0
 62
7
  6
CONTINUOUS
 10
297.5138515499
 20
223.7850934772
  0
VERTEX
  8
0
 62
7
  6
CONTINUOUS
 10
297.3911558063
 20
223.7847159195
  0
VERTEX
  8
0
 62
7
  6
CONTINUOUS
 10
297.2717613336
 20
223.7843487528
  0
SEQEND
  0
POLYLINE
  8
0
 62
7
  6
CONTINUOUS
 66
1
 70
0
  0
VERTEX
  8
0
 62
7
  6
CONTINUOUS
 10
302.1718999462
 20
223.7988656161
  0
VERTEX
  8
0
 62
7
  6
CONTINUOUS
 10
302.0340925743
 20
223.7984730535
  0
VERTEX
  8
0
 62
7
  6
CONTINUOUS
 10
301.8903048528
 20
223.7980629388
  0
VERTEX
  8
0
 62
7
  6
CONTINUOUS
 10
301.7410400793
 20
223.7976360181
  0
VERTEX
  8
0
 62
7
  6
CONTINUOUS
 10
301.585909058
 20
223.7971914831
  0
VERTEX
  8
0
 62
7
  6
CONTINUOUS
 10
301.4258975078
 20
223.7967324022
  0
VERTEX
  8
0
 62
7
  6
CONTINUOUS
 10
301.2612065958
 20
223.7962569421
  0
VERTEX
  8
0
 62
7
  6
CONTINUOUS
 10
301.0938105756
 20
223.795774014
  0
VERTEX
  8
0
 62
7
  6
CONTINUOUS
 10
300.9250494626
 20
223.7952836496
  0
VERTEX
  8
0
 62
7
  6
CONTINUOUS
 10
300.7570550318
 20
223.7947964533
  0
VERTEX
  8
0
 62
7
  6
CONTINUOUS
 10
300.2656237675
 20
223.793361748
  0
SEQEND
  0
LINE
  8
0
 62
7
  6
CONTINUOUS
 10
302.435862119
 20
223.7996129533
 11
302.1718999462
 21
223.7988656161
  0
POLYLINE
  8
0
 62
7
  6
CONTINUOUS
 66
1
 70
0
  0
VERTEX
  8
0
 62
7
  6
CONTINUOUS
 10
303.9030779205
 20
223.8037007992
  0
VERTEX
  8
0
 62
7
  6
CONTINUOUS
 10
303.747566602
 20
223.8032734943
  0
VERTEX
  8
0
 62
7
  6
CONTINUOUS
 10
303.6003970776
 20
223.8028665332
  0
VERTEX
  8
0
 62
7
  6
CONTINUOUS
 10
303.4611725125
 20
223.8024823702
  0
VERTEX
  8
0
 62
7
  6
CONTINUOUS
 10
303.3276809351
 20
223.8021110475
  0
VERTEX
  8
0
 62
7
  6
CONTINUOUS
 10
303.1980184332
 20
223.8017510561
  0
VERTEX
  8
0
 62
7
  6
CONTINUOUS
 10
303.0708325044
 20
223.8013955351
  0
VERTEX
  8
0
 62
7
  6
CONTINUOUS
 10
302.9441773527
 20
223.8010416893
  0
VERTEX
  8
0
 62
7
  6
CONTINUOUS
 10
302.8179058899
 20
223.8006875513
  0
VERTEX
  8
0
 62
7
  6
CONTINUOUS
 10
302.691372563
 20
223.8003325016
  0
VERTEX
  8
0
 62
7
  6
CONTINUOUS
 10
302.435862119
 20
223.7996129533
  0
SEQEND
  0
POLYLINE
  8
0
 62
7
  6
CONTINUOUS
 66
1
 70
0
  0
VERTEX
  8
0
 62
7
  6
CONTINUOUS
 10
175.9324885382
 20
223.507757624
  0
VERTEX
  8
0
 62
7
  6
CONTINUOUS
 10
174.8392813397
 20
223.50466189
  0
VERTEX
  8
0
 62
7
  6
CONTINUOUS
 10
173.6889419691
 20
223.5014624232
  0
VERTEX
  8
0
 62
7
  6
CONTINUOUS
 10
172.4729756146
 20
223.4981561531
  0
VERTEX
  8
0
 62
7
  6
CONTINUOUS
 10
171.1981463703
 20
223.4947910344
  0
VERTEX
  8
0
 62
7
  6
CONTINUOUS
 10
169.873834236
 20
223.491425696
  0
VERTEX
  8
0
 62
7
  6
CONTINUOUS
 10
168.4837130404
 20
223.4880180868
  0
VERTEX
  8
0
 62
7
  6
CONTINUOUS
 10
167.0129321281
 20
223.4845393072
  0
VERTEX
  8
0
 62
7
  6
CONTINUOUS
 10
165.4664796846
 20
223.4811109242
  0
SEQEND
  0
LINE
  8
0
 62
7
  6
CONTINUOUS
 10
177.9662409427
 20
223.5136463464
 11
175.9324885382
 21
223.507757624
  0
LINE
  8
0
 62
7
  6
CONTINUOUS
 10
2.3914806627
 20
223.841730382
 11
1.9984104119
 21
223.8405123351
  0
LINE
  8
0
 62
7
  6
CONTINUOUS
 10
178.4460886264
 20
225.7405272993
 11
178.2073269735
 21
225.7398446423
  0
POLYLINE
  8
0
 62
7
  6
CONTINUOUS
 66
1
 70
0
  0
VERTEX
  8
0
 62
7
  6
CONTINUOUS
 10
177.968565059
 20
225.7405273031
  0
VERTEX
  8
0
 62
7
  6
CONTINUOUS
 10
170.2209649297
 20
225.7183768531
  0
VERTEX
  8
0
 62
7
  6
CONTINUOUS
 10
162.680467194
 20
225.7015545541
  0
VERTEX
  8
0
 62
7
  6
CONTINUOUS
 10
155.152963138
 20
225.6916780644
  0
VERTEX
  8
0
 62
7
  6
CONTINUOUS
 10
147.5858140633
 20
225.6906901664
  0
VERTEX
  8
0
 62
7
  6
CONTINUOUS
 10
139.960020828
 20
225.7001039038
  0
VERTEX
  8
0
 62
7
  6
CONTINUOUS
 10
132.5299884909
 20
225.7194171659
  0
VERTEX
  8
0
 62
7
  6
CONTINUOUS
 10
125.9307461945
 20
225.7440664299
  0
VERTEX
  8
0
 62
7
  6
CONTINUOUS
 10
119.3085773138
 20
225.7744415604
  0
VERTEX
  8
0
 62
7
  6
CONTINUOUS
 10
112.620234289
 20
225.8091266095
  0
VERTEX
  8
0
 62
7
  6
CONTINUOUS
 10
105.974823733
 20
225.8458365022
  0
VERTEX
  8
0
 62
7
  6
CONTINUOUS
 10
99.5351767061
 20
225.8821058326
  0
VERTEX
  8
0
 62
7
  6
CONTINUOUS
 10
93.5401558296
 20
225.9155603028
  0
SEQEND
  0
POLYLINE
  8
0
 62
7
  6
CONTINUOUS
 66
1
 70
0
  0
VERTEX
  8
0
 62
7
  6
CONTINUOUS
 10
304.8259313098
 20
223.8062135399
  0
VERTEX
  8
0
 62
7
  6
CONTINUOUS
 10
304.4264612955
 20
223.8051318285
  0
VERTEX
  8
0
 62
7
  6
CONTINUOUS
 10
304.2425064504
 20
223.8046302191
  0
VERTEX
  8
0
 62
7
  6
CONTINUOUS
 10
303.9030779205
 20
223.8037007992
  0
SEQEND
  0
POLYLINE
  8
0
 62
7
  6
CONTINUOUS
 66
1
 70
0
  0
VERTEX
  8
0
 62
7
  6
CONTINUOUS
 10
306.6686914806
 20
223.8110907198
  0
VERTEX
  8
0
 62
7
  6
CONTINUOUS
 10
306.35257914
 20
223.8102702256
  0
VERTEX
  8
0
 62
7
  6
CONTINUOUS
 10
306.0562287876
 20
223.8094902703
  0
VERTEX
  8
0
 62
7
  6
CONTINUOUS
 10
305.7783963836
 20
223.8087598139
  0
VERTEX
  8
0
 62
7
  6
CONTINUOUS
 10
305.5177979556
 20
223.8080659768
  0
VERTEX
  8
0
 62
7
  6
CONTINUOUS
 10
305.2732058225
 20
223.807415508
  0
VERTEX
  8
0
 62
7
  6
CONTINUOUS
 10
305.0431320483
 20
223.8067966751
  0
VERTEX
  8
0
 62
7
  6
CONTINUOUS
 10
304.8259313098
 20
223.8062135399
  0
SEQEND
  0
POLYLINE
  8
0
 62
7
  6
CONTINUOUS
 66
1
 70
0
  0
VERTEX
  8
0
 62
7
  6
CONTINUOUS
 10
309.9954714506
 20
223.8194305645
  0
VERTEX
  8
0
 62
7
  6
CONTINUOUS
 10
309.6242042071
 20
223.8185295904
  0
VERTEX
  8
0
 62
7
  6
CONTINUOUS
 10
309.2514136011
 20
223.8176179821
  0
VERTEX
  8
0
 62
7
  6
CONTINUOUS
 10
308.8765538478
 20
223.8166924214
  0
VERTEX
  8
0
 62
7
  6
CONTINUOUS
 10
308.4981967272
 20
223.815748381
  0
VERTEX
  8
0
 62
7
  6
CONTINUOUS
 10
308.1190458243
 20
223.8147999224
  0
VERTEX
  8
0
 62
7
  6
CONTINUOUS
 10
307.7382882267
 20
223.8138271579
  0
VERTEX
  8
0
 62
7
  6
CONTINUOUS
 10
306.6686914806
 20
223.8110907198
  0
SEQEND
  0
LINE
  8
0
 62
7
  6
CONTINUOUS
 10
1.9984104119
 20
223.8405123351
 11
1.6990687072
 21
223.8397028517
  0
POLYLINE
  8
0
 62
7
  6
CONTINUOUS
 66
1
 70
0
  0
VERTEX
  8
0
 62
7
  6
CONTINUOUS
 10
313.2204196206
 20
223.8269440592
  0
VERTEX
  8
0
 62
7
  6
CONTINUOUS
 10
312.872808313
 20
223.8261631996
  0
VERTEX
  8
0
 62
7
  6
CONTINUOUS
 10
312.5247442777
 20
223.8253703307
  0
VERTEX
  8
0
 62
7
  6
CONTINUOUS
 10
312.1748335368
 20
223.8245714245
  0
VERTEX
  8
0
 62
7
  6
CONTINUOUS
 10
311.8216806485
 20
223.8237539989
  0
VERTEX
  8
0
 62
7
  6
CONTINUOUS
 10
311.4628298751
 20
223.8229173831
  0
VERTEX
  8
0
 62
7
  6
CONTINUOUS
 10
311.1000003226
 20
223.822066635
  0
VERTEX
  8
0
 62
7
  6
CONTINUOUS
 10
310.7337765878
 20
223.8211983466
  0
VERTEX
  8
0
 62
7
  6
CONTINUOUS
 10
309.9954714506
 20
223.8194305645
  0
SEQEND
  0
POLYLINE
  8
0
 62
7
  6
CONTINUOUS
 66
1
 70
0
  0
VERTEX
  8
0
 62
7
  6
CONTINUOUS
 10
165.4664827452
 20
223.4811168139
  0
VERTEX
  8
0
 62
7
  6
CONTINUOUS
 10
163.1892569584
 20
223.4761791034
  0
VERTEX
  8
0
 62
7
  6
CONTINUOUS
 10
160.8506045822
 20
223.47143907
  0
VERTEX
  8
0
 62
7
  6
CONTINUOUS
 10
158.399294399
 20
223.4670805762
  0
VERTEX
  8
0
 62
7
  6
CONTINUOUS
 10
155.9887349276
 20
223.4639862247
  0
VERTEX
  8
0
 62
7
  6
CONTINUOUS
 10
153.7776870461
 20
223.4617245579
  0
VERTEX
  8
0
 62
7
  6
CONTINUOUS
 10
151.6996988547
 20
223.4602146453
  0
VERTEX
  8
0
 62
7
  6
CONTINUOUS
 10
149.7448631662
 20
223.4594833822
  0
VERTEX
  8
0
 62
7
  6
CONTINUOUS
 10
147.9021992326
 20
223.4593164847
  0
VERTEX
  8
0
 62
7
  6
CONTINUOUS
 10
146.1580334125
 20
223.4597328091
  0
VERTEX
  8
0
 62
7
  6
CONTINUOUS
 10
144.5104311091
 20
223.460593448
  0
VERTEX
  8
0
 62
7
  6
CONTINUOUS
 10
142.95286132
 20
223.4618756198
  0
VERTEX
  8
0
 62
7
  6
CONTINUOUS
 10
141.4853949625
 20
223.4634744284
  0
VERTEX
  8
0
 62
7
  6
CONTINUOUS
 10
140.1091035431
 20
223.465345406
  0
VERTEX
  8
0
 62
7
  6
CONTINUOUS
 10
138.8144326088
 20
223.4673935456
  0
VERTEX
  8
0
 62
7
  6
CONTINUOUS
 10
137.5916704622
 20
223.4696162338
  0
VERTEX
  8
0
 62
7
  6
CONTINUOUS
 10
136.4423120359
 20
223.4719347977
  0
VERTEX
  8
0
 62
7
  6
CONTINUOUS
 10
135.3747656503
 20
223.4743141031
  0
VERTEX
  8
0
 62
7
  6
CONTINUOUS
 10
134.358562312
 20
223.4767070954
  0
VERTEX
  8
0
 62
7
  6
CONTINUOUS
 10
133.3871249149
 20
223.4792291335
  0
VERTEX
  8
0
 62
7
  6
CONTINUOUS
 10
132.3970897058
 20
223.4818427846
  0
VERTEX
  8
0
 62
7
  6
CONTINUOUS
 10
131.3151303275
 20
223.4849403977
  0
VERTEX
  8
0
 62
7
  6
CONTINUOUS
 10
130.1643456815
 20
223.4884133373
  0
VERTEX
  8
0
 62
7
  6
CONTINUOUS
 10
128.9446326078
 20
223.4923303726
  0
VERTEX
  8
0
 62
7
  6
CONTINUOUS
 10
127.6522444891
 20
223.4966846525
  0
VERTEX
  8
0
 62
7
  6
CONTINUOUS
 10
126.2887849507
 20
223.5015720959
  0
VERTEX
  8
0
 62
7
  6
CONTINUOUS
 10
124.8380583481
 20
223.5069631935
  0
VERTEX
  8
0
 62
7
  6
CONTINUOUS
 10
123.2854506558
 20
223.5130835454
  0
VERTEX
  8
0
 62
7
  6
CONTINUOUS
 10
121.6277060169
 20
223.5198402977
  0
VERTEX
  8
0
 62
7
  6
CONTINUOUS
 10
119.8546457056
 20
223.5274294769
  0
VERTEX
  8
0
 62
7
  6
CONTINUOUS
 10
117.9723179253
 20
223.5357451088
  0
VERTEX
  8
0
 62
7
  6
CONTINUOUS
 10
115.9779625441
 20
223.5448670202
  0
VERTEX
  8
0
 62
7
  6
CONTINUOUS
 10
113.8877683033
 20
223.5547232485
  0
VERTEX
  8
0
 62
7
  6
CONTINUOUS
 10
111.7203991288
 20
223.5652106998
  0
VERTEX
  8
0
 62
7
  6
CONTINUOUS
 10
109.4657205103
 20
223.5762451874
  0
VERTEX
  8
0
 62
7
  6
CONTINUOUS
 10
107.1387605771
 20
223.5880237642
  0
VERTEX
  8
0
 62
7
  6
CONTINUOUS
 10
104.6825948687
 20
223.6001049612
  0
VERTEX
  8
0
 62
7
  6
CONTINUOUS
 10
102.0417578067
 20
223.6134472193
  0
VERTEX
  8
0
 62
7
  6
CONTINUOUS
 10
99.2262412351
 20
223.6273657715
  0
VERTEX
  8
0
 62
7
  6
CONTINUOUS
 10
96.2265891034
 20
223.6409330162
  0
VERTEX
  8
0
 62
7
  6
CONTINUOUS
 10
93.0453329613
 20
223.657579033
  0
SEQEND
  0
POLYLINE
  8
0
 62
7
  6
CONTINUOUS
 66
1
 70
0
  0
VERTEX
  8
0
 62
7
  6
CONTINUOUS
 10
316.6788123157
 20
223.834381224
  0
VERTEX
  8
0
 62
7
  6
CONTINUOUS
 10
316.3401222363
 20
223.8336806961
  0
VERTEX
  8
0
 62
7
  6
CONTINUOUS
 10
315.9998737329
 20
223.8329695454
  0
VERTEX
  8
0
 62
7
  6
CONTINUOUS
 10
315.6577299496
 20
223.8322484293
  0
VERTEX
  8
0
 62
7
  6
CONTINUOUS
 10
315.3136956459
 20
223.8315171452
  0
VERTEX
  8
0
 62
7
  6
CONTINUOUS
 10
314.9675168688
 20
223.8307758143
  0
VERTEX
  8
0
 62
7
  6
CONTINUOUS
 10
314.619629153
 20
223.8300260295
  0
VERTEX
  8
0
 62
7
  6
CONTINUOUS
 10
314.2700454119
 20
223.829265239
  0
VERTEX
  8
0
 62
7
  6
CONTINUOUS
 10
313.9197933671
 20
223.8284989675
  0
VERTEX
  8
0
 62
7
  6
CONTINUOUS
 10
313.2204196206
 20
223.8269440592
  0
SEQEND
  0
POLYLINE
  8
0
 62
7
  6
CONTINUOUS
 66
1
 70
0
  0
VERTEX
  8
0
 62
7
  6
CONTINUOUS
 10
3.5784016006
 20
223.8422270025
  0
VERTEX
  8
0
 62
7
  6
CONTINUOUS
 10
3.4910089847
 20
223.8420470659
  0
VERTEX
  8
0
 62
7
  6
CONTINUOUS
 10
3.408127842
 20
223.841874727
  0
VERTEX
  8
0
 62
7
  6
CONTINUOUS
 10
3.3293100362
 20
223.8417112026
  0
VERTEX
  8
0
 62
7
  6
CONTINUOUS
 10
3.2545452721
 20
223.8415551839
  0
VERTEX
  8
0
 62
7
  6
CONTINUOUS
 10
3.1837772513
 20
223.8414078315
  0
VERTEX
  8
0
 62
7
  6
CONTINUOUS
 10
3.116704161
 20
223.8412671736
  0
VERTEX
  8
0
 62
7
  6
CONTINUOUS
 10
3.0530919948
 20
223.8411340476
  0
VERTEX
  8
0
 62
7
  6
CONTINUOUS
 10
2.992691978
 20
223.8410067386
  0
VERTEX
  8
0
 62
7
  6
CONTINUOUS
 10
2.935222068
 20
223.8408857719
  0
VERTEX
  8
0
 62
7
  6
CONTINUOUS
 10
2.8805575961
 20
223.8407701018
  0
VERTEX
  8
0
 62
7
  6
CONTINUOUS
 10
2.8285009188
 20
223.8406601305
  0
VERTEX
  8
0
 62
7
  6
CONTINUOUS
 10
2.7789951961
 20
223.8405552254
  0
VERTEX
  8
0
 62
7
  6
CONTINUOUS
 10
2.7319610537
 20
223.8404558451
  0
VERTEX
  8
0
 62
7
  6
CONTINUOUS
 10
2.6872723977
 20
223.8403611203
  0
VERTEX
  8
0
 62
7
  6
CONTINUOUS
 10
2.6448624928
 20
223.8402713741
  0
VERTEX
  8
0
 62
7
  6
CONTINUOUS
 10
2.6044778477
 20
223.840185495
  0
VERTEX
  8
0
 62
7
  6
CONTINUOUS
 10
2.5659157139
 20
223.8401036486
  0
VERTEX
  8
0
 62
7
  6
CONTINUOUS
 10
2.5289621883
 20
223.8400248948
  0
VERTEX
  8
0
 62
7
  6
CONTINUOUS
 10
2.4933797649
 20
223.8399493534
  0
VERTEX
  8
0
 62
7
  6
CONTINUOUS
 10
2.4590408641
 20
223.8398762224
  0
VERTEX
  8
0
 62
7
  6
CONTINUOUS
 10
2.4257149938
 20
223.8398057101
  0
VERTEX
  8
0
 62
7
  6
CONTINUOUS
 10
2.3934762906
 20
223.8397363799
  0
SEQEND
  0
LINE
  8
0
 62
7
  6
CONTINUOUS
 10
1.6990687072
 20
223.8397028517
 11
1.3827164101
 21
223.8389582997
  0
POLYLINE
  8
0
 62
7
  6
CONTINUOUS
 66
1
 70
0
  0
VERTEX
  8
0
 62
7
  6
CONTINUOUS
 10
319.6703563837
 20
223.8402800155
  0
VERTEX
  8
0
 62
7
  6
CONTINUOUS
 10
319.3433090597
 20
223.8396601345
  0
VERTEX
  8
0
 62
7
  6
CONTINUOUS
 10
319.0148850839
 20
223.8390314658
  0
VERTEX
  8
0
 62
7
  6
CONTINUOUS
 10
318.685096836
 20
223.8383940194
  0
VERTEX
  8
0
 62
7
  6
CONTINUOUS
 10
318.3539445203
 20
223.8377477705
  0
VERTEX
  8
0
 62
7
  6
CONTINUOUS
 10
318.0214510251
 20
223.8370926529
  0
VERTEX
  8
0
 62
7
  6
CONTINUOUS
 10
317.6876092578
 20
223.8364282452
  0
VERTEX
  8
0
 62
7
  6
CONTINUOUS
 10
317.3525104729
 20
223.8357550247
  0
VERTEX
  8
0
 62
7
  6
CONTINUOUS
 10
316.6788123157
 20
223.834381224
  0
SEQEND
  0
POLYLINE
  8
0
 62
7
  6
CONTINUOUS
 66
1
 70
0
  0
VERTEX
  8
0
 62
7
  6
CONTINUOUS
 10
5.3357665267
 20
223.8457086688
  0
VERTEX
  8
0
 62
7
  6
CONTINUOUS
 10
5.1412142468
 20
223.8453403724
  0
VERTEX
  8
0
 62
7
  6
CONTINUOUS
 10
4.9599785249
 20
223.8449925059
  0
VERTEX
  8
0
 62
7
  6
CONTINUOUS
 10
4.7907128145
 20
223.844661517
  0
VERTEX
  8
0
 62
7
  6
CONTINUOUS
 10
4.6336037005
 20
223.8443570213
  0
VERTEX
  8
0
 62
7
  6
CONTINUOUS
 10
4.4867886884
 20
223.8440637702
  0
VERTEX
  8
0
 62
7
  6
CONTINUOUS
 10
4.3486654507
 20
223.8437911106
  0
VERTEX
  8
0
 62
7
  6
CONTINUOUS
 10
4.2187476138
 20
223.8435294432
  0
VERTEX
  8
0
 62
7
  6
CONTINUOUS
 10
4.0961626523
 20
223.8432839847
  0
VERTEX
  8
0
 62
7
  6
CONTINUOUS
 10
3.9805244141
 20
223.8430489233
  0
VERTEX
  8
0
 62
7
  6
CONTINUOUS
 10
3.768093724
 20
223.8426163439
  0
SEQEND
  0
LINE
  8
0
 62
7
  6
CONTINUOUS
 10
3.768093724
 20
223.8426163439
 11
3.5784016006
 21
223.8422270025
  0
POLYLINE
  8
0
 62
7
  6
CONTINUOUS
 66
1
 70
0
  0
VERTEX
  8
0
 62
7
  6
CONTINUOUS
 10
322.2377218114
 20
223.8449147921
  0
VERTEX
  8
0
 62
7
  6
CONTINUOUS
 10
321.9214927928
 20
223.844367342
  0
VERTEX
  8
0
 62
7
  6
CONTINUOUS
 10
321.6039799226
 20
223.8438108153
  0
VERTEX
  8
0
 62
7
  6
CONTINUOUS
 10
321.2851408287
 20
223.8432450464
  0
VERTEX
  8
0
 62
7
  6
CONTINUOUS
 10
320.9649320338
 20
223.8426701823
  0
VERTEX
  8
0
 62
7
  6
CONTINUOUS
 10
320.6433532736
 20
223.842086185
  0
VERTEX
  8
0
 62
7
  6
CONTINUOUS
 10
320.3203813365
 20
223.841493073
  0
VERTEX
  8
0
 62
7
  6
CONTINUOUS
 10
319.6703563837
 20
223.8402800155
  0
SEQEND
  0
POLYLINE
  8
0
 62
7
  6
CONTINUOUS
 66
1
 70
0
  0
VERTEX
  8
0
 62
7
  6
CONTINUOUS
 10
6.6414313193
 20
223.8481196321
  0
VERTEX
  8
0
 62
7
  6
CONTINUOUS
 10
6.4194496255
 20
223.8477205362
  0
VERTEX
  8
0
 62
7
  6
CONTINUOUS
 10
6.1973579461
 20
223.8473155021
  0
VERTEX
  8
0
 62
7
  6
CONTINUOUS
 10
5.7559586186
 20
223.8464941897
  0
SEQEND
  0
LINE
  8
0
 62
7
  6
CONTINUOUS
 10
5.7559586186
 20
223.8464941897
 11
5.3357665267
 21
223.8457086688
  0
LINE
  8
0
 62
7
  6
CONTINUOUS
 10
1.3827164101
 20
223.8389582997
 11
1.0845198859
 21
223.8383619832
  0
POLYLINE
  8
0
 62
7
  6
CONTINUOUS
 66
1
 70
0
  0
VERTEX
  8
0
 62
7
  6
CONTINUOUS
 10
324.7227325548
 20
223.8489662506
  0
VERTEX
  8
0
 62
7
  6
CONTINUOUS
 10
324.4163325859
 20
223.8484913228
  0
VERTEX
  8
0
 62
7
  6
CONTINUOUS
 10
324.1087410635
 20
223.8480075014
  0
VERTEX
  8
0
 62
7
  6
CONTINUOUS
 10
323.799951389
 20
223.8475147238
  0
VERTEX
  8
0
 62
7
  6
CONTINUOUS
 10
323.489965857
 20
223.8470129559
  0
VERTEX
  8
0
 62
7
  6
CONTINUOUS
 10
323.1787659311
 20
223.8465020962
  0
VERTEX
  8
0
 62
7
  6
CONTINUOUS
 10
322.8663418313
 20
223.8459821747
  0
VERTEX
  8
0
 62
7
  6
CONTINUOUS
 10
322.2377218114
 20
223.8449147921
  0
SEQEND
  0
POLYLINE
  8
0
 62
7
  6
CONTINUOUS
 66
1
 70
0
  0
VERTEX
  8
0
 62
7
  6
CONTINUOUS
 10
8.4434661734
 20
223.8511989355
  0
VERTEX
  8
0
 62
7
  6
CONTINUOUS
 10
8.2158027518
 20
223.850825342
  0
VERTEX
  8
0
 62
7
  6
CONTINUOUS
 10
7.988797398
 20
223.8504480677
  0
VERTEX
  8
0
 62
7
  6
CONTINUOUS
 10
6.6414313193
 20
223.8481196321
  0
SEQEND
  0
POLYLINE
  8
0
 62
7
  6
CONTINUOUS
 66
1
 70
0
  0
VERTEX
  8
0
 62
7
  6
CONTINUOUS
 10
326.5358378837
 20
223.8516227136
  0
VERTEX
  8
0
 62
7
  6
CONTINUOUS
 10
326.2366610993
 20
223.8512035307
  0
VERTEX
  8
0
 62
7
  6
CONTINUOUS
 10
325.9362890624
 20
223.8507748333
  0
VERTEX
  8
0
 62
7
  6
CONTINUOUS
 10
325.63471891
 20
223.8503366286
  0
VERTEX
  8
0
 62
7
  6
CONTINUOUS
 10
325.3319296461
 20
223.8498890186
  0
VERTEX
  8
0
 62
7
  6
CONTINUOUS
 10
324.7227325548
 20
223.8489662506
  0
SEQEND
  0
POLYLINE
  8
0
 62
7
  6
CONTINUOUS
 66
1
 70
0
  0
VERTEX
  8
0
 62
7
  6
CONTINUOUS
 10
10.0562897757
 20
223.853691775
  0
VERTEX
  8
0
 62
7
  6
CONTINUOUS
 10
9.8237771133
 20
223.8533506651
  0
VERTEX
  8
0
 62
7
  6
CONTINUOUS
 10
9.5919704604
 20
223.8530040772
  0
VERTEX
  8
0
 62
7
  6
CONTINUOUS
 10
8.4434661734
 20
223.8511989355
  0
SEQEND
  0
LINE
  8
0
 62
7
  6
CONTINUOUS
 10
1.0845198859
 20
223.8383619832
 11
0.8099271934
 21
223.8379045775
  0
POLYLINE
  8
0
 62
7
  6
CONTINUOUS
 66
1
 70
0
  0
VERTEX
  8
0
 62
7
  6
CONTINUOUS
 10
328.5986448445
 20
223.8542859615
  0
VERTEX
  8
0
 62
7
  6
CONTINUOUS
 10
328.3072602548
 20
223.8539347401
  0
VERTEX
  8
0
 62
7
  6
CONTINUOUS
 10
328.0148223508
 20
223.8535736542
  0
VERTEX
  8
0
 62
7
  6
CONTINUOUS
 10
327.7212551765
 20
223.853202882
  0
VERTEX
  8
0
 62
7
  6
CONTINUOUS
 10
327.4265764655
 20
223.8528223646
  0
VERTEX
  8
0
 62
7
  6
CONTINUOUS
 10
327.1307786282
 20
223.8524321169
  0
VERTEX
  8
0
 62
7
  6
CONTINUOUS
 10
326.5358378837
 20
223.8516227136
  0
SEQEND
  0
POLYLINE
  8
0
 62
7
  6
CONTINUOUS
 66
1
 70
0
  0
VERTEX
  8
0
 62
7
  6
CONTINUOUS
 10
11.229269815
 20
223.8553051759
  0
VERTEX
  8
0
 62
7
  6
CONTINUOUS
 10
10.9933112489
 20
223.8549957778
  0
VERTEX
  8
0
 62
7
  6
CONTINUOUS
 10
10.0562897757
 20
223.853691775
  0
SEQEND
  0
POLYLINE
  8
0
 62
7
  6
CONTINUOUS
 66
1
 70
0
  0
VERTEX
  8
0
 62
7
  6
CONTINUOUS
 10
330.0402650177
 20
223.8558975478
  0
VERTEX
  8
0
 62
7
  6
CONTINUOUS
 10
329.7541002788
 20
223.8555948815
  0
VERTEX
  8
0
 62
7
  6
CONTINUOUS
 10
329.4668159417
 20
223.8552822154
  0
VERTEX
  8
0
 62
7
  6
CONTINUOUS
 10
329.1784612876
 20
223.8549598259
  0
VERTEX
  8
0
 62
7
  6
CONTINUOUS
 10
328.5986448445
 20
223.8542859615
  0
SEQEND
  0
LINE
  8
0
 62
7
  6
CONTINUOUS
 10
0.8099271934
 20
223.8379045775
 11
0.497938247
 21
223.8374916804
  0
LINE
  8
0
 62
7
  6
CONTINUOUS
 10
12.1801651112
 20
223.8564654054
 11
11.229269815
 21
223.8553051759
  0
POLYLINE
  8
0
 62
7
  6
CONTINUOUS
 66
1
 70
0
  0
VERTEX
  8
0
 62
7
  6
CONTINUOUS
 10
331.735700123
 20
223.8575012944
  0
VERTEX
  8
0
 62
7
  6
CONTINUOUS
 10
331.4555571552
 20
223.857259533
  0
VERTEX
  8
0
 62
7
  6
CONTINUOUS
 10
331.1744621803
 20
223.857007446
  0
VERTEX
  8
0
 62
7
  6
CONTINUOUS
 10
330.8924020905
 20
223.8567451104
  0
VERTEX
  8
0
 62
7
  6
CONTINUOUS
 10
330.6093851067
 20
223.8564727355
  0
VERTEX
  8
0
 62
7
  6
CONTINUOUS
 10
330.0402650177
 20
223.8558975478
  0
SEQEND
  0
LINE
  8
0
 62
7
  6
CONTINUOUS
 10
13.1423233382
 20
223.8574864466
 11
12.1801651112
 21
223.8564654054
  0
POLYLINE
  8
0
 62
7
  6
CONTINUOUS
 66
1
 70
0
  0
VERTEX
  8
0
 62
7
  6
CONTINUOUS
 10
1.6812102776
 20
225.9860206201
  0
VERTEX
  8
0
 62
7
  6
CONTINUOUS
 10
-0.4330192362
 20
225.9841106219
  0
VERTEX
  8
0
 62
7
  6
CONTINUOUS
 10
-2.6245161844
 20
225.9794417318
  0
VERTEX
  8
0
 62
7
  6
CONTINUOUS
 10
-4.7563766058
 20
225.9718782341
  0
VERTEX
  8
0
 62
7
  6
CONTINUOUS
 10
-6.7166275709
 20
225.9625385212
  0
VERTEX
  8
0
 62
7
  6
CONTINUOUS
 10
-8.5134812949
 20
225.9529515317
  0
VERTEX
  8
0
 62
7
  6
CONTINUOUS
 10
-10.1891941183
 20
225.9447653742
  0
VERTEX
  8
0
 62
7
  6
CONTINUOUS
 10
-11.7847111164
 20
225.9397252146
  0
VERTEX
  8
0
 62
7
  6
CONTINUOUS
 10
-13.296630331
 20
225.939363893
  0
VERTEX
  8
0
 62
7
  6
CONTINUOUS
 10
-14.7476645928
 20
225.9440846361
  0
VERTEX
  8
0
 62
7
  6
CONTINUOUS
 10
-16.0965876238
 20
225.9521319319
  0
VERTEX
  8
0
 62
7
  6
CONTINUOUS
 10
-17.3299263982
 20
225.9592872637
  0
VERTEX
  8
0
 62
7
  6
CONTINUOUS
 10
-18.4103092875
 20
225.9590000416
  0
VERTEX
  8
0
 62
7
  6
CONTINUOUS
 10
-19.4487683848
 20
225.9482380033
  0
VERTEX
  8
0
 62
7
  6
CONTINUOUS
 10
-20.3465688139
 20
225.9422808846
  0
VERTEX
  8
0
 62
7
  6
CONTINUOUS
 10
-21.1025890011
 20
225.9436787742
  0
VERTEX
  8
0
 62
7
  6
CONTINUOUS
 10
-21.7915177457
 20
225.946092246
  0
VERTEX
  8
0
 62
7
  6
CONTINUOUS
 10
-22.4351950931
 20
225.93946314
  0
VERTEX
  8
0
 62
7
  6
CONTINUOUS
 10
-23.0164108306
 20
225.9060232408
  0
VERTEX
  8
0
 62
7
  6
CONTINUOUS
 10
-23.2205918544
 20
225.8800034776
  0
SEQEND
  0
POLYLINE
  8
0
 62
7
  6
CONTINUOUS
 66
1
 70
0
  0
VERTEX
  8
0
 62
7
  6
CONTINUOUS
 10
332.8465765678
 20
223.8583635794
  0
VERTEX
  8
0
 62
7
  6
CONTINUOUS
 10
332.5703506074
 20
223.8581638958
  0
VERTEX
  8
0
 62
7
  6
CONTINUOUS
 10
332.2931074789
 20
223.8579535343
  0
VERTEX
  8
0
 62
7
  6
CONTINUOUS
 10
331.735700123
 20
223.8575012944
  0
SEQEND
  0
LINE
  8
0
 62
7
  6
CONTINUOUS
 10
0.497938247
 20
223.8374916804
 11
0.2138709138
 21
223.8372159446
  0
LINE
  8
0
 62
7
  6
CONTINUOUS
 10
14.1162976504
 20
223.8583525671
 11
13.1423233382
 21
223.8574864466
  0
POLYLINE
  8
0
 62
7
  6
CONTINUOUS
 66
1
 70
0
  0
VERTEX
  8
0
 62
7
  6
CONTINUOUS
 10
334.2133743644
 20
223.8591988858
  0
VERTEX
  8
0
 62
7
  6
CONTINUOUS
 10
333.9418573572
 20
223.8590537543
  0
VERTEX
  8
0
 62
7
  6
CONTINUOUS
 10
333.6694255193
 20
223.8588976049
  0
VERTEX
  8
0
 62
7
  6
CONTINUOUS
 10
333.3960925925
 20
223.8587305277
  0
VERTEX
  8
0
 62
7
  6
CONTINUOUS
 10
332.8465765678
 20
223.8583635794
  0
SEQEND
  0
POLYLINE
  8
0
 62
7
  6
CONTINUOUS
 66
1
 70
0
  0
VERTEX
  8
0
 62
7
  6
CONTINUOUS
 10
-1.0871727406
 20
223.8354140446
  0
VERTEX
  8
0
 62
7
  6
CONTINUOUS
 10
-2.0128758188
 20
223.8348594691
  0
VERTEX
  8
0
 62
7
  6
CONTINUOUS
 10
-2.8553840941
 20
223.8331914386
  0
VERTEX
  8
0
 62
7
  6
CONTINUOUS
 10
-3.6249373961
 20
223.8310485364
  0
VERTEX
  8
0
 62
7
  6
CONTINUOUS
 10
-4.3291454343
 20
223.8288362004
  0
VERTEX
  8
0
 62
7
  6
CONTINUOUS
 10
-4.9749849449
 20
223.82636998
  0
VERTEX
  8
0
 62
7
  6
CONTINUOUS
 10
-5.5646076326
 20
223.8240769261
  0
VERTEX
  8
0
 62
7
  6
CONTINUOUS
 10
-6.6466653753
 20
223.8190187729
  0
SEQEND
  0
LINE
  8
0
 62
7
  6
CONTINUOUS
 10
15.1025557679
 20
223.8590499746
 11
14.1162976504
 21
223.8583525671
  0
LINE
  8
0
 62
7
  6
CONTINUOUS
 10
1.6812359755
 20
225.986084985
 11
1.6808009355
 21
225.9860847406
  0
POLYLINE
  8
0
 62
7
  6
CONTINUOUS
 66
1
 70
0
  0
VERTEX
  8
0
 62
7
  6
CONTINUOUS
 10
335.2904383995
 20
223.8596684376
  0
VERTEX
  8
0
 62
7
  6
CONTINUOUS
 10
335.0224892151
 20
223.8595677056
  0
VERTEX
  8
0
 62
7
  6
CONTINUOUS
 10
334.7536614862
 20
223.8594558715
  0
VERTEX
  8
0
 62
7
  6
CONTINUOUS
 10
334.2133743644
 20
223.8591988858
  0
SEQEND
  0
LINE
  8
0
 62
7
  6
CONTINUOUS
 10
0.2138709138
 20
223.8372159446
 11
-1.0871727406
 21
223.8354140446
  0
LINE
  8
0
 62
7
  6
CONTINUOUS
 10
16.1008733857
 20
223.8595701549
 11
15.1025557679
 21
223.8590499746
  0
POLYLINE
  8
0
 62
7
  6
CONTINUOUS
 66
1
 70
0
  0
VERTEX
  8
0
 62
7
  6
CONTINUOUS
 10
336.6169110394
 20
223.8600051307
  0
VERTEX
  8
0
 62
7
  6
CONTINUOUS
 10
336.3533953292
 20
223.8599601264
  0
VERTEX
  8
0
 62
7
  6
CONTINUOUS
 10
336.0889901596
 20
223.8599039396
  0
VERTEX
  8
0
 62
7
  6
CONTINUOUS
 10
335.8236972303
 20
223.859836573
  0
VERTEX
  8
0
 62
7
  6
CONTINUOUS
 10
335.2904383995
 20
223.8596684376
  0
SEQEND
  0
LINE
  8
0
 62
7
  6
CONTINUOUS
 10
17.1114856635
 20
223.859908523
 11
16.1008733857
 21
223.8595701549
  0
POLYLINE
  8
0
 62
7
  6
CONTINUOUS
 66
1
 70
0
  0
VERTEX
  8
0
 62
7
  6
CONTINUOUS
 10
337.6623459153
 20
223.8600729381
  0
VERTEX
  8
0
 62
7
  6
CONTINUOUS
 10
337.4022509374
 20
223.8600728486
  0
VERTEX
  8
0
 62
7
  6
CONTINUOUS
 10
337.1413263392
 20
223.8600615107
  0
VERTEX
  8
0
 62
7
  6
CONTINUOUS
 10
336.6169110394
 20
223.8600051307
  0
SEQEND
  0
LINE
  8
0
 62
7
  6
CONTINUOUS
 10
18.13548416
 20
223.860064092
 11
17.1114856635
 21
223.859908523
  0
LINE
  8
0
 62
7
  6
CONTINUOUS
 10
38.3835458877
 20
226.0674175802
 11
36.3537720311
 21
226.0673973325
  0
LINE
  8
0
 62
7
  6
CONTINUOUS
 10
19.1734538894
 20
223.8600385858
 11
18.13548416
 21
223.860064092
  0
POLYLINE
  8
0
 62
7
  6
CONTINUOUS
 66
1
 70
0
  0
VERTEX
  8
0
 62
7
  6
CONTINUOUS
 10
338.4376486089
 20
223.8600051064
  0
VERTEX
  8
0
 62
7
  6
CONTINUOUS
 10
338.1800466009
 20
223.8600390801
  0
VERTEX
  8
0
 62
7
  6
CONTINUOUS
 10
337.6623459153
 20
223.8600729381
  0
SEQEND
  0
POLYLINE
  8
0
 62
7
  6
CONTINUOUS
 66
1
 70
0
  0
VERTEX
  8
0
 62
7
  6
CONTINUOUS
 10
208.3937713917
 20
225.690746965
  0
VERTEX
  8
0
 62
7
  6
CONTINUOUS
 10
201.261690809
 20
225.6916780644
  0
VERTEX
  8
0
 62
7
  6
CONTINUOUS
 10
193.7341867529
 20
225.7015545541
  0
VERTEX
  8
0
 62
7
  6
CONTINUOUS
 10
186.1936890173
 20
225.7183768531
  0
VERTEX
  8
0
 62
7
  6
CONTINUOUS
 10
178.4460888879
 20
225.7405273031
  0
SEQEND
  0
LINE
  8
0
 62
7
  6
CONTINUOUS
 10
20.2253034018
 20
223.8598347493
 11
19.1734538894
 21
223.8600385858
  0
POLYLINE
  8
0
 62
7
  6
CONTINUOUS
 66
1
 70
0
  0
VERTEX
  8
0
 62
7
  6
CONTINUOUS
 10
339.4596628823
 20
223.8597549875
  0
VERTEX
  8
0
 62
7
  6
CONTINUOUS
 10
339.2053974957
 20
223.8598346734
  0
VERTEX
  8
0
 62
7
  6
CONTINUOUS
 10
338.950318315
 20
223.8599028798
  0
VERTEX
  8
0
 62
7
  6
CONTINUOUS
 10
338.4376486089
 20
223.8600051064
  0
SEQEND
  0
POLYLINE
  8
0
 62
7
  6
CONTINUOUS
 66
1
 70
0
  0
VERTEX
  8
0
 62
7
  6
CONTINUOUS
 10
369.5135320375
 20
225.9394111523
  0
VERTEX
  8
0
 62
7
  6
CONTINUOUS
 10
368.199365064
 20
225.9397252146
  0
VERTEX
  8
0
 62
7
  6
CONTINUOUS
 10
366.6038480658
 20
225.9447653742
  0
VERTEX
  8
0
 62
7
  6
CONTINUOUS
 10
364.9281352424
 20
225.9529515317
  0
VERTEX
  8
0
 62
7
  6
CONTINUOUS
 10
363.1312815183
 20
225.9625385212
  0
VERTEX
  8
0
 62
7
  6
CONTINUOUS
 10
361.1710305531
 20
225.9718782341
  0
VERTEX
  8
0
 62
7
  6
CONTINUOUS
 10
359.0391701316
 20
225.9794417318
  0
VERTEX
  8
0
 62
7
  6
CONTINUOUS
 10
356.8476731832
 20
225.9841106219
  0
VERTEX
  8
0
 62
7
  6
CONTINUOUS
 10
354.7334436693
 20
225.9860206201
  0
SEQEND
  0
LINE
  8
0
 62
7
  6
CONTINUOUS
 10
21.2911652448
 20
223.8594528105
 11
20.2253034018
 21
223.8598347493
  0
POLYLINE
  8
0
 62
7
  6
CONTINUOUS
 66
1
 70
0
  0
VERTEX
  8
0
 62
7
  6
CONTINUOUS
 10
340.4688044982
 20
223.8593228648
  0
VERTEX
  8
0
 62
7
  6
CONTINUOUS
 10
340.2177070962
 20
223.8594478407
  0
VERTEX
  8
0
 62
7
  6
CONTINUOUS
 10
339.965821024
 20
223.8595615422
  0
VERTEX
  8
0
 62
7
  6
CONTINUOUS
 10
339.4596628823
 20
223.8597549875
  0
SEQEND
  0
POLYLINE
  8
0
 62
7
  6
CONTINUOUS
 66
1
 70
0
  0
VERTEX
  8
0
 62
7
  6
CONTINUOUS
 10
22.6438078672
 20
223.8587280543
  0
VERTEX
  8
0
 62
7
  6
CONTINUOUS
 10
22.3714841023
 20
223.8588948524
  0
VERTEX
  8
0
 62
7
  6
CONTINUOUS
 10
21.2911652448
 20
223.8594528105
  0
SEQEND
  0
POLYLINE
  8
0
 62
7
  6
CONTINUOUS
 66
1
 70
0
  0
VERTEX
  8
0
 62
7
  6
CONTINUOUS
 10
356.1088676997
 20
223.8370736423
  0
VERTEX
  8
0
 62
7
  6
CONTINUOUS
 10
356.0633629353
 20
223.8370977615
  0
VERTEX
  8
0
 62
7
  6
CONTINUOUS
 10
356.0420272369
 20
223.8371107296
  0
VERTEX
  8
0
 62
7
  6
CONTINUOUS
 10
356.0210411607
 20
223.837124078
  0
VERTEX
  8
0
 62
7
  6
CONTINUOUS
 10
356.0005922268
 20
223.8371375969
  0
VERTEX
  8
0
 62
7
  6
CONTINUOUS
 10
355.9808476226
 20
223.8371511695
  0
VERTEX
  8
0
 62
7
  6
CONTINUOUS
 10
355.9614345246
 20
223.8371648653
  0
SEQEND
  0
POLYLINE
  8
0
 62
7
  6
CONTINUOUS
 66
1
 70
0
  0
VERTEX
  8
0
 62
7
  6
CONTINUOUS
 10
341.4653045605
 20
223.8587118373
  0
VERTEX
  8
0
 62
7
  6
CONTINUOUS
 10
341.2173753259
 20
223.8588811239
  0
VERTEX
  8
0
 62
7
  6
CONTINUOUS
 10
340.9686528778
 20
223.8590394288
  0
VERTEX
  8
0
 62
7
  6
CONTINUOUS
 10
340.4688044982
 20
223.8593228648
  0
SEQEND
  0
POLYLINE
  8
0
 62
7
  6
CONTINUOUS
 66
1
 70
0
  0
VERTEX
  8
0
 62
7
  6
CONTINUOUS
 10
354.4309438568
 20
225.9860845187
  0
VERTEX
  8
0
 62
7
  6
CONTINUOUS
 10
354.1132675706
 20
225.9862802939
  0
VERTEX
  8
0
 62
7
  6
CONTINUOUS
 10
353.6893523576
 20
225.9867579734
  0
VERTEX
  8
0
 62
7
  6
CONTINUOUS
 10
353.2431419965
 20
225.9875222314
  0
VERTEX
  8
0
 62
7
  6
CONTINUOUS
 10
352.7929472926
 20
225.9885598098
  0
VERTEX
  8
0
 62
7
  6
CONTINUOUS
 10
352.3024829856
 20
225.9899865055
  0
VERTEX
  8
0
 62
7
  6
CONTINUOUS
 10
351.9920747191
 20
225.9910449729
  0
SEQEND
  0
POLYLINE
  8
0
 62
7
  6
CONTINUOUS
 66
1
 70
0
  0
VERTEX
  8
0
 62
7
  6
CONTINUOUS
 10
24.01954754
 20
223.8577324808
  0
VERTEX
  8
0
 62
7
  6
CONTINUOUS
 10
23.7424850477
 20
223.857952882
  0
VERTEX
  8
0
 62
7
  6
CONTINUOUS
 10
22.6438078672
 20
223.8587280543
  0
SEQEND
  0
POLYLINE
  8
0
 62
7
  6
CONTINUOUS
 66
1
 70
0
  0
VERTEX
  8
0
 62
7
  6
CONTINUOUS
 10
355.9614345246
 20
223.8371648653
  0
VERTEX
  8
0
 62
7
  6
CONTINUOUS
 10
355.9226481812
 20
223.8371936273
  0
VERTEX
  8
0
 62
7
  6
CONTINUOUS
 10
355.9033556024
 20
223.8372085899
  0
VERTEX
  8
0
 62
7
  6
CONTINUOUS
 10
355.884240055
 20
223.8372238868
  0
VERTEX
  8
0
 62
7
  6
CONTINUOUS
 10
355.8654707742
 20
223.8372393378
  0
VERTEX
  8
0
 62
7
  6
CONTINUOUS
 10
355.8468710534
 20
223.8372550306
  0
VERTEX
  8
0
 62
7
  6
CONTINUOUS
 10
355.8284300158
 20
223.8372710594
  0
VERTEX
  8
0
 62
7
  6
CONTINUOUS
 10
355.8098181978
 20
223.8372875486
  0
SEQEND
  0
POLYLINE
  8
0
 62
7
  6
CONTINUOUS
 66
1
 70
0
  0
VERTEX
  8
0
 62
7
  6
CONTINUOUS
 10
342.4493295142
 20
223.8579270948
  0
VERTEX
  8
0
 62
7
  6
CONTINUOUS
 10
342.2044415324
 20
223.8581391981
  0
VERTEX
  8
0
 62
7
  6
CONTINUOUS
 10
341.9588067557
 20
223.8583407907
  0
VERTEX
  8
0
 62
7
  6
CONTINUOUS
 10
341.4653045605
 20
223.8587118373
  0
SEQEND
  0
POLYLINE
  8
0
 62
7
  6
CONTINUOUS
 66
1
 70
0
  0
VERTEX
  8
0
 62
7
  6
CONTINUOUS
 10
25.7030467161
 20
223.856193581
  0
VERTEX
  8
0
 62
7
  6
CONTINUOUS
 10
25.4200276314
 20
223.8564752199
  0
VERTEX
  8
0
 62
7
  6
CONTINUOUS
 10
25.1379671951
 20
223.8567468969
  0
VERTEX
  8
0
 62
7
  6
CONTINUOUS
 10
24.01954754
 20
223.8577324808
  0
SEQEND
  0
POLYLINE
  8
0
 62
7
  6
CONTINUOUS
 66
1
 70
0
  0
VERTEX
  8
0
 62
7
  6
CONTINUOUS
 10
355.8098181978
 20
223.8372875486
  0
VERTEX
  8
0
 62
7
  6
CONTINUOUS
 10
355.7710796638
 20
223.8373232597
  0
VERTEX
  8
0
 62
7
  6
CONTINUOUS
 10
355.7503347354
 20
223.8373430767
  0
VERTEX
  8
0
 62
7
  6
CONTINUOUS
 10
355.7288414537
 20
223.8373641861
  0
VERTEX
  8
0
 62
7
  6
CONTINUOUS
 10
355.7066581784
 20
223.8373864628
  0
VERTEX
  8
0
 62
7
  6
CONTINUOUS
 10
355.6841176853
 20
223.8374098085
  0
VERTEX
  8
0
 62
7
  6
CONTINUOUS
 10
355.6615988431
 20
223.8374336687
  0
SEQEND
  0
POLYLINE
  8
0
 62
7
  6
CONTINUOUS
 66
1
 70
0
  0
VERTEX
  8
0
 62
7
  6
CONTINUOUS
 10
343.4213324779
 20
223.8569773453
  0
VERTEX
  8
0
 62
7
  6
CONTINUOUS
 10
343.1794625287
 20
223.8572295046
  0
VERTEX
  8
0
 62
7
  6
CONTINUOUS
 10
342.9368573856
 20
223.8574719443
  0
VERTEX
  8
0
 62
7
  6
CONTINUOUS
 10
342.4493295142
 20
223.8579270948
  0
SEQEND
  0
POLYLINE
  8
0
 62
7
  6
CONTINUOUS
 66
1
 70
0
  0
VERTEX
  8
0
 62
7
  6
CONTINUOUS
 10
27.4227641443
 20
223.8542941838
  0
VERTEX
  8
0
 62
7
  6
CONTINUOUS
 10
27.1334595315
 20
223.854635477
  0
VERTEX
  8
0
 62
7
  6
CONTINUOUS
 10
26.8452603009
 20
223.85496699
  0
VERTEX
  8
0
 62
7
  6
CONTINUOUS
 10
25.7030467161
 20
223.856193581
  0
SEQEND
  0
POLYLINE
  8
0
 62
7
  6
CONTINUOUS
 66
1
 70
0
  0
VERTEX
  8
0
 62
7
  6
CONTINUOUS
 10
355.6615988431
 20
223.8374336687
  0
VERTEX
  8
0
 62
7
  6
CONTINUOUS
 10
355.6165328493
 20
223.8374832698
  0
VERTEX
  8
0
 62
7
  6
CONTINUOUS
 10
355.5938687952
 20
223.8375090567
  0
VERTEX
  8
0
 62
7
  6
CONTINUOUS
 10
355.5708697875
 20
223.8375359062
  0
VERTEX
  8
0
 62
7
  6
CONTINUOUS
 10
355.5474054033
 20
223.8375638701
  0
VERTEX
  8
0
 62
7
  6
CONTINUOUS
 10
355.5232524827
 20
223.8375933578
  0
SEQEND
  0
POLYLINE
  8
0
 62
7
  6
CONTINUOUS
 66
1
 70
0
  0
VERTEX
  8
0
 62
7
  6
CONTINUOUS
 10
344.3819038144
 20
223.8558787891
  0
VERTEX
  8
0
 62
7
  6
CONTINUOUS
 10
344.1427862291
 20
223.856166262
  0
VERTEX
  8
0
 62
7
  6
CONTINUOUS
 10
343.9029767881
 20
223.8564454619
  0
VERTEX
  8
0
 62
7
  6
CONTINUOUS
 10
343.4213324779
 20
223.8569773453
  0
SEQEND
  0
LINE
  8
0
 62
7
  6
CONTINUOUS
 10
356.184076749
 20
223.8370019008
 11
356.1088676997
 21
223.8370736423
  0
POLYLINE
  8
0
 62
7
  6
CONTINUOUS
 66
1
 70
0
  0
VERTEX
  8
0
 62
7
  6
CONTINUOUS
 10
148.0208825552
 20
225.690746965
  0
VERTEX
  8
0
 62
7
  6
CONTINUOUS
 10
140.4387250122
 20
225.7000950249
  0
VERTEX
  8
0
 62
7
  6
CONTINUOUS
 10
133.0015284262
 20
225.7194154216
  0
VERTEX
  8
0
 62
7
  6
CONTINUOUS
 10
126.3948542965
 20
225.7440937217
  0
VERTEX
  8
0
 62
7
  6
CONTINUOUS
 10
119.7686185937
 20
225.7744833234
  0
VERTEX
  8
0
 62
7
  6
CONTINUOUS
 10
113.0792941702
 20
225.8091641676
  0
VERTEX
  8
0
 62
7
  6
CONTINUOUS
 10
106.433759563
 20
225.8458600049
  0
VERTEX
  8
0
 62
7
  6
CONTINUOUS
 10
99.9932213032
 20
225.8821168518
  0
VERTEX
  8
0
 62
7
  6
CONTINUOUS
 10
94.1074202475
 20
225.9149429101
  0
SEQEND
  0
LINE
  8
0
 62
7
  6
CONTINUOUS
 10
354.7338530108
 20
225.9860847406
 11
354.4094865281
 21
225.9862897769
  0
POLYLINE
  8
0
 62
7
  6
CONTINUOUS
 66
1
 70
0
  0
VERTEX
  8
0
 62
7
  6
CONTINUOUS
 10
354.4094865281
 20
225.9862897769
  0
VERTEX
  8
0
 62
7
  6
CONTINUOUS
 10
353.9944408406
 20
225.986759317
  0
VERTEX
  8
0
 62
7
  6
CONTINUOUS
 10
353.5424744732
 20
225.9875400495
  0
VERTEX
  8
0
 62
7
  6
CONTINUOUS
 10
353.0866596742
 20
225.9886021443
  0
VERTEX
  8
0
 62
7
  6
CONTINUOUS
 10
352.5911675693
 20
225.9900621056
  0
VERTEX
  8
0
 62
7
  6
CONTINUOUS
 10
352.3051960177
 20
225.9910448594
  0
SEQEND
  0
POLYLINE
  8
0
 62
7
  6
CONTINUOUS
 66
1
 70
0
  0
VERTEX
  8
0
 62
7
  6
CONTINUOUS
 10
29.1818373575
 20
223.8520447173
  0
VERTEX
  8
0
 62
7
  6
CONTINUOUS
 10
28.885969243
 20
223.8524433279
  0
VERTEX
  8
0
 62
7
  6
CONTINUOUS
 10
28.5911742857
 20
223.8528324761
  0
VERTEX
  8
0
 62
7
  6
CONTINUOUS
 10
27.4227641443
 20
223.8542941838
  0
SEQEND
  0
POLYLINE
  8
0
 62
7
  6
CONTINUOUS
 66
1
 70
0
  0
VERTEX
  8
0
 62
7
  6
CONTINUOUS
 10
355.5232524827
 20
223.8375933578
  0
VERTEX
  8
0
 62
7
  6
CONTINUOUS
 10
355.4732140983
 20
223.8376566253
  0
VERTEX
  8
0
 62
7
  6
CONTINUOUS
 10
355.4474480344
 20
223.8376903791
  0
VERTEX
  8
0
 62
7
  6
CONTINUOUS
 10
355.4213395027
 20
223.8377253366
  0
VERTEX
  8
0
 62
7
  6
CONTINUOUS
 10
355.3949104458
 20
223.8377615489
  0
VERTEX
  8
0
 62
7
  6
CONTINUOUS
 10
355.3682384724
 20
223.8377989022
  0
SEQEND
  0
POLYLINE
  8
0
 62
7
  6
CONTINUOUS
 66
1
 70
0
  0
VERTEX
  8
0
 62
7
  6
CONTINUOUS
 10
345.8018550766
 20
223.8539985244
  0
VERTEX
  8
0
 62
7
  6
CONTINUOUS
 10
345.566935035
 20
223.8543288759
  0
VERTEX
  8
0
 62
7
  6
CONTINUOUS
 10
345.3313243263
 20
223.8546528134
  0
VERTEX
  8
0
 62
7
  6
CONTINUOUS
 10
345.0950178639
 20
223.8549700815
  0
VERTEX
  8
0
 62
7
  6
CONTINUOUS
 10
344.8580140177
 20
223.8552803447
  0
VERTEX
  8
0
 62
7
  6
CONTINUOUS
 10
344.3819038144
 20
223.8558787891
  0
SEQEND
  0
POLYLINE
  8
0
 62
7
  6
CONTINUOUS
 66
1
 70
0
  0
VERTEX
  8
0
 62
7
  6
CONTINUOUS
 10
31.2846623263
 20
223.8489881787
  0
VERTEX
  8
0
 62
7
  6
CONTINUOUS
 10
30.9807076964
 20
223.8494531652
  0
VERTEX
  8
0
 62
7
  6
CONTINUOUS
 10
30.6779787677
 20
223.8499087365
  0
VERTEX
  8
0
 62
7
  6
CONTINUOUS
 10
30.3764637676
 20
223.8503549397
  0
VERTEX
  8
0
 62
7
  6
CONTINUOUS
 10
29.1818373575
 20
223.8520447173
  0
SEQEND
  0
POLYLINE
  8
0
 62
7
  6
CONTINUOUS
 66
1
 70
0
  0
VERTEX
  8
0
 62
7
  6
CONTINUOUS
 10
355.3682384724
 20
223.8377989022
  0
VERTEX
  8
0
 62
7
  6
CONTINUOUS
 10
355.3139954851
 20
223.8378773765
  0
VERTEX
  8
0
 62
7
  6
CONTINUOUS
 10
355.2863779686
 20
223.8379186212
  0
VERTEX
  8
0
 62
7
  6
CONTINUOUS
 10
355.2583743202
 20
223.837961348
  0
VERTEX
  8
0
 62
7
  6
CONTINUOUS
 10
355.2300108932
 20
223.8380055592
  0
SEQEND
  0
POLYLINE
  8
0
 62
7
  6
CONTINUOUS
 66
1
 70
0
  0
VERTEX
  8
0
 62
7
  6
CONTINUOUS
 10
347.4268568585
 20
223.8515331604
  0
VERTEX
  8
0
 62
7
  6
CONTINUOUS
 10
347.196798961
 20
223.8518997733
  0
VERTEX
  8
0
 62
7
  6
CONTINUOUS
 10
346.9660632696
 20
223.8522620655
  0
VERTEX
  8
0
 62
7
  6
CONTINUOUS
 10
346.734634366
 20
223.8526196327
  0
VERTEX
  8
0
 62
7
  6
CONTINUOUS
 10
346.5024881992
 20
223.8529723636
  0
VERTEX
  8
0
 62
7
  6
CONTINUOUS
 10
346.2696395269
 20
223.8533199465
  0
VERTEX
  8
0
 62
7
  6
CONTINUOUS
 10
345.8018550766
 20
223.8539985244
  0
SEQEND
  0
POLYLINE
  8
0
 62
7
  6
CONTINUOUS
 66
1
 70
0
  0
VERTEX
  8
0
 62
7
  6
CONTINUOUS
 10
33.4473468564
 20
223.8454794352
  0
VERTEX
  8
0
 62
7
  6
CONTINUOUS
 10
33.1346279667
 20
223.8460074262
  0
VERTEX
  8
0
 62
7
  6
CONTINUOUS
 10
32.8231750489
 20
223.8465264914
  0
VERTEX
  8
0
 62
7
  6
CONTINUOUS
 10
32.5129778946
 20
223.847036664
  0
VERTEX
  8
0
 62
7
  6
CONTINUOUS
 10
31.2846623263
 20
223.8489881787
  0
SEQEND
  0
POLYLINE
  8
0
 62
7
  6
CONTINUOUS
 66
1
 70
0
  0
VERTEX
  8
0
 62
7
  6
CONTINUOUS
 10
355.2300108932
 20
223.8380055592
  0
VERTEX
  8
0
 62
7
  6
CONTINUOUS
 10
355.1722387568
 20
223.8380985358
  0
VERTEX
  8
0
 62
7
  6
CONTINUOUS
 10
355.1429322883
 20
223.8381472101
  0
VERTEX
  8
0
 62
7
  6
CONTINUOUS
 10
355.1133961209
 20
223.8381973328
  0
VERTEX
  8
0
 62
7
  6
CONTINUOUS
 10
355.0836797253
 20
223.8382488228
  0
SEQEND
  0
POLYLINE
  8
0
 62
7
  6
CONTINUOUS
 66
1
 70
0
  0
VERTEX
  8
0
 62
7
  6
CONTINUOUS
 10
349.4665283347
 20
223.8480752153
  0
VERTEX
  8
0
 62
7
  6
CONTINUOUS
 10
349.2427882282
 20
223.8484718385
  0
VERTEX
  8
0
 62
7
  6
CONTINUOUS
 10
349.0183146654
 20
223.848865246
  0
VERTEX
  8
0
 62
7
  6
CONTINUOUS
 10
348.7930223375
 20
223.8492557547
  0
VERTEX
  8
0
 62
7
  6
CONTINUOUS
 10
348.5670128191
 20
223.8496435398
  0
VERTEX
  8
0
 62
7
  6
CONTINUOUS
 10
348.3403842671
 20
223.8500281313
  0
VERTEX
  8
0
 62
7
  6
CONTINUOUS
 10
348.1130662398
 20
223.8504094332
  0
VERTEX
  8
0
 62
7
  6
CONTINUOUS
 10
347.885000464
 20
223.8507875969
  0
VERTEX
  8
0
 62
7
  6
CONTINUOUS
 10
347.4268568585
 20
223.8515331604
  0
SEQEND
  0
POLYLINE
  8
0
 62
7
  6
CONTINUOUS
 66
1
 70
0
  0
VERTEX
  8
0
 62
7
  6
CONTINUOUS
 10
36.6452838402
 20
223.8397035237
  0
VERTEX
  8
0
 62
7
  6
CONTINUOUS
 10
36.3194751984
 20
223.8403218756
  0
VERTEX
  8
0
 62
7
  6
CONTINUOUS
 10
35.9949770491
 20
223.8409313008
  0
VERTEX
  8
0
 62
7
  6
CONTINUOUS
 10
35.6718523718
 20
223.8415317798
  0
VERTEX
  8
0
 62
7
  6
CONTINUOUS
 10
35.350181429
 20
223.8421229938
  0
VERTEX
  8
0
 62
7
  6
CONTINUOUS
 10
35.0298605099
 20
223.8427048974
  0
VERTEX
  8
0
 62
7
  6
CONTINUOUS
 10
33.4473468564
 20
223.8454794352
  0
SEQEND
  0
POLYLINE
  8
0
 62
7
  6
CONTINUOUS
 66
1
 70
0
  0
VERTEX
  8
0
 62
7
  6
CONTINUOUS
 10
355.0836797253
 20
223.8382488228
  0
VERTEX
  8
0
 62
7
  6
CONTINUOUS
 10
355.0237381037
 20
223.8383559137
  0
VERTEX
  8
0
 62
7
  6
CONTINUOUS
 10
354.9935352997
 20
223.8384114754
  0
VERTEX
  8
0
 62
7
  6
CONTINUOUS
 10
354.9631868392
 20
223.8384683534
  0
VERTEX
  8
0
 62
7
  6
CONTINUOUS
 10
354.9326963241
 20
223.8385265522
  0
SEQEND
  0
POLYLINE
  8
0
 62
7
  6
CONTINUOUS
 66
1
 70
0
  0
VERTEX
  8
0
 62
7
  6
CONTINUOUS
 10
351.1618635033
 20
223.8449281711
  0
VERTEX
  8
0
 62
7
  6
CONTINUOUS
 10
350.9775267926
 20
223.8452817229
  0
VERTEX
  8
0
 62
7
  6
CONTINUOUS
 10
350.7814439889
 20
223.8456568608
  0
VERTEX
  8
0
 62
7
  6
CONTINUOUS
 10
350.573556981
 20
223.8460425982
  0
VERTEX
  8
0
 62
7
  6
CONTINUOUS
 10
350.3575025009
 20
223.8464534279
  0
VERTEX
  8
0
 62
7
  6
CONTINUOUS
 10
350.1360882011
 20
223.846855538
  0
VERTEX
  8
0
 62
7
  6
CONTINUOUS
 10
349.9119589363
 20
223.8472730264
  0
VERTEX
  8
0
 62
7
  6
CONTINUOUS
 10
349.4665283347
 20
223.8480752153
  0
SEQEND
  0
POLYLINE
  8
0
 62
7
  6
CONTINUOUS
 66
1
 70
0
  0
VERTEX
  8
0
 62
7
  6
CONTINUOUS
 10
-20.3192793593
 20
225.9424619566
  0
VERTEX
  8
0
 62
7
  6
CONTINUOUS
 10
-20.9876734376
 20
225.9436824654
  0
VERTEX
  8
0
 62
7
  6
CONTINUOUS
 10
-21.6884035279
 20
225.9460912617
  0
VERTEX
  8
0
 62
7
  6
CONTINUOUS
 10
-21.7150283346
 20
225.9458242864
  0
SEQEND
  0
LINE
  8
0
 62
7
  6
CONTINUOUS
 10
-19.3524926252
 20
223.8000479563
 11
-19.8463720505
 21
223.8009978397
  0
POLYLINE
  8
0
 62
7
  6
CONTINUOUS
 66
1
 70
0
  0
VERTEX
  8
0
 62
7
  6
CONTINUOUS
 10
40.6041230604
 20
223.8317004319
  0
VERTEX
  8
0
 62
7
  6
CONTINUOUS
 10
40.2604362094
 20
223.8324340073
  0
VERTEX
  8
0
 62
7
  6
CONTINUOUS
 10
39.9261612178
 20
223.8331389969
  0
VERTEX
  8
0
 62
7
  6
CONTINUOUS
 10
39.5976318751
 20
223.8338215755
  0
VERTEX
  8
0
 62
7
  6
CONTINUOUS
 10
39.274448249
 20
223.8344947018
  0
VERTEX
  8
0
 62
7
  6
CONTINUOUS
 10
38.6265124919
 20
223.8358112739
  0
SEQEND
  0
POLYLINE
  8
0
 62
7
  6
CONTINUOUS
 66
1
 70
0
  0
VERTEX
  8
0
 62
7
  6
CONTINUOUS
 10
38.6265124919
 20
223.8358112739
  0
VERTEX
  8
0
 62
7
  6
CONTINUOUS
 10
38.2980007065
 20
223.8364711284
  0
VERTEX
  8
0
 62
7
  6
CONTINUOUS
 10
37.9647336801
 20
223.8371309366
  0
VERTEX
  8
0
 62
7
  6
CONTINUOUS
 10
36.6452838402
 20
223.8397035237
  0
SEQEND
  0
LINE
  8
0
 62
7
  6
CONTINUOUS
 10
351.6406714309
 20
223.8439944027
 11
351.1618635033
 21
223.8449281711
  0
POLYLINE
  8
0
 62
7
  6
CONTINUOUS
 66
1
 70
0
  0
VERTEX
  8
0
 62
7
  6
CONTINUOUS
 10
354.9326963241
 20
223.8385265522
  0
VERTEX
  8
0
 62
7
  6
CONTINUOUS
 10
354.8713081421
 20
223.8386468733
  0
VERTEX
  8
0
 62
7
  6
CONTINUOUS
 10
354.8403845015
 20
223.8387090691
  0
VERTEX
  8
0
 62
7
  6
CONTINUOUS
 10
354.8092846437
 20
223.8387726728
  0
VERTEX
  8
0
 62
7
  6
CONTINUOUS
 10
354.7779902421
 20
223.8388377572
  0
SEQEND
  0
POLYLINE
  8
0
 62
7
  6
CONTINUOUS
 66
1
 70
0
  0
VERTEX
  8
0
 62
7
  6
CONTINUOUS
 10
353.6291958826
 20
223.8398998765
  0
VERTEX
  8
0
 62
7
  6
CONTINUOUS
 10
353.5899874031
 20
223.8399829395
  0
VERTEX
  8
0
 62
7
  6
CONTINUOUS
 10
353.5499292275
 20
223.8400673442
  0
VERTEX
  8
0
 62
7
  6
CONTINUOUS
 10
353.5088290721
 20
223.840154183
  0
VERTEX
  8
0
 62
7
  6
CONTINUOUS
 10
353.4665293655
 20
223.840243332
  0
VERTEX
  8
0
 62
7
  6
CONTINUOUS
 10
353.4228405908
 20
223.8403357149
  0
VERTEX
  8
0
 62
7
  6
CONTINUOUS
 10
353.3776628148
 20
223.8404310567
  0
VERTEX
  8
0
 62
7
  6
CONTINUOUS
 10
353.3308968542
 20
223.8405299717
  0
VERTEX
  8
0
 62
7
  6
CONTINUOUS
 10
353.2823479168
 20
223.840632256
  0
VERTEX
  8
0
 62
7
  6
CONTINUOUS
 10
353.2319193393
 20
223.8407387226
  0
VERTEX
  8
0
 62
7
  6
CONTINUOUS
 10
353.1792130667
 20
223.8408492175
  0
VERTEX
  8
0
 62
7
  6
CONTINUOUS
 10
353.1239072079
 20
223.8409655357
  0
VERTEX
  8
0
 62
7
  6
CONTINUOUS
 10
353.065667808
 20
223.8410871237
  0
VERTEX
  8
0
 62
7
  6
CONTINUOUS
 10
353.0040854879
 20
223.8412161753
  0
VERTEX
  8
0
 62
7
  6
CONTINUOUS
 10
352.9390539533
 20
223.8413516782
  0
VERTEX
  8
0
 62
7
  6
CONTINUOUS
 10
352.8704855386
 20
223.8414950837
  0
VERTEX
  8
0
 62
7
  6
CONTINUOUS
 10
352.797906649
 20
223.8416454359
  0
VERTEX
  8
0
 62
7
  6
CONTINUOUS
 10
352.7209386136
 20
223.8418054819
  0
VERTEX
  8
0
 62
7
  6
CONTINUOUS
 10
352.6391930465
 20
223.8419736833
  0
VERTEX
  8
0
 62
7
  6
CONTINUOUS
 10
352.5521464025
 20
223.8421533561
  0
VERTEX
  8
0
 62
7
  6
CONTINUOUS
 10
352.4598061465
 20
223.8423425308
  0
VERTEX
  8
0
 62
7
  6
CONTINUOUS
 10
352.3621226625
 20
223.8425430008
  0
VERTEX
  8
0
 62
7
  6
CONTINUOUS
 10
352.2587315693
 20
223.8427529429
  0
VERTEX
  8
0
 62
7
  6
CONTINUOUS
 10
352.1494855682
 20
223.8429755431
  0
VERTEX
  8
0
 62
7
  6
CONTINUOUS
 10
352.0336635105
 20
223.8432078941
  0
VERTEX
  8
0
 62
7
  6
CONTINUOUS
 10
351.9107374091
 20
223.8434562077
  0
VERTEX
  8
0
 62
7
  6
CONTINUOUS
 10
351.7799426721
 20
223.8437155619
  0
VERTEX
  8
0
 62
7
  6
CONTINUOUS
 10
351.6406714309
 20
223.8439944027
  0
SEQEND
  0
POLYLINE
  8
0
 62
7
  6
CONTINUOUS
 66
1
 70
0
  0
VERTEX
  8
0
 62
7
  6
CONTINUOUS
 10
190.4663902684
 20
223.4811179801
  0
VERTEX
  8
0
 62
7
  6
CONTINUOUS
 10
188.9106374827
 20
223.4845428639
  0
VERTEX
  8
0
 62
7
  6
CONTINUOUS
 10
187.4302705594
 20
223.4880362932
  0
VERTEX
  8
0
 62
7
  6
CONTINUOUS
 10
186.0287053375
 20
223.4914849333
  0
VERTEX
  8
0
 62
7
  6
CONTINUOUS
 10
184.6958025137
 20
223.4948921309
  0
VERTEX
  8
0
 62
7
  6
CONTINUOUS
 10
183.4204642666
 20
223.4982630983
  0
VERTEX
  8
0
 62
7
  6
CONTINUOUS
 10
182.2089505231
 20
223.5015570314
  0
VERTEX
  8
0
 62
7
  6
CONTINUOUS
 10
181.0677496732
 20
223.5047339554
  0
VERTEX
  8
0
 62
7
  6
CONTINUOUS
 10
179.9850601668
 20
223.5078003129
  0
SEQEND
  0
POLYLINE
  8
0
 62
7
  6
CONTINUOUS
 66
1
 70
0
  0
VERTEX
  8
0
 62
7
  6
CONTINUOUS
 10
43.2956659272
 20
223.8257765447
  0
VERTEX
  8
0
 62
7
  6
CONTINUOUS
 10
42.9515752922
 20
223.8265602082
  0
VERTEX
  8
0
 62
7
  6
CONTINUOUS
 10
42.6244799326
 20
223.8273055346
  0
VERTEX
  8
0
 62
7
  6
CONTINUOUS
 10
42.3025110596
 20
223.828012505
  0
VERTEX
  8
0
 62
7
  6
CONTINUOUS
 10
41.9772758796
 20
223.828737995
  0
VERTEX
  8
0
 62
7
  6
CONTINUOUS
 10
41.6463324389
 20
223.8294577087
  0
VERTEX
  8
0
 62
7
  6
CONTINUOUS
 10
41.301247425
 20
223.8302003539
  0
VERTEX
  8
0
 62
7
  6
CONTINUOUS
 10
40.6041230604
 20
223.8317004319
  0
SEQEND
  0
LINE
  8
0
 62
7
  6
CONTINUOUS
 10
353.7057947422
 20
223.8397363695
 11
353.6291958826
 21
223.8398998765
  0
POLYLINE
  8
0
 62
7
  6
CONTINUOUS
 66
1
 70
0
  0
VERTEX
  8
0
 62
7
  6
CONTINUOUS
 10
354.7779902421
 20
223.8388377572
  0
VERTEX
  8
0
 62
7
  6
CONTINUOUS
 10
354.7147501186
 20
223.8389725596
  0
VERTEX
  8
0
 62
7
  6
CONTINUOUS
 10
354.6827866147
 20
223.8390423755
  0
VERTEX
  8
0
 62
7
  6
CONTINUOUS
 10
354.6505912245
 20
223.8391138437
  0
VERTEX
  8
0
 62
7
  6
CONTINUOUS
 10
354.6181701187
 20
223.8391869852
  0
SEQEND
  0
POLYLINE
  8
0
 62
7
  6
CONTINUOUS
 66
1
 70
0
  0
VERTEX
  8
0
 62
7
  6
CONTINUOUS
 10
46.2016765985
 20
223.8189443269
  0
VERTEX
  8
0
 62
7
  6
CONTINUOUS
 10
45.8320498729
 20
223.8198392725
  0
VERTEX
  8
0
 62
7
  6
CONTINUOUS
 10
45.4641499731
 20
223.8207223606
  0
VERTEX
  8
0
 62
7
  6
CONTINUOUS
 10
45.0981875269
 20
223.8215940851
  0
VERTEX
  8
0
 62
7
  6
CONTINUOUS
 10
44.734809159
 20
223.8224535524
  0
VERTEX
  8
0
 62
7
  6
CONTINUOUS
 10
44.0091421123
 20
223.8241396507
  0
SEQEND
  0
LINE
  8
0
 62
7
  6
CONTINUOUS
 10
44.0091421123
 20
223.8241396507
 11
43.2956659272
 21
223.8257765447
  0
POLYLINE
  8
0
 62
7
  6
CONTINUOUS
 66
1
 70
0
  0
VERTEX
  8
0
 62
7
  6
CONTINUOUS
 10
354.6181701187
 20
223.8391869852
  0
VERTEX
  8
0
 62
7
  6
CONTINUOUS
 10
354.5526647192
 20
223.8393383729
  0
VERTEX
  8
0
 62
7
  6
CONTINUOUS
 10
354.5195833559
 20
223.8394166777
  0
VERTEX
  8
0
 62
7
  6
CONTINUOUS
 10
354.4862923216
 20
223.839496753
  0
VERTEX
  8
0
 62
7
  6
CONTINUOUS
 10
354.4527948684
 20
223.8395786147
  0
SEQEND
  0
POLYLINE
  8
0
 62
7
  6
CONTINUOUS
 66
1
 70
0
  0
VERTEX
  8
0
 62
7
  6
CONTINUOUS
 10
-19.8463720505
 20
223.8009978397
  0
VERTEX
  8
0
 62
7
  6
CONTINUOUS
 10
-19.9940352301
 20
223.8013775129
  0
VERTEX
  8
0
 62
7
  6
CONTINUOUS
 10
-20.1366556668
 20
223.8018028765
  0
VERTEX
  8
0
 62
7
  6
CONTINUOUS
 10
-20.2763309677
 20
223.802362625
  0
VERTEX
  8
0
 62
7
  6
CONTINUOUS
 10
-20.4139436089
 20
223.8030243711
  0
VERTEX
  8
0
 62
7
  6
CONTINUOUS
 10
-20.5508630503
 20
223.8037957149
  0
SEQEND
  0
POLYLINE
  8
0
 62
7
  6
CONTINUOUS
 66
1
 70
0
  0
VERTEX
  8
0
 62
7
  6
CONTINUOUS
 10
50.0185973503
 20
223.8092711282
  0
VERTEX
  8
0
 62
7
  6
CONTINUOUS
 10
49.7437294079
 20
223.8099970843
  0
VERTEX
  8
0
 62
7
  6
CONTINUOUS
 10
49.4512150697
 20
223.8107587981
  0
VERTEX
  8
0
 62
7
  6
CONTINUOUS
 10
49.1388020874
 20
223.8115732968
  0
VERTEX
  8
0
 62
7
  6
CONTINUOUS
 10
48.8063722571
 20
223.8124292431
  0
VERTEX
  8
0
 62
7
  6
CONTINUOUS
 10
48.4497247841
 20
223.8133344592
  0
VERTEX
  8
0
 62
7
  6
CONTINUOUS
 10
48.0789287567
 20
223.8142858226
  0
VERTEX
  8
0
 62
7
  6
CONTINUOUS
 10
47.7010249358
 20
223.8152308112
  0
VERTEX
  8
0
 62
7
  6
CONTINUOUS
 10
46.2016765985
 20
223.8189443269
  0
SEQEND
  0
POLYLINE
  8
0
 62
7
  6
CONTINUOUS
 66
1
 70
0
  0
VERTEX
  8
0
 62
7
  6
CONTINUOUS
 10
354.4527948684
 20
223.8395786147
  0
VERTEX
  8
0
 62
7
  6
CONTINUOUS
 10
354.3852531896
 20
223.8397476847
  0
VERTEX
  8
0
 62
7
  6
CONTINUOUS
 10
354.3512359301
 20
223.8398348652
  0
VERTEX
  8
0
 62
7
  6
CONTINUOUS
 10
354.317072472
 20
223.8399237674
  0
SEQEND
  0
POLYLINE
  8
0
 62
7
  6
CONTINUOUS
 66
1
 70
0
  0
VERTEX
  8
0
 62
7
  6
CONTINUOUS
 10
53.4164096744
 20
223.7999938445
  0
VERTEX
  8
0
 62
7
  6
CONTINUOUS
 10
53.3177811517
 20
223.8002722702
  0
VERTEX
  8
0
 62
7
  6
CONTINUOUS
 10
53.2210224791
 20
223.800543871
  0
VERTEX
  8
0
 62
7
  6
CONTINUOUS
 10
53.1247180914
 20
223.8008149372
  0
VERTEX
  8
0
 62
7
  6
CONTINUOUS
 10
53.0272551859
 20
223.8010876051
  0
VERTEX
  8
0
 62
7
  6
CONTINUOUS
 10
52.9270684803
 20
223.8013685195
  0
VERTEX
  8
0
 62
7
  6
CONTINUOUS
 10
52.8226176802
 20
223.8016594941
  0
VERTEX
  8
0
 62
7
  6
CONTINUOUS
 10
52.7121104089
 20
223.8019681503
  0
SEQEND
  0
POLYLINE
  8
0
 62
7
  6
CONTINUOUS
 66
1
 70
0
  0
VERTEX
  8
0
 62
7
  6
CONTINUOUS
 10
52.7121104089
 20
223.8019681503
  0
VERTEX
  8
0
 62
7
  6
CONTINUOUS
 10
52.468998982
 20
223.8026431179
  0
VERTEX
  8
0
 62
7
  6
CONTINUOUS
 10
52.3353769554
 20
223.8030127515
  0
VERTEX
  8
0
 62
7
  6
CONTINUOUS
 10
52.1938307911
 20
223.8034036228
  0
VERTEX
  8
0
 62
7
  6
CONTINUOUS
 10
52.0446181605
 20
223.8038143
  0
VERTEX
  8
0
 62
7
  6
CONTINUOUS
 10
51.8883261405
 20
223.8042438215
  0
SEQEND
  0
POLYLINE
  8
0
 62
7
  6
CONTINUOUS
 66
1
 70
0
  0
VERTEX
  8
0
 62
7
  6
CONTINUOUS
 10
51.8883261405
 20
223.8042438215
  0
VERTEX
  8
0
 62
7
  6
CONTINUOUS
 10
51.5508648168
 20
223.8051654868
  0
VERTEX
  8
0
 62
7
  6
CONTINUOUS
 10
51.3681617996
 20
223.8056607743
  0
VERTEX
  8
0
 62
7
  6
CONTINUOUS
 10
51.174941192
 20
223.8061849919
  0
VERTEX
  8
0
 62
7
  6
CONTINUOUS
 10
50.7529005687
 20
223.8073207584
  0
SEQEND
  0
POLYLINE
  8
0
 62
7
  6
CONTINUOUS
 66
1
 70
0
  0
VERTEX
  8
0
 62
7
  6
CONTINUOUS
 10
50.7529005687
 20
223.8073207584
  0
VERTEX
  8
0
 62
7
  6
CONTINUOUS
 10
50.5223654602
 20
223.8079356948
  0
VERTEX
  8
0
 62
7
  6
CONTINUOUS
 10
50.0185973503
 20
223.8092711282
  0
SEQEND
  0
POLYLINE
  8
0
 62
7
  6
CONTINUOUS
 66
1
 70
0
  0
VERTEX
  8
0
 62
7
  6
CONTINUOUS
 10
354.317072472
 20
223.8399237674
  0
VERTEX
  8
0
 62
7
  6
CONTINUOUS
 10
354.2483366012
 20
223.8401066925
  0
VERTEX
  8
0
 62
7
  6
CONTINUOUS
 10
354.2137627328
 20
223.8402007208
  0
VERTEX
  8
0
 62
7
  6
CONTINUOUS
 10
354.1790396586
 20
223.8402965136
  0
VERTEX
  8
0
 62
7
  6
CONTINUOUS
 10
354.144151298
 20
223.8403941171
  0
SEQEND
  0
POLYLINE
  8
0
 62
7
  6
CONTINUOUS
 66
1
 70
0
  0
VERTEX
  8
0
 62
7
  6
CONTINUOUS
 10
70.3493294332
 20
226.0106114216
  0
VERTEX
  8
0
 62
7
  6
CONTINUOUS
 10
61.4626789877
 20
226.0356832632
  0
VERTEX
  8
0
 62
7
  6
CONTINUOUS
 10
57.3031801702
 20
226.0453459214
  0
VERTEX
  8
0
 62
7
  6
CONTINUOUS
 10
55.4140109028
 20
226.0491973698
  0
VERTEX
  8
0
 62
7
  6
CONTINUOUS
 10
53.5571884124
 20
226.0526393296
  0
VERTEX
  8
0
 62
7
  6
CONTINUOUS
 10
51.5835338006
 20
226.0559164579
  0
VERTEX
  8
0
 62
7
  6
CONTINUOUS
 10
48.3491275443
 20
226.0604243229
  0
VERTEX
  8
0
 62
7
  6
CONTINUOUS
 10
44.7860434848
 20
226.0641349444
  0
VERTEX
  8
0
 62
7
  6
CONTINUOUS
 10
41.5139026066
 20
226.0663664101
  0
VERTEX
  8
0
 62
7
  6
CONTINUOUS
 10
38.3835458877
 20
226.0674175802
  0
SEQEND
  0
POLYLINE
  8
0
 62
7
  6
CONTINUOUS
 66
1
 70
0
  0
VERTEX
  8
0
 62
7
  6
CONTINUOUS
 10
57.2150329884
 20
223.7889061304
  0
VERTEX
  8
0
 62
7
  6
CONTINUOUS
 10
57.1113754233
 20
223.789218098
  0
VERTEX
  8
0
 62
7
  6
CONTINUOUS
 10
57.0008686301
 20
223.7895503706
  0
VERTEX
  8
0
 62
7
  6
CONTINUOUS
 10
56.8833584919
 20
223.7899021741
  0
VERTEX
  8
0
 62
7
  6
CONTINUOUS
 10
56.7618982831
 20
223.7902669017
  0
VERTEX
  8
0
 62
7
  6
CONTINUOUS
 10
56.6397764098
 20
223.7906318623
  0
VERTEX
  8
0
 62
7
  6
CONTINUOUS
 10
56.5161062493
 20
223.7910007769
  0
VERTEX
  8
0
 62
7
  6
CONTINUOUS
 10
56.3914397711
 20
223.7913721081
  0
VERTEX
  8
0
 62
7
  6
CONTINUOUS
 10
56.2647478061
 20
223.7917480278
  0
VERTEX
  8
0
 62
7
  6
CONTINUOUS
 10
56.1348280341
 20
223.7921326305
  0
VERTEX
  8
0
 62
7
  6
CONTINUOUS
 10
56.0027610145
 20
223.7925232479
  0
VERTEX
  8
0
 62
7
  6
CONTINUOUS
 10
55.8685659306
 20
223.7929187007
  0
VERTEX
  8
0
 62
7
  6
CONTINUOUS
 10
55.7342178478
 20
223.7933151946
  0
VERTEX
  8
0
 62
7
  6
CONTINUOUS
 10
55.6008613813
 20
223.793706101
  0
VERTEX
  8
0
 62
7
  6
CONTINUOUS
 10
55.4709853801
 20
223.7940877396
  0
VERTEX
  8
0
 62
7
  6
CONTINUOUS
 10
55.3475594353
 20
223.7944482305
  0
VERTEX
  8
0
 62
7
  6
CONTINUOUS
 10
55.2302558573
 20
223.7947902802
  0
VERTEX
  8
0
 62
7
  6
CONTINUOUS
 10
55.1209368519
 20
223.7951093215
  0
VERTEX
  8
0
 62
7
  6
CONTINUOUS
 10
55.0159985026
 20
223.7954133576
  0
VERTEX
  8
0
 62
7
  6
CONTINUOUS
 10
54.9131770787
 20
223.7957128289
  0
VERTEX
  8
0
 62
7
  6
CONTINUOUS
 10
54.8103426355
 20
223.7960102722
  0
VERTEX
  8
0
 62
7
  6
CONTINUOUS
 10
54.7047146248
 20
223.7963163876
  0
VERTEX
  8
0
 62
7
  6
CONTINUOUS
 10
54.596006299
 20
223.7966298999
  0
VERTEX
  8
0
 62
7
  6
CONTINUOUS
 10
54.4830884667
 20
223.7969552419
  0
VERTEX
  8
0
 62
7
  6
CONTINUOUS
 10
54.3657198401
 20
223.7972920435
  0
VERTEX
  8
0
 62
7
  6
CONTINUOUS
 10
54.2423354545
 20
223.7976447777
  0
VERTEX
  8
0
 62
7
  6
CONTINUOUS
 10
54.1157850737
 20
223.7980073695
  0
VERTEX
  8
0
 62
7
  6
CONTINUOUS
 10
53.9870294887
 20
223.7983734398
  0
VERTEX
  8
0
 62
7
  6
CONTINUOUS
 10
53.8601472785
 20
223.7987365124
  0
VERTEX
  8
0
 62
7
  6
CONTINUOUS
 10
53.7397186231
 20
223.7990787959
  0
VERTEX
  8
0
 62
7
  6
CONTINUOUS
 10
53.4164096744
 20
223.7999938445
  0
SEQEND
  0
LINE
  8
0
 62
7
  6
CONTINUOUS
 10
179.9850601668
 20
223.5078003129
 11
177.9662856675
 21
223.5136458965
  0
POLYLINE
  8
0
 62
7
  6
CONTINUOUS
 66
1
 70
0
  0
VERTEX
  8
0
 62
7
  6
CONTINUOUS
 10
354.144151298
 20
223.8403941171
  0
VERTEX
  8
0
 62
7
  6
CONTINUOUS
 10
354.0738238179
 20
223.8405950174
  0
VERTEX
  8
0
 62
7
  6
CONTINUOUS
 10
354.0383565519
 20
223.8406984439
  0
VERTEX
  8
0
 62
7
  6
CONTINUOUS
 10
354.0026693319
 20
223.8408039307
  0
SEQEND
  0
POLYLINE
  8
0
 62
7
  6
CONTINUOUS
 66
1
 70
0
  0
VERTEX
  8
0
 62
7
  6
CONTINUOUS
 10
60.8787525405
 20
223.7775598687
  0
VERTEX
  8
0
 62
7
  6
CONTINUOUS
 10
60.6744863714
 20
223.7782082271
  0
VERTEX
  8
0
 62
7
  6
CONTINUOUS
 10
60.4825020313
 20
223.778814383
  0
VERTEX
  8
0
 62
7
  6
CONTINUOUS
 10
60.3017862739
 20
223.7793852803
  0
VERTEX
  8
0
 62
7
  6
CONTINUOUS
 10
59.9709017228
 20
223.7804254701
  0
SEQEND
  0
POLYLINE
  8
0
 62
7
  6
CONTINUOUS
 66
1
 70
0
  0
VERTEX
  8
0
 62
7
  6
CONTINUOUS
 10
74.6566433375
 20
223.7325110898
  0
VERTEX
  8
0
 62
7
  6
CONTINUOUS
 10
74.5492846651
 20
223.7328492714
  0
VERTEX
  8
0
 62
7
  6
CONTINUOUS
 10
74.5152310721
 20
223.732956657
  0
VERTEX
  8
0
 62
7
  6
CONTINUOUS
 10
74.4808844802
 20
223.7330648817
  0
VERTEX
  8
0
 62
7
  6
CONTINUOUS
 10
74.4454042428
 20
223.7331769268
  0
SEQEND
  0
POLYLINE
  8
0
 62
7
  6
CONTINUOUS
 66
1
 70
0
  0
VERTEX
  8
0
 62
7
  6
CONTINUOUS
 10
74.7709733272
 20
223.7321514139
  0
VERTEX
  8
0
 62
7
  6
CONTINUOUS
 10
74.7325296179
 20
223.7322722243
  0
VERTEX
  8
0
 62
7
  6
CONTINUOUS
 10
74.6566433375
 20
223.7325110898
  0
SEQEND
  0
POLYLINE
  8
0
 62
7
  6
CONTINUOUS
 66
1
 70
0
  0
VERTEX
  8
0
 62
7
  6
CONTINUOUS
 10
75.0029344565
 20
223.7314254266
  0
VERTEX
  8
0
 62
7
  6
CONTINUOUS
 10
74.9637640656
 20
223.7315474583
  0
VERTEX
  8
0
 62
7
  6
CONTINUOUS
 10
74.9244400307
 20
223.731670185
  0
VERTEX
  8
0
 62
7
  6
CONTINUOUS
 10
74.8854330391
 20
223.7317923192
  0
VERTEX
  8
0
 62
7
  6
CONTINUOUS
 10
74.7709733272
 20
223.7321514139
  0
SEQEND
  0
LINE
  8
0
 62
7
  6
CONTINUOUS
 10
59.9709017228
 20
223.7804254701
 11
59.6748629043
 21
223.7813518422
  0
POLYLINE
  8
0
 62
7
  6
CONTINUOUS
 66
1
 70
0
  0
VERTEX
  8
0
 62
7
  6
CONTINUOUS
 10
59.6748629043
 20
223.7813518422
  0
VERTEX
  8
0
 62
7
  6
CONTINUOUS
 10
59.4086210609
 20
223.7821823232
  0
VERTEX
  8
0
 62
7
  6
CONTINUOUS
 10
59.2860279914
 20
223.7825637827
  0
VERTEX
  8
0
 62
7
  6
CONTINUOUS
 10
59.1702781309
 20
223.7829236225
  0
VERTEX
  8
0
 62
7
  6
CONTINUOUS
 10
59.0613350196
 20
223.7832614566
  0
VERTEX
  8
0
 62
7
  6
CONTINUOUS
 10
58.9593047105
 20
223.7835775786
  0
VERTEX
  8
0
 62
7
  6
CONTINUOUS
 10
58.8635933967
 20
223.7838732118
  0
VERTEX
  8
0
 62
7
  6
CONTINUOUS
 10
58.7742002666
 20
223.7841496595
  0
VERTEX
  8
0
 62
7
  6
CONTINUOUS
 10
58.6894595905
 20
223.78441063
  0
VERTEX
  8
0
 62
7
  6
CONTINUOUS
 10
58.6081377111
 20
223.7846616788
  0
VERTEX
  8
0
 62
7
  6
CONTINUOUS
 10
58.5289505926
 20
223.7849051615
  0
VERTEX
  8
0
 62
7
  6
CONTINUOUS
 10
58.4502416536
 20
223.7851472862
  0
VERTEX
  8
0
 62
7
  6
CONTINUOUS
 10
58.371905943
 20
223.7853876676
  0
VERTEX
  8
0
 62
7
  6
CONTINUOUS
 10
58.2932359924
 20
223.785628883
  0
VERTEX
  8
0
 62
7
  6
CONTINUOUS
 10
58.2143868425
 20
223.7858703174
  0
VERTEX
  8
0
 62
7
  6
CONTINUOUS
 10
58.1353195575
 20
223.7861122195
  0
VERTEX
  8
0
 62
7
  6
CONTINUOUS
 10
58.0559091054
 20
223.7863548339
  0
VERTEX
  8
0
 62
7
  6
CONTINUOUS
 10
57.9760324319
 20
223.786598611
  0
VERTEX
  8
0
 62
7
  6
CONTINUOUS
 10
57.8956455487
 20
223.7868436282
  0
VERTEX
  8
0
 62
7
  6
CONTINUOUS
 10
57.8146527758
 20
223.7870902683
  0
VERTEX
  8
0
 62
7
  6
CONTINUOUS
 10
57.7330867054
 20
223.7873383557
  0
VERTEX
  8
0
 62
7
  6
CONTINUOUS
 10
57.6510663771
 20
223.7875875654
  0
VERTEX
  8
0
 62
7
  6
CONTINUOUS
 10
57.5682368046
 20
223.7878387466
  0
VERTEX
  8
0
 62
7
  6
CONTINUOUS
 10
57.4849299989
 20
223.7880914921
  0
VERTEX
  8
0
 62
7
  6
CONTINUOUS
 10
57.3992061587
 20
223.7883503378
  0
VERTEX
  8
0
 62
7
  6
CONTINUOUS
 10
57.2150329884
 20
223.7889061304
  0
SEQEND
  0
POLYLINE
  8
0
 62
7
  6
CONTINUOUS
 66
1
 70
0
  0
VERTEX
  8
0
 62
7
  6
CONTINUOUS
 10
354.0026693319
 20
223.8408039307
  0
VERTEX
  8
0
 62
7
  6
CONTINUOUS
 10
353.9305819027
 20
223.8410213985
  0
VERTEX
  8
0
 62
7
  6
CONTINUOUS
 10
353.8941603165
 20
223.8411335003
  0
VERTEX
  8
0
 62
7
  6
CONTINUOUS
 10
353.8574709788
 20
223.8412479292
  0
SEQEND
  0
POLYLINE
  8
0
 62
7
  6
CONTINUOUS
 66
1
 70
0
  0
VERTEX
  8
0
 62
7
  6
CONTINUOUS
 10
377.6687225479
 20
223.8075246888
  0
VERTEX
  8
0
 62
7
  6
CONTINUOUS
 10
377.5032942851
 20
223.8080412139
  0
VERTEX
  8
0
 62
7
  6
CONTINUOUS
 10
377.3427411793
 20
223.8084642228
  0
VERTEX
  8
0
 62
7
  6
CONTINUOUS
 10
377.1850753742
 20
223.8087692551
  0
VERTEX
  8
0
 62
7
  6
CONTINUOUS
 10
377.0280746855
 20
223.8089559348
  0
VERTEX
  8
0
 62
7
  6
CONTINUOUS
 10
376.8729051621
 20
223.8090181477
  0
VERTEX
  8
0
 62
7
  6
CONTINUOUS
 10
376.7204448064
 20
223.8089072777
  0
VERTEX
  8
0
 62
7
  6
CONTINUOUS
 10
376.5698719626
 20
223.8086064171
  0
VERTEX
  8
0
 62
7
  6
CONTINUOUS
 10
376.4225654173
 20
223.808083593
  0
VERTEX
  8
0
 62
7
  6
CONTINUOUS
 10
376.2729320377
 20
223.8073004187
  0
VERTEX
  8
0
 62
7
  6
CONTINUOUS
 10
376.1165733435
 20
223.8063833595
  0
VERTEX
  8
0
 62
7
  6
CONTINUOUS
 10
375.9498338859
 20
223.8051953289
  0
VERTEX
  8
0
 62
7
  6
CONTINUOUS
 10
375.7670851948
 20
223.8038384098
  0
VERTEX
  8
0
 62
7
  6
CONTINUOUS
 10
375.3499769131
 20
223.8005193843
  0
SEQEND
  0
POLYLINE
  8
0
 62
7
  6
CONTINUOUS
 66
1
 70
0
  0
VERTEX
  8
0
 62
7
  6
CONTINUOUS
 10
75.7381745397
 20
225.9925578933
  0
VERTEX
  8
0
 62
7
  6
CONTINUOUS
 10
71.7741833795
 20
226.0048498265
  0
VERTEX
  8
0
 62
7
  6
CONTINUOUS
 10
65.4776177906
 20
226.0237461079
  0
VERTEX
  8
0
 62
7
  6
CONTINUOUS
 10
59.7658386603
 20
226.038786834
  0
VERTEX
  8
0
 62
7
  6
CONTINUOUS
 10
56.7817345978
 20
226.0455488006
  0
VERTEX
  8
0
 62
7
  6
CONTINUOUS
 10
55.1359422162
 20
226.0489121687
  0
VERTEX
  8
0
 62
7
  6
CONTINUOUS
 10
53.6971373091
 20
226.0516333115
  0
VERTEX
  8
0
 62
7
  6
CONTINUOUS
 10
50.9768811342
 20
226.0562074175
  0
VERTEX
  8
0
 62
7
  6
CONTINUOUS
 10
47.795008157
 20
226.0605941263
  0
VERTEX
  8
0
 62
7
  6
CONTINUOUS
 10
44.3471735895
 20
226.0641596091
  0
VERTEX
  8
0
 62
7
  6
CONTINUOUS
 10
40.7749902347
 20
226.0665302572
  0
VERTEX
  8
0
 62
7
  6
CONTINUOUS
 10
37.4419692529
 20
226.0674889824
  0
VERTEX
  8
0
 62
7
  6
CONTINUOUS
 10
34.2737410035
 20
226.0672221485
  0
VERTEX
  8
0
 62
7
  6
CONTINUOUS
 10
31.2570482323
 20
226.0658211199
  0
VERTEX
  8
0
 62
7
  6
CONTINUOUS
 10
28.3707765334
 20
226.0633262164
  0
VERTEX
  8
0
 62
7
  6
CONTINUOUS
 10
25.5992367477
 20
226.0597495067
  0
VERTEX
  8
0
 62
7
  6
CONTINUOUS
 10
22.9264523415
 20
226.0550851982
  0
VERTEX
  8
0
 62
7
  6
CONTINUOUS
 10
20.3371583276
 20
226.049326134
  0
VERTEX
  8
0
 62
7
  6
CONTINUOUS
 10
17.8251935981
 20
226.0424921687
  0
VERTEX
  8
0
 62
7
  6
CONTINUOUS
 10
15.3708038239
 20
226.0346276982
  0
VERTEX
  8
0
 62
7
  6
CONTINUOUS
 10
13.0066617859
 20
226.0260040994
  0
VERTEX
  8
0
 62
7
  6
CONTINUOUS
 10
10.8031874002
 20
226.0172291359
  0
VERTEX
  8
0
 62
7
  6
CONTINUOUS
 10
8.6143780677
 20
226.0081324788
  0
VERTEX
  8
0
 62
7
  6
CONTINUOUS
 10
6.3235000355
 20
225.9987425803
  0
VERTEX
  8
0
 62
7
  6
CONTINUOUS
 10
4.1123365402
 20
225.9905404894
  0
SEQEND
  0
POLYLINE
  8
0
 62
7
  6
CONTINUOUS
 66
1
 70
0
  0
VERTEX
  8
0
 62
7
  6
CONTINUOUS
 10
68.2895644601
 20
223.7533018465
  0
VERTEX
  8
0
 62
7
  6
CONTINUOUS
 10
68.1866339933
 20
223.7536443305
  0
VERTEX
  8
0
 62
7
  6
CONTINUOUS
 10
68.0880901722
 20
223.7539719116
  0
VERTEX
  8
0
 62
7
  6
CONTINUOUS
 10
67.9934146044
 20
223.7542869372
  0
VERTEX
  8
0
 62
7
  6
CONTINUOUS
 10
67.902061695
 20
223.7545905339
  0
VERTEX
  8
0
 62
7
  6
CONTINUOUS
 10
67.8137246515
 20
223.7548844188
  0
VERTEX
  8
0
 62
7
  6
CONTINUOUS
 10
67.7271738371
 20
223.7551717871
  0
VERTEX
  8
0
 62
7
  6
CONTINUOUS
 10
67.6414409628
 20
223.7554569102
  0
VERTEX
  8
0
 62
7
  6
CONTINUOUS
 10
67.5554432615
 20
223.755742371
  0
VERTEX
  8
0
 62
7
  6
CONTINUOUS
 10
67.4679485165
 20
223.7560332722
  0
VERTEX
  8
0
 62
7
  6
CONTINUOUS
 10
67.3784449988
 20
223.7563304935
  0
VERTEX
  8
0
 62
7
  6
CONTINUOUS
 10
67.1906501024
 20
223.7569546116
  0
SEQEND
  0
POLYLINE
  8
0
 62
7
  6
CONTINUOUS
 66
1
 70
0
  0
VERTEX
  8
0
 62
7
  6
CONTINUOUS
 10
67.1906501024
 20
223.7569546116
  0
VERTEX
  8
0
 62
7
  6
CONTINUOUS
 10
67.0923126804
 20
223.7572810234
  0
VERTEX
  8
0
 62
7
  6
CONTINUOUS
 10
66.9931734488
 20
223.7576110075
  0
VERTEX
  8
0
 62
7
  6
CONTINUOUS
 10
66.8948378071
 20
223.7579374045
  0
VERTEX
  8
0
 62
7
  6
CONTINUOUS
 10
66.7989498144
 20
223.7582564675
  0
VERTEX
  8
0
 62
7
  6
CONTINUOUS
 10
66.7081910543
 20
223.7585580124
  0
VERTEX
  8
0
 62
7
  6
CONTINUOUS
 10
66.6210404373
 20
223.7588471304
  0
VERTEX
  8
0
 62
7
  6
CONTINUOUS
 10
66.5373336834
 20
223.7591250721
  0
VERTEX
  8
0
 62
7
  6
CONTINUOUS
 10
66.455686591
 20
223.7593955321
  0
VERTEX
  8
0
 62
7
  6
CONTINUOUS
 10
66.3751681871
 20
223.7596627974
  0
VERTEX
  8
0
 62
7
  6
CONTINUOUS
 10
66.2942629856
 20
223.7599306444
  0
SEQEND
  0
POLYLINE
  8
0
 62
7
  6
CONTINUOUS
 66
1
 70
0
  0
VERTEX
  8
0
 62
7
  6
CONTINUOUS
 10
66.2942629856
 20
223.7599306444
  0
VERTEX
  8
0
 62
7
  6
CONTINUOUS
 10
66.12582502
 20
223.7604889056
  0
VERTEX
  8
0
 62
7
  6
CONTINUOUS
 10
66.0384566106
 20
223.7607780413
  0
VERTEX
  8
0
 62
7
  6
CONTINUOUS
 10
65.9508567634
 20
223.7610685715
  0
VERTEX
  8
0
 62
7
  6
CONTINUOUS
 10
65.8647405223
 20
223.7613535243
  0
VERTEX
  8
0
 62
7
  6
CONTINUOUS
 10
65.7805561332
 20
223.7616323241
  0
VERTEX
  8
0
 62
7
  6
CONTINUOUS
 10
65.6997540231
 20
223.7618997417
  0
VERTEX
  8
0
 62
7
  6
CONTINUOUS
 10
65.6210369348
 20
223.7621598444
  0
VERTEX
  8
0
 62
7
  6
CONTINUOUS
 10
65.5439463011
 20
223.7624148664
  0
VERTEX
  8
0
 62
7
  6
CONTINUOUS
 10
65.4674212772
 20
223.7626675126
  0
VERTEX
  8
0
 62
7
  6
CONTINUOUS
 10
65.3905407082
 20
223.7629216746
  0
VERTEX
  8
0
 62
7
  6
CONTINUOUS
 10
65.3124335129
 20
223.7631793534
  0
VERTEX
  8
0
 62
7
  6
CONTINUOUS
 10
65.2325898791
 20
223.7634432576
  0
VERTEX
  8
0
 62
7
  6
CONTINUOUS
 10
65.1490113907
 20
223.763718479
  0
VERTEX
  8
0
 62
7
  6
CONTINUOUS
 10
65.0593510036
 20
223.7640141943
  0
VERTEX
  8
0
 62
7
  6
CONTINUOUS
 10
64.9641583983
 20
223.7643277627
  0
VERTEX
  8
0
 62
7
  6
CONTINUOUS
 10
64.8621725721
 20
223.7646631318
  0
VERTEX
  8
0
 62
7
  6
CONTINUOUS
 10
64.7564823181
 20
223.7650116346
  0
SEQEND
  0
POLYLINE
  8
0
 62
7
  6
CONTINUOUS
 66
1
 70
0
  0
VERTEX
  8
0
 62
7
  6
CONTINUOUS
 10
69.7910024289
 20
223.7483170365
  0
VERTEX
  8
0
 62
7
  6
CONTINUOUS
 10
69.6998283819
 20
223.7486190461
  0
VERTEX
  8
0
 62
7
  6
CONTINUOUS
 10
69.6146164671
 20
223.748902059
  0
VERTEX
  8
0
 62
7
  6
CONTINUOUS
 10
69.5322149489
 20
223.7491746767
  0
VERTEX
  8
0
 62
7
  6
CONTINUOUS
 10
69.450300258
 20
223.7494467149
  0
VERTEX
  8
0
 62
7
  6
CONTINUOUS
 10
69.3667548865
 20
223.7497232113
  0
VERTEX
  8
0
 62
7
  6
CONTINUOUS
 10
69.2788974195
 20
223.7500150405
  0
VERTEX
  8
0
 62
7
  6
CONTINUOUS
 10
69.1861121722
 20
223.7503227102
  0
VERTEX
  8
0
 62
7
  6
CONTINUOUS
 10
69.0868270165
 20
223.7506526999
  0
VERTEX
  8
0
 62
7
  6
CONTINUOUS
 10
68.9812406037
 20
223.7510034171
  0
VERTEX
  8
0
 62
7
  6
CONTINUOUS
 10
68.8678797303
 20
223.7513794887
  0
VERTEX
  8
0
 62
7
  6
CONTINUOUS
 10
68.7501928184
 20
223.7517712661
  0
VERTEX
  8
0
 62
7
  6
CONTINUOUS
 10
68.6298202258
 20
223.752170092
  0
VERTEX
  8
0
 62
7
  6
CONTINUOUS
 10
68.510692018
 20
223.7525670028
  0
VERTEX
  8
0
 62
7
  6
CONTINUOUS
 10
68.2895644601
 20
223.7533018465
  0
SEQEND
  0
POLYLINE
  8
0
 62
7
  6
CONTINUOUS
 66
1
 70
0
  0
VERTEX
  8
0
 62
7
  6
CONTINUOUS
 10
70.4316587189
 20
223.7461976795
  0
VERTEX
  8
0
 62
7
  6
CONTINUOUS
 10
70.3244803078
 20
223.7465520925
  0
VERTEX
  8
0
 62
7
  6
CONTINUOUS
 10
70.2125568759
 20
223.7469209396
  0
VERTEX
  8
0
 62
7
  6
CONTINUOUS
 10
70.1003090368
 20
223.7472929469
  0
VERTEX
  8
0
 62
7
  6
CONTINUOUS
 10
69.9917850178
 20
223.7476515091
  0
VERTEX
  8
0
 62
7
  6
CONTINUOUS
 10
69.7910024289
 20
223.7483170365
  0
SEQEND
  0
POLYLINE
  8
0
 62
7
  6
CONTINUOUS
 66
1
 70
0
  0
VERTEX
  8
0
 62
7
  6
CONTINUOUS
 10
71.2042181345
 20
223.7436512198
  0
VERTEX
  8
0
 62
7
  6
CONTINUOUS
 10
71.0436552115
 20
223.7441795481
  0
VERTEX
  8
0
 62
7
  6
CONTINUOUS
 10
70.967124155
 20
223.7444319934
  0
VERTEX
  8
0
 62
7
  6
CONTINUOUS
 10
70.8897919034
 20
223.7446861114
  0
VERTEX
  8
0
 62
7
  6
CONTINUOUS
 10
70.8084769597
 20
223.7449542489
  0
VERTEX
  8
0
 62
7
  6
CONTINUOUS
 10
70.7228360943
 20
223.7452362827
  0
VERTEX
  8
0
 62
7
  6
CONTINUOUS
 10
70.4316587189
 20
223.7461976795
  0
SEQEND
  0
LINE
  8
0
 62
7
  6
CONTINUOUS
 10
71.2880700949
 20
223.7433754251
 11
71.2042181345
 21
223.7436512198
  0
POLYLINE
  8
0
 62
7
  6
CONTINUOUS
 66
1
 70
0
  0
VERTEX
  8
0
 62
7
  6
CONTINUOUS
 10
64.7564823181
 20
223.7650116346
  0
VERTEX
  8
0
 62
7
  6
CONTINUOUS
 10
64.5419757319
 20
223.7657167674
  0
VERTEX
  8
0
 62
7
  6
CONTINUOUS
 10
64.4343490768
 20
223.7660710111
  0
VERTEX
  8
0
 62
7
  6
CONTINUOUS
 10
64.3232370682
 20
223.7664347049
  0
VERTEX
  8
0
 62
7
  6
CONTINUOUS
 10
64.2057298539
 20
223.7668205971
  0
VERTEX
  8
0
 62
7
  6
CONTINUOUS
 10
64.0808740907
 20
223.7672288523
  0
VERTEX
  8
0
 62
7
  6
CONTINUOUS
 10
63.9463270772
 20
223.7676690986
  0
VERTEX
  8
0
 62
7
  6
CONTINUOUS
 10
63.8033679103
 20
223.768136286
  0
VERTEX
  8
0
 62
7
  6
CONTINUOUS
 10
63.652678834
 20
223.768628416
  0
VERTEX
  8
0
 62
7
  6
CONTINUOUS
 10
63.3264665117
 20
223.7696911786
  0
SEQEND
  0
POLYLINE
  8
0
 62
7
  6
CONTINUOUS
 66
1
 70
0
  0
VERTEX
  8
0
 62
7
  6
CONTINUOUS
 10
72.2511856786
 20
223.7402243027
  0
VERTEX
  8
0
 62
7
  6
CONTINUOUS
 10
71.9991556101
 20
223.7410459685
  0
VERTEX
  8
0
 62
7
  6
CONTINUOUS
 10
71.9065194815
 20
223.7413492016
  0
VERTEX
  8
0
 62
7
  6
CONTINUOUS
 10
71.813739986
 20
223.7416520712
  0
VERTEX
  8
0
 62
7
  6
CONTINUOUS
 10
71.7219160895
 20
223.7419527386
  0
VERTEX
  8
0
 62
7
  6
CONTINUOUS
 10
71.6338048234
 20
223.7422414572
  0
VERTEX
  8
0
 62
7
  6
CONTINUOUS
 10
71.5470764028
 20
223.7425253963
  0
VERTEX
  8
0
 62
7
  6
CONTINUOUS
 10
71.4599652882
 20
223.7428110019
  0
VERTEX
  8
0
 62
7
  6
CONTINUOUS
 10
71.2880700949
 20
223.7433754251
  0
SEQEND
  0
POLYLINE
  8
0
 62
7
  6
CONTINUOUS
 66
1
 70
0
  0
VERTEX
  8
0
 62
7
  6
CONTINUOUS
 10
72.3961459166
 20
223.7397525982
  0
VERTEX
  8
0
 62
7
  6
CONTINUOUS
 10
72.3252692265
 20
223.7399833803
  0
VERTEX
  8
0
 62
7
  6
CONTINUOUS
 10
72.2511856786
 20
223.7402243027
  0
SEQEND
  0
POLYLINE
  8
0
 62
7
  6
CONTINUOUS
 66
1
 70
0
  0
VERTEX
  8
0
 62
7
  6
CONTINUOUS
 10
63.3264665117
 20
223.7696911786
  0
VERTEX
  8
0
 62
7
  6
CONTINUOUS
 10
63.1499597612
 20
223.7702641595
  0
VERTEX
  8
0
 62
7
  6
CONTINUOUS
 10
62.9637640086
 20
223.7708695925
  0
VERTEX
  8
0
 62
7
  6
CONTINUOUS
 10
62.7661999751
 20
223.7715085702
  0
VERTEX
  8
0
 62
7
  6
CONTINUOUS
 10
62.5558655542
 20
223.7721903978
  0
VERTEX
  8
0
 62
7
  6
CONTINUOUS
 10
62.3315413235
 20
223.7729131601
  0
VERTEX
  8
0
 62
7
  6
CONTINUOUS
 10
62.0882930393
 20
223.7736919887
  0
VERTEX
  8
0
 62
7
  6
CONTINUOUS
 10
61.5790415508
 20
223.7753224181
  0
SEQEND
  0
POLYLINE
  8
0
 62
7
  6
CONTINUOUS
 66
1
 70
0
  0
VERTEX
  8
0
 62
7
  6
CONTINUOUS
 10
76.4483267708
 20
223.7268180559
  0
VERTEX
  8
0
 62
7
  6
CONTINUOUS
 10
75.9901548727
 20
223.7283032906
  0
VERTEX
  8
0
 62
7
  6
CONTINUOUS
 10
75.0029344565
 20
223.7314254266
  0
SEQEND
  0
POLYLINE
  8
0
 62
7
  6
CONTINUOUS
 66
1
 70
0
  0
VERTEX
  8
0
 62
7
  6
CONTINUOUS
 10
72.9771041896
 20
223.7378692115
  0
VERTEX
  8
0
 62
7
  6
CONTINUOUS
 10
72.9291472594
 20
223.738024226
  0
VERTEX
  8
0
 62
7
  6
CONTINUOUS
 10
72.8808345185
 20
223.7381802134
  0
VERTEX
  8
0
 62
7
  6
CONTINUOUS
 10
72.8312022552
 20
223.7383408588
  0
VERTEX
  8
0
 62
7
  6
CONTINUOUS
 10
72.7790820879
 20
223.7385093595
  0
VERTEX
  8
0
 62
7
  6
CONTINUOUS
 10
72.7227776703
 20
223.7386917654
  0
VERTEX
  8
0
 62
7
  6
CONTINUOUS
 10
72.6629143895
 20
223.7388858444
  0
VERTEX
  8
0
 62
7
  6
CONTINUOUS
 10
72.5990763502
 20
223.7390928959
  0
VERTEX
  8
0
 62
7
  6
CONTINUOUS
 10
72.3961459166
 20
223.7397525982
  0
SEQEND
  0
POLYLINE
  8
0
 62
7
  6
CONTINUOUS
 66
1
 70
0
  0
VERTEX
  8
0
 62
7
  6
CONTINUOUS
 10
73.233552328
 20
223.7370420446
  0
VERTEX
  8
0
 62
7
  6
CONTINUOUS
 10
73.1277023308
 20
223.7373831576
  0
VERTEX
  8
0
 62
7
  6
CONTINUOUS
 10
72.9771041896
 20
223.7378692115
  0
SEQEND
  0
POLYLINE
  8
0
 62
7
  6
CONTINUOUS
 66
1
 70
0
  0
VERTEX
  8
0
 62
7
  6
CONTINUOUS
 10
61.5790415508
 20
223.7753224181
  0
VERTEX
  8
0
 62
7
  6
CONTINUOUS
 10
61.3280020594
 20
223.7761309661
  0
VERTEX
  8
0
 62
7
  6
CONTINUOUS
 10
60.8787525405
 20
223.7775598687
  0
SEQEND
  0
POLYLINE
  8
0
 62
7
  6
CONTINUOUS
 66
1
 70
0
  0
VERTEX
  8
0
 62
7
  6
CONTINUOUS
 10
74.4454042428
 20
223.7331769268
  0
VERTEX
  8
0
 62
7
  6
CONTINUOUS
 10
73.8204702701
 20
223.7351609503
  0
VERTEX
  8
0
 62
7
  6
CONTINUOUS
 10
73.7734622213
 20
223.735311081
  0
VERTEX
  8
0
 62
7
  6
CONTINUOUS
 10
73.7263302999
 20
223.7354616991
  0
VERTEX
  8
0
 62
7
  6
CONTINUOUS
 10
73.6790512869
 20
223.7356128726
  0
VERTEX
  8
0
 62
7
  6
CONTINUOUS
 10
73.6316322465
 20
223.7357645781
  0
VERTEX
  8
0
 62
7
  6
CONTINUOUS
 10
73.5839904942
 20
223.7359170686
  0
VERTEX
  8
0
 62
7
  6
CONTINUOUS
 10
73.5361179072
 20
223.7360704165
  0
VERTEX
  8
0
 62
7
  6
CONTINUOUS
 10
73.4877981051
 20
223.7362252625
  0
VERTEX
  8
0
 62
7
  6
CONTINUOUS
 10
73.4388784748
 20
223.736382204
  0
VERTEX
  8
0
 62
7
  6
CONTINUOUS
 10
73.3891602597
 20
223.7365417831
  0
VERTEX
  8
0
 62
7
  6
CONTINUOUS
 10
73.338347102
 20
223.7367050326
  0
VERTEX
  8
0
 62
7
  6
CONTINUOUS
 10
73.233552328
 20
223.7370420446
  0
SEQEND
  0
POLYLINE
  8
0
 62
7
  6
CONTINUOUS
 66
1
 70
0
  0
VERTEX
  8
0
 62
7
  6
CONTINUOUS
 10
353.8574709788
 20
223.8412479292
  0
VERTEX
  8
0
 62
7
  6
CONTINUOUS
 10
353.7832412395
 20
223.8414840929
  0
VERTEX
  8
0
 62
7
  6
CONTINUOUS
 10
353.7456647776
 20
223.8416058985
  0
VERTEX
  8
0
 62
7
  6
CONTINUOUS
 10
353.7077794587
 20
223.8417304896
  0
SEQEND
  0
POLYLINE
  8
0
 62
7
  6
CONTINUOUS
 66
1
 70
0
  0
VERTEX
  8
0
 62
7
  6
CONTINUOUS
 10
-13.0988780899
 20
225.9394111523
  0
VERTEX
  8
0
 62
7
  6
CONTINUOUS
 10
-14.5545768638
 20
225.9441215744
  0
VERTEX
  8
0
 62
7
  6
CONTINUOUS
 10
-15.9233316033
 20
225.9522141492
  0
VERTEX
  8
0
 62
7
  6
CONTINUOUS
 10
-17.1773031795
 20
225.959374985
  0
VERTEX
  8
0
 62
7
  6
CONTINUOUS
 10
-17.4927576848
 20
225.9592439746
  0
SEQEND
  0
LINE
  8
0
 62
7
  6
CONTINUOUS
 10
76.2985088285
 20
225.9921799453
 11
70.3493294332
 21
226.0106114216
  0
LINE
  8
0
 62
7
  6
CONTINUOUS
 10
75.7383868179
 20
225.9925592031
 11
75.738308123
 21
225.9925594587
  0
LINE
  8
0
 62
7
  6
CONTINUOUS
 10
77.8397756265
 20
223.7221658275
 11
76.4483267708
 21
223.7268180559
  0
POLYLINE
  8
0
 62
7
  6
CONTINUOUS
 66
1
 70
0
  0
VERTEX
  8
0
 62
7
  6
CONTINUOUS
 10
79.7523528249
 20
223.7154323759
  0
VERTEX
  8
0
 62
7
  6
CONTINUOUS
 10
79.2666372599
 20
223.7171800429
  0
VERTEX
  8
0
 62
7
  6
CONTINUOUS
 10
77.8397756265
 20
223.7221658275
  0
SEQEND
  0
POLYLINE
  8
0
 62
7
  6
CONTINUOUS
 66
1
 70
0
  0
VERTEX
  8
0
 62
7
  6
CONTINUOUS
 10
351.9902803585
 20
225.990536636
  0
VERTEX
  8
0
 62
7
  6
CONTINUOUS
 10
349.8994355262
 20
225.9982310911
  0
VERTEX
  8
0
 62
7
  6
CONTINUOUS
 10
347.7176729099
 20
226.0071045744
  0
VERTEX
  8
0
 62
7
  6
CONTINUOUS
 10
345.696136948
 20
226.0154982408
  0
VERTEX
  8
0
 62
7
  6
CONTINUOUS
 10
343.6815828788
 20
226.0236121596
  0
VERTEX
  8
0
 62
7
  6
CONTINUOUS
 10
341.4883880417
 20
226.0318410755
  0
VERTEX
  8
0
 62
7
  6
CONTINUOUS
 10
339.2020559756
 20
226.0395324237
  0
VERTEX
  8
0
 62
7
  6
CONTINUOUS
 10
336.8538162014
 20
226.0463864602
  0
VERTEX
  8
0
 62
7
  6
CONTINUOUS
 10
334.4307260032
 20
226.0523307876
  0
VERTEX
  8
0
 62
7
  6
CONTINUOUS
 10
331.9325599993
 20
226.0573048951
  0
VERTEX
  8
0
 62
7
  6
CONTINUOUS
 10
329.3508626829
 20
226.0612969166
  0
VERTEX
  8
0
 62
7
  6
CONTINUOUS
 10
326.6775382156
 20
226.064308077
  0
VERTEX
  8
0
 62
7
  6
CONTINUOUS
 10
323.9055484765
 20
226.0663415614
  0
VERTEX
  8
0
 62
7
  6
CONTINUOUS
 10
321.0293807109
 20
226.0673876714
  0
VERTEX
  8
0
 62
7
  6
CONTINUOUS
 10
318.0311080557
 20
226.0674175802
  0
VERTEX
  8
0
 62
7
  6
CONTINUOUS
 10
314.9007513409
 20
226.0663664101
  0
VERTEX
  8
0
 62
7
  6
CONTINUOUS
 10
311.6286104615
 20
226.0641349444
  0
VERTEX
  8
0
 62
7
  6
CONTINUOUS
 10
308.0655264058
 20
226.0604243229
  0
VERTEX
  8
0
 62
7
  6
CONTINUOUS
 10
304.8311201549
 20
226.0559164579
  0
VERTEX
  8
0
 62
7
  6
CONTINUOUS
 10
302.8574655534
 20
226.0526393296
  0
VERTEX
  8
0
 62
7
  6
CONTINUOUS
 10
301.0006430758
 20
226.0491973699
  0
VERTEX
  8
0
 62
7
  6
CONTINUOUS
 10
299.1114737763
 20
226.0453459214
  0
VERTEX
  8
0
 62
7
  6
CONTINUOUS
 10
294.9519748586
 20
226.035683263
  0
VERTEX
  8
0
 62
7
  6
CONTINUOUS
 10
286.0653244859
 20
226.0106114215
  0
VERTEX
  8
0
 62
7
  6
CONTINUOUS
 10
280.2319945008
 20
225.9925592993
  0
SEQEND
  0
POLYLINE
  8
0
 62
7
  6
CONTINUOUS
 66
1
 70
0
  0
VERTEX
  8
0
 62
7
  6
CONTINUOUS
 10
352.3023632747
 20
225.9905404288
  0
VERTEX
  8
0
 62
7
  6
CONTINUOUS
 10
350.3274171173
 20
225.9978108697
  0
VERTEX
  8
0
 62
7
  6
CONTINUOUS
 10
348.2438265739
 20
226.0062834799
  0
VERTEX
  8
0
 62
7
  6
CONTINUOUS
 10
346.1725338092
 20
226.0149171087
  0
VERTEX
  8
0
 62
7
  6
CONTINUOUS
 10
344.0655923185
 20
226.0234476038
  0
VERTEX
  8
0
 62
7
  6
CONTINUOUS
 10
341.8648736793
 20
226.0317417384
  0
VERTEX
  8
0
 62
7
  6
CONTINUOUS
 10
339.5907768935
 20
226.0394257371
  0
VERTEX
  8
0
 62
7
  6
CONTINUOUS
 10
337.2463926956
 20
226.0462994088
  0
VERTEX
  8
0
 62
7
  6
CONTINUOUS
 10
334.8220399081
 20
226.0522780799
  0
VERTEX
  8
0
 62
7
  6
CONTINUOUS
 10
332.3072225879
 20
226.0573002142
  0
VERTEX
  8
0
 62
7
  6
CONTINUOUS
 10
329.7033041621
 20
226.0613313282
  0
VERTEX
  8
0
 62
7
  6
CONTINUOUS
 10
327.0143386945
 20
226.0643533054
  0
VERTEX
  8
0
 62
7
  6
CONTINUOUS
 10
324.2204196672
 20
226.0663827009
  0
VERTEX
  8
0
 62
7
  6
CONTINUOUS
 10
321.3061755312
 20
226.0674083678
  0
VERTEX
  8
0
 62
7
  6
CONTINUOUS
 10
319.9387248339
 20
226.067398551
  0
SEQEND
  0
LINE
  8
0
 62
7
  6
CONTINUOUS
 10
81.2466643065
 20
223.7099025327
 11
79.7523528249
 21
223.7154323759
  0
LINE
  8
0
 62
7
  6
CONTINUOUS
 10
82.8041601015
 20
223.7038925673
 11
81.2466643065
 21
223.7099025327
  0
LINE
  8
0
 62
7
  6
CONTINUOUS
 10
84.4189821544
 20
223.6973984716
 11
82.8041601015
 21
223.7038925673
  0
LINE
  8
0
 62
7
  6
CONTINUOUS
 10
86.077260409
 20
223.6904488367
 11
84.4189821544
 21
223.6973984716
  0
LINE
  8
0
 62
7
  6
CONTINUOUS
 10
87.7697900594
 20
223.6830552115
 11
86.077260409
 21
223.6904488367
  0
LINE
  8
0
 62
7
  6
CONTINUOUS
 10
89.4915622282
 20
223.6752267314
 11
87.7697900594
 21
223.6830552115
  0
POLYLINE
  8
0
 62
7
  6
CONTINUOUS
 66
1
 70
0
  0
VERTEX
  8
0
 62
7
  6
CONTINUOUS
 10
90.9763252214
 20
225.9316330463
  0
VERTEX
  8
0
 62
7
  6
CONTINUOUS
 10
87.864822679
 20
225.9469265894
  0
VERTEX
  8
0
 62
7
  6
CONTINUOUS
 10
84.8171562365
 20
225.9606482311
  0
VERTEX
  8
0
 62
7
  6
CONTINUOUS
 10
81.8295361194
 20
225.9728724639
  0
VERTEX
  8
0
 62
7
  6
CONTINUOUS
 10
78.9011673647
 20
225.9836513932
  0
VERTEX
  8
0
 62
7
  6
CONTINUOUS
 10
76.2985088285
 20
225.9921799453
  0
SEQEND
  0
POLYLINE
  8
0
 62
7
  6
CONTINUOUS
 66
1
 70
0
  0
VERTEX
  8
0
 62
7
  6
CONTINUOUS
 10
93.0453536215
 20
223.6580666639
  0
VERTEX
  8
0
 62
7
  6
CONTINUOUS
 10
92.4402108507
 20
223.66108158
  0
VERTEX
  8
0
 62
7
  6
CONTINUOUS
 10
91.8404624661
 20
223.6640410837
  0
VERTEX
  8
0
 62
7
  6
CONTINUOUS
 10
91.2463030102
 20
223.6669279129
  0
VERTEX
  8
0
 62
7
  6
CONTINUOUS
 10
89.4915622282
 20
223.6752267314
  0
SEQEND
  0
POLYLINE
  8
0
 62
7
  6
CONTINUOUS
 66
1
 70
0
  0
VERTEX
  8
0
 62
7
  6
CONTINUOUS
 10
-20.9652539839
 20
223.8063075987
  0
VERTEX
  8
0
 62
7
  6
CONTINUOUS
 10
-21.1073495778
 20
223.8070802105
  0
VERTEX
  8
0
 62
7
  6
CONTINUOUS
 10
-21.2525549205
 20
223.8077129163
  0
VERTEX
  8
0
 62
7
  6
CONTINUOUS
 10
-21.4019170918
 20
223.8081262077
  0
VERTEX
  8
0
 62
7
  6
CONTINUOUS
 10
-21.5548804518
 20
223.8082774882
  0
VERTEX
  8
0
 62
7
  6
CONTINUOUS
 10
-21.7112674941
 20
223.8081377174
  0
VERTEX
  8
0
 62
7
  6
CONTINUOUS
 10
-21.8702993024
 20
223.8077724183
  0
VERTEX
  8
0
 62
7
  6
CONTINUOUS
 10
-22.0313832397
 20
223.8071903695
  0
VERTEX
  8
0
 62
7
  6
CONTINUOUS
 10
-22.1939720104
 20
223.8064821142
  0
SEQEND
  0
POLYLINE
  8
0
 62
7
  6
CONTINUOUS
 66
1
 70
0
  0
VERTEX
  8
0
 62
7
  6
CONTINUOUS
 10
93.5400780735
 20
225.9155309664
  0
VERTEX
  8
0
 62
7
  6
CONTINUOUS
 10
90.5167682189
 20
225.9316557157
  0
VERTEX
  8
0
 62
7
  6
CONTINUOUS
 10
87.4048841568
 20
225.9469605147
  0
VERTEX
  8
0
 62
7
  6
CONTINUOUS
 10
84.3585800083
 20
225.9606807816
  0
VERTEX
  8
0
 62
7
  6
CONTINUOUS
 10
81.3741326598
 20
225.9728987225
  0
VERTEX
  8
0
 62
7
  6
CONTINUOUS
 10
78.4506051489
 20
225.9836661337
  0
VERTEX
  8
0
 62
7
  6
CONTINUOUS
 10
75.738308123
 20
225.9925594587
  0
SEQEND
  0
LINE
  8
0
 62
7
  6
CONTINUOUS
 10
94.1074202475
 20
225.9149429101
 11
90.9763252214
 21
225.9316330463
  0
LINE
  8
0
 62
7
  6
CONTINUOUS
 10
-20.5508630503
 20
223.8037957149
 11
-20.9652539839
 21
223.8063075987
  0
POLYLINE
  8
0
 62
7
  6
CONTINUOUS
 66
1
 70
0
  0
VERTEX
  8
0
 62
7
  6
CONTINUOUS
 10
-24.9186772192
 20
223.8374122787
  0
VERTEX
  8
0
 62
7
  6
CONTINUOUS
 10
-24.954154905
 20
223.8386616418
  0
VERTEX
  8
0
 62
7
  6
CONTINUOUS
 10
-24.986035726
 20
223.8396697118
  0
VERTEX
  8
0
 62
7
  6
CONTINUOUS
 10
-25.0145561497
 20
223.840431171
  0
VERTEX
  8
0
 62
7
  6
CONTINUOUS
 10
-25.0399942656
 20
223.840892029
  0
VERTEX
  8
0
 62
7
  6
CONTINUOUS
 10
-25.0627503998
 20
223.8410804627
  0
VERTEX
  8
0
 62
7
  6
CONTINUOUS
 10
-25.0831563524
 20
223.8410162371
  0
VERTEX
  8
0
 62
7
  6
CONTINUOUS
 10
-25.1015211487
 20
223.8407175228
  0
VERTEX
  8
0
 62
7
  6
CONTINUOUS
 10
-25.1181261761
 20
223.8402234448
  0
VERTEX
  8
0
 62
7
  6
CONTINUOUS
 10
-25.1331629014
 20
223.8395508848
  0
VERTEX
  8
0
 62
7
  6
CONTINUOUS
 10
-25.1468463544
 20
223.8387296258
  0
VERTEX
  8
0
 62
7
  6
CONTINUOUS
 10
-25.1592722924
 20
223.8377910214
  0
VERTEX
  8
0
 62
7
  6
CONTINUOUS
 10
-25.1705735903
 20
223.8367655292
  0
VERTEX
  8
0
 62
7
  6
CONTINUOUS
 10
-25.1809560297
 20
223.8356583751
  0
VERTEX
  8
0
 62
7
  6
CONTINUOUS
 10
-25.1906434571
 20
223.8344738653
  0
VERTEX
  8
0
 62
7
  6
CONTINUOUS
 10
-25.1998924772
 20
223.8331976224
  0
VERTEX
  8
0
 62
7
  6
CONTINUOUS
 10
-25.2088589036
 20
223.8318485064
  0
VERTEX
  8
0
 62
7
  6
CONTINUOUS
 10
-25.2177989415
 20
223.8304037563
  0
VERTEX
  8
0
 62
7
  6
CONTINUOUS
 10
-25.2269054349
 20
223.8288656417
  0
VERTEX
  8
0
 62
7
  6
CONTINUOUS
 10
-25.2690465729
 20
223.8214648342
  0
SEQEND
  0
LINE
  8
0
 62
7
  6
CONTINUOUS
 10
-24.7883807549
 20
223.832561869
 11
-24.9186772192
 21
223.8374122787
  0
POLYLINE
  8
0
 62
7
  6
CONTINUOUS
 66
1
 70
0
  0
VERTEX
  8
0
 62
7
  6
CONTINUOUS
 10
165.4664796846
 20
223.4811109242
  0
VERTEX
  8
0
 62
7
  6
CONTINUOUS
 10
168.5715781786
 20
223.3433982385
  0
VERTEX
  8
0
 62
7
  6
CONTINUOUS
 10
171.6900127445
 20
223.2117687101
  0
VERTEX
  8
0
 62
7
  6
CONTINUOUS
 10
174.8216307533
 20
223.0862575747
  0
VERTEX
  8
0
 62
7
  6
CONTINUOUS
 10
177.9662756951
 20
222.9669001761
  0
SEQEND
  0
LINE
  8
0
 62
7
  6
CONTINUOUS
 10
94.018544719
 20
225.912890713
 11
93.9968161959
 21
225.9155343826
  0
POLYLINE
  8
0
 62
7
  6
CONTINUOUS
 66
1
 70
0
  0
VERTEX
  8
0
 62
7
  6
CONTINUOUS
 10
262.9081667738
 20
223.6580666639
  0
VERTEX
  8
0
 62
7
  6
CONTINUOUS
 10
262.9701183897
 20
218.5994265843
  0
VERTEX
  8
0
 62
7
  6
CONTINUOUS
 10
263.036685751
 20
213.4536202549
  0
VERTEX
  8
0
 62
7
  6
CONTINUOUS
 10
263.1077357394
 20
208.1879012131
  0
VERTEX
  8
0
 62
7
  6
CONTINUOUS
 10
263.1813487414
 20
202.901689461
  0
VERTEX
  8
0
 62
7
  6
CONTINUOUS
 10
263.2577542196
 20
197.6678297442
  0
VERTEX
  8
0
 62
7
  6
CONTINUOUS
 10
263.3352674271
 20
192.5308089616
  0
VERTEX
  8
0
 62
7
  6
CONTINUOUS
 10
263.4136337099
 20
187.5547166244
  0
VERTEX
  8
0
 62
7
  6
CONTINUOUS
 10
263.492166694
 20
182.7518716739
  0
VERTEX
  8
0
 62
7
  6
CONTINUOUS
 10
263.570229738
 20
178.1698641179
  0
VERTEX
  8
0
 62
7
  6
CONTINUOUS
 10
263.6486956832
 20
173.7663202888
  0
VERTEX
  8
0
 62
7
  6
CONTINUOUS
 10
263.7275682936
 20
169.5160125517
  0
VERTEX
  8
0
 62
7
  6
CONTINUOUS
 10
263.8068331284
 20
165.4161034187
  0
VERTEX
  8
0
 62
7
  6
CONTINUOUS
 10
263.8864693776
 20
161.4564019788
  0
VERTEX
  8
0
 62
7
  6
CONTINUOUS
 10
263.9663469503
 20
157.6338187414
  0
VERTEX
  8
0
 62
7
  6
CONTINUOUS
 10
264.0468773349
 20
153.935508321
  0
VERTEX
  8
0
 62
7
  6
CONTINUOUS
 10
264.1270309579
 20
150.3802338914
  0
VERTEX
  8
0
 62
7
  6
CONTINUOUS
 10
264.2065846306
 20
146.9905913109
  0
VERTEX
  8
0
 62
7
  6
CONTINUOUS
 10
264.2860333697
 20
143.7409629953
  0
VERTEX
  8
0
 62
7
  6
CONTINUOUS
 10
264.3653453916
 20
140.6169235705
  0
VERTEX
  8
0
 62
7
  6
CONTINUOUS
 10
264.4449292478
 20
137.6079752382
  0
VERTEX
  8
0
 62
7
  6
CONTINUOUS
 10
264.5246020591
 20
134.7018226331
  0
VERTEX
  8
0
 62
7
  6
CONTINUOUS
 10
264.6047484643
 20
131.8901243902
  0
VERTEX
  8
0
 62
7
  6
CONTINUOUS
 10
264.6851034708
 20
129.1639975107
  0
VERTEX
  8
0
 62
7
  6
CONTINUOUS
 10
264.7662552652
 20
126.513371177
  0
VERTEX
  8
0
 62
7
  6
CONTINUOUS
 10
264.8481743653
 20
123.9276219888
  0
VERTEX
  8
0
 62
7
  6
CONTINUOUS
 10
264.9312652326
 20
121.4001272556
  0
VERTEX
  8
0
 62
7
  6
CONTINUOUS
 10
265.0156878341
 20
118.918801109
  0
VERTEX
  8
0
 62
7
  6
CONTINUOUS
 10
265.1010520706
 20
116.4899667027
  0
VERTEX
  8
0
 62
7
  6
CONTINUOUS
 10
265.187001424
 20
114.1183058152
  0
VERTEX
  8
0
 62
7
  6
CONTINUOUS
 10
265.2737140553
 20
111.796596152
  0
VERTEX
  8
0
 62
7
  6
CONTINUOUS
 10
265.3609793611
 20
109.5214470761
  0
VERTEX
  8
0
 62
7
  6
CONTINUOUS
 10
265.4492278811
 20
107.2862384659
  0
VERTEX
  8
0
 62
7
  6
CONTINUOUS
 10
265.5382944052
 20
105.0866663351
  0
VERTEX
  8
0
 62
7
  6
CONTINUOUS
 10
265.6289353898
 20
102.9128092087
  0
VERTEX
  8
0
 62
7
  6
CONTINUOUS
 10
265.7214533507
 20
100.751274546
  0
VERTEX
  8
0
 62
7
  6
CONTINUOUS
 10
265.8158199041
 20
98.6087952169
  0
VERTEX
  8
0
 62
7
  6
CONTINUOUS
 10
265.9112574448
 20
96.5070070241
  0
VERTEX
  8
0
 62
7
  6
CONTINUOUS
 10
266.0119993771
 20
94.3869516788
  0
VERTEX
  8
0
 62
7
  6
CONTINUOUS
 10
266.1182651433
 20
92.2141692689
  0
VERTEX
  8
0
 62
7
  6
CONTINUOUS
 10
266.2334338303
 20
89.940814912
  0
VERTEX
  8
0
 62
7
  6
CONTINUOUS
 10
266.3606773478
 20
87.5005030618
  0
VERTEX
  8
0
 62
7
  6
CONTINUOUS
 10
266.4964850817
 20
84.9166112431
  0
SEQEND
  0
POLYLINE
  8
0
 62
7
  6
CONTINUOUS
 66
1
 70
0
  0
VERTEX
  8
0
 62
7
  6
CONTINUOUS
 10
75.738308123
 20
225.9925594587
  0
VERTEX
  8
0
 62
7
  6
CONTINUOUS
 10
75.6869346784
 20
225.9866104283
  0
VERTEX
  8
0
 62
7
  6
CONTINUOUS
 10
75.6310600225
 20
225.9661584567
  0
VERTEX
  8
0
 62
7
  6
CONTINUOUS
 10
75.5759240806
 20
225.9312842119
  0
VERTEX
  8
0
 62
7
  6
CONTINUOUS
 10
75.5219297662
 20
225.8822425422
  0
VERTEX
  8
0
 62
7
  6
CONTINUOUS
 10
75.4694716501
 20
225.8193918264
  0
VERTEX
  8
0
 62
7
  6
CONTINUOUS
 10
75.4189330771
 20
225.7431913547
  0
VERTEX
  8
0
 62
7
  6
CONTINUOUS
 10
75.3706833645
 20
225.6541979722
  0
VERTEX
  8
0
 62
7
  6
CONTINUOUS
 10
75.3250751036
 20
225.5530620102
  0
VERTEX
  8
0
 62
7
  6
CONTINUOUS
 10
75.282441583
 20
225.4405225335
  0
VERTEX
  8
0
 62
7
  6
CONTINUOUS
 10
75.2430943528
 20
225.3174019397
  0
VERTEX
  8
0
 62
7
  6
CONTINUOUS
 10
75.2073209483
 20
225.1845999493
  0
VERTEX
  8
0
 62
7
  6
CONTINUOUS
 10
75.1753827884
 20
225.0430870305
  0
VERTEX
  8
0
 62
7
  6
CONTINUOUS
 10
75.1475132654
 20
224.8938973081
  0
VERTEX
  8
0
 62
7
  6
CONTINUOUS
 10
75.1239160397
 20
224.7381210062
  0
VERTEX
  8
0
 62
7
  6
CONTINUOUS
 10
75.1047635511
 20
224.5768964813
  0
VERTEX
  8
0
 62
7
  6
CONTINUOUS
 10
75.090195759
 20
224.4114019032
  0
VERTEX
  8
0
 62
7
  6
CONTINUOUS
 10
75.0803191195
 20
224.2428466457
  0
VERTEX
  8
0
 62
7
  6
CONTINUOUS
 10
75.0752058074
 20
224.0724624491
  0
VERTEX
  8
0
 62
7
  6
CONTINUOUS
 10
75.0748931889
 20
223.9014944186
  0
VERTEX
  8
0
 62
7
  6
CONTINUOUS
 10
75.0793835487
 20
223.7311919264
  0
SEQEND
  0
POLYLINE
  8
0
 62
7
  6
CONTINUOUS
 66
1
 70
0
  0
VERTEX
  8
0
 62
7
  6
CONTINUOUS
 10
93.5400406776
 20
225.9155311684
  0
VERTEX
  8
0
 62
7
  6
CONTINUOUS
 10
93.5245908335
 20
225.9146017111
  0
VERTEX
  8
0
 62
7
  6
CONTINUOUS
 10
93.4819580006
 20
225.9015358756
  0
VERTEX
  8
0
 62
7
  6
CONTINUOUS
 10
93.4396874315
 20
225.8731485309
  0
VERTEX
  8
0
 62
7
  6
CONTINUOUS
 10
93.3981048266
 20
225.8296586291
  0
VERTEX
  8
0
 62
7
  6
CONTINUOUS
 10
93.3575309887
 20
225.7714016848
  0
VERTEX
  8
0
 62
7
  6
CONTINUOUS
 10
93.3182789424
 20
225.6988271428
  0
VERTEX
  8
0
 62
7
  6
CONTINUOUS
 10
93.280651514
 20
225.6124949085
  0
VERTEX
  8
0
 62
7
  6
CONTINUOUS
 10
93.2449389942
 20
225.5130710214
  0
VERTEX
  8
0
 62
7
  6
CONTINUOUS
 10
93.2114169008
 20
225.4013225218
  0
VERTEX
  8
0
 62
7
  6
CONTINUOUS
 10
93.1803438537
 20
225.2781115352
  0
VERTEX
  8
0
 62
7
  6
CONTINUOUS
 10
93.1519595785
 20
225.1443886173
  0
VERTEX
  8
0
 62
7
  6
CONTINUOUS
 10
93.126483058
 20
225.0011854281
  0
VERTEX
  8
0
 62
7
  6
CONTINUOUS
 10
93.1041108422
 20
224.8496067685
  0
VERTEX
  8
0
 62
7
  6
CONTINUOUS
 10
93.0850155301
 20
224.6908220482
  0
VERTEX
  8
0
 62
7
  6
CONTINUOUS
 10
93.0693444402
 20
224.5260562705
  0
VERTEX
  8
0
 62
7
  6
CONTINUOUS
 10
93.0572184744
 20
224.3565805908
  0
VERTEX
  8
0
 62
7
  6
CONTINUOUS
 10
93.0487311837
 20
224.1837025012
  0
VERTEX
  8
0
 62
7
  6
CONTINUOUS
 10
93.0439480467
 20
224.0087557368
  0
VERTEX
  8
0
 62
7
  6
CONTINUOUS
 10
93.042905965
 20
223.8330899942
  0
VERTEX
  8
0
 62
7
  6
CONTINUOUS
 10
93.0456129782
 20
223.6580605166
  0
SEQEND
  0
POLYLINE
  8
0
 62
7
  6
CONTINUOUS
 66
1
 70
0
  0
VERTEX
  8
0
 62
7
  6
CONTINUOUS
 10
4.1093254915
 20
225.9905274887
  0
VERTEX
  8
0
 62
7
  6
CONTINUOUS
 10
3.9968435324
 20
225.9856954708
  0
VERTEX
  8
0
 62
7
  6
CONTINUOUS
 10
3.8545301222
 20
225.9673433883
  0
VERTEX
  8
0
 62
7
  6
CONTINUOUS
 10
3.7138478381
 20
225.9353955984
  0
VERTEX
  8
0
 62
7
  6
CONTINUOUS
 10
3.5759475505
 20
225.8900857983
  0
VERTEX
  8
0
 62
7
  6
CONTINUOUS
 10
3.4417705931
 20
225.8317215762
  0
VERTEX
  8
0
 62
7
  6
CONTINUOUS
 10
3.3122330054
 20
225.7606974576
  0
VERTEX
  8
0
 62
7
  6
CONTINUOUS
 10
3.1882107048
 20
225.6774853515
  0
VERTEX
  8
0
 62
7
  6
CONTINUOUS
 10
3.0705832509
 20
225.5826681856
  0
VERTEX
  8
0
 62
7
  6
CONTINUOUS
 10
2.9601786933
 20
225.4769149357
  0
VERTEX
  8
0
 62
7
  6
CONTINUOUS
 10
2.8577481811
 20
225.3609498484
  0
VERTEX
  8
0
 62
7
  6
CONTINUOUS
 10
2.7639966534
 20
225.2355752274
  0
VERTEX
  8
0
 62
7
  6
CONTINUOUS
 10
2.679560675
 20
225.1016457107
  0
VERTEX
  8
0
 62
7
  6
CONTINUOUS
 10
2.6050145965
 20
224.9600707636
  0
VERTEX
  8
0
 62
7
  6
CONTINUOUS
 10
2.5408760414
 20
224.811830972
  0
VERTEX
  8
0
 62
7
  6
CONTINUOUS
 10
2.4875871616
 20
224.6579489461
  0
VERTEX
  8
0
 62
7
  6
CONTINUOUS
 10
2.4455143779
 20
224.4994864558
  0
VERTEX
  8
0
 62
7
  6
CONTINUOUS
 10
2.4149668428
 20
224.3376746016
  0
VERTEX
  8
0
 62
7
  6
CONTINUOUS
 10
2.3960900182
 20
224.1732178291
  0
VERTEX
  8
0
 62
7
  6
CONTINUOUS
 10
2.3890675777
 20
224.0068258234
  0
VERTEX
  8
0
 62
7
  6
CONTINUOUS
 10
2.3940851976
 20
223.8397821959
  0
SEQEND
  0
POLYLINE
  8
0
 62
7
  6
CONTINUOUS
 66
1
 70
0
  0
VERTEX
  8
0
 62
7
  6
CONTINUOUS
 10
1.6808009355
 20
225.9860847406
  0
VERTEX
  8
0
 62
7
  6
CONTINUOUS
 10
1.5673810014
 20
225.981858048
  0
VERTEX
  8
0
 62
7
  6
CONTINUOUS
 10
1.4216731981
 20
225.9641593177
  0
VERTEX
  8
0
 62
7
  6
CONTINUOUS
 10
1.2777651376
 20
225.9327817489
  0
VERTEX
  8
0
 62
7
  6
CONTINUOUS
 10
1.1366520186
 20
225.8879423247
  0
VERTEX
  8
0
 62
7
  6
CONTINUOUS
 10
0.9993097119
 20
225.8299511205
  0
VERTEX
  8
0
 62
7
  6
CONTINUOUS
 10
0.8666880107
 20
225.7592091587
  0
VERTEX
  8
0
 62
7
  6
CONTINUOUS
 10
0.7397040646
 20
225.676205636
  0
VERTEX
  8
0
 62
7
  6
CONTINUOUS
 10
0.619236037
 20
225.5815145413
  0
VERTEX
  8
0
 62
7
  6
CONTINUOUS
 10
0.5061170323
 20
225.4757906854
  0
VERTEX
  8
0
 62
7
  6
CONTINUOUS
 10
0.4011293341
 20
225.3597651733
  0
VERTEX
  8
0
 62
7
  6
CONTINUOUS
 10
0.3049989965
 20
225.2342403482
  0
VERTEX
  8
0
 62
7
  6
CONTINUOUS
 10
0.2183908226
 20
225.100084243
  0
VERTEX
  8
0
 62
7
  6
CONTINUOUS
 10
0.1419037672
 20
224.9582245778
  0
VERTEX
  8
0
 62
7
  6
CONTINUOUS
 10
0.076066796
 20
224.8096423453
  0
VERTEX
  8
0
 62
7
  6
CONTINUOUS
 10
0.0213352267
 20
224.6553650265
  0
VERTEX
  8
0
 62
7
  6
CONTINUOUS
 10
-0.02191242
 20
224.496459484
  0
VERTEX
  8
0
 62
7
  6
CONTINUOUS
 10
-0.0533770371
 20
224.3340245852
  0
VERTEX
  8
0
 62
7
  6
CONTINUOUS
 10
-0.0728409997
 20
224.1691836059
  0
VERTEX
  8
0
 62
7
  6
CONTINUOUS
 10
-0.0801696704
 20
224.00307646
  0
VERTEX
  8
0
 62
7
  6
CONTINUOUS
 10
-0.0753123302
 20
223.8368518165
  0
SEQEND
  0
LINE
  8
0
 62
7
  6
CONTINUOUS
 10
4.1123365402
 20
225.9905404894
 11
4.1093254915
 21
225.9905274887
  0
LINE
  8
0
 62
7
  6
CONTINUOUS
 10
351.9929982138
 20
225.990525131
 11
351.9902803585
 21
225.990536636
  0
LINE
  8
0
 62
7
  6
CONTINUOUS
 10
352.3023632747
 20
225.9905404288
 11
352.3053283162
 21
225.990527588
  0
POLYLINE
  8
0
 62
7
  6
CONTINUOUS
 66
1
 70
0
  0
VERTEX
  8
0
 62
7
  6
CONTINUOUS
 10
376.7339333068
 20
225.9424619566
  0
VERTEX
  8
0
 62
7
  6
CONTINUOUS
 10
375.8634223324
 20
225.9482380033
  0
VERTEX
  8
0
 62
7
  6
CONTINUOUS
 10
374.8249632351
 20
225.9590000416
  0
VERTEX
  8
0
 62
7
  6
CONTINUOUS
 10
373.9074116246
 20
225.9592439746
  0
SEQEND
  0
POLYLINE
  8
0
 62
7
  6
CONTINUOUS
 66
1
 70
0
  0
VERTEX
  8
0
 62
7
  6
CONTINUOUS
 10
381.9341019338
 20
223.7967363606
  0
VERTEX
  8
0
 62
7
  6
CONTINUOUS
 10
381.9032423401
 20
223.7980655899
  0
VERTEX
  8
0
 62
7
  6
CONTINUOUS
 10
381.8731729327
 20
223.7996908505
  0
VERTEX
  8
0
 62
7
  6
CONTINUOUS
 10
381.8444486834
 20
223.8014518283
  0
VERTEX
  8
0
 62
7
  6
CONTINUOUS
 10
381.8172625445
 20
223.8033294578
  0
VERTEX
  8
0
 62
7
  6
CONTINUOUS
 10
381.7917818072
 20
223.8053219756
  0
VERTEX
  8
0
 62
7
  6
CONTINUOUS
 10
381.7680546098
 20
223.8073743355
  0
VERTEX
  8
0
 62
7
  6
CONTINUOUS
 10
381.7459496479
 20
223.8094984772
  0
VERTEX
  8
0
 62
7
  6
CONTINUOUS
 10
381.7256435983
 20
223.8116337784
  0
VERTEX
  8
0
 62
7
  6
CONTINUOUS
 10
381.7072087891
 20
223.813757327
  0
VERTEX
  8
0
 62
7
  6
CONTINUOUS
 10
381.6906039381
 20
223.815828212
  0
VERTEX
  8
0
 62
7
  6
CONTINUOUS
 10
381.6758701151
 20
223.8178092677
  0
VERTEX
  8
0
 62
7
  6
CONTINUOUS
 10
381.6626822473
 20
223.8197069791
  0
VERTEX
  8
0
 62
7
  6
CONTINUOUS
 10
381.6508646693
 20
223.8215043426
  0
VERTEX
  8
0
 62
7
  6
CONTINUOUS
 10
381.640014504
 20
223.8232333517
  0
SEQEND
  0
POLYLINE
  8
0
 62
7
  6
CONTINUOUS
 66
1
 70
0
  0
VERTEX
  8
0
 62
7
  6
CONTINUOUS
 10
379.4310647783
 20
225.9060232408
  0
VERTEX
  8
0
 62
7
  6
CONTINUOUS
 10
378.8498490409
 20
225.9394631399
  0
VERTEX
  8
0
 62
7
  6
CONTINUOUS
 10
378.2061716933
 20
225.946092246
  0
VERTEX
  8
0
 62
7
  6
CONTINUOUS
 10
378.1296822822
 20
225.9458242864
  0
SEQEND
  0
POLYLINE
  8
0
 62
7
  6
CONTINUOUS
 66
1
 70
0
  0
VERTEX
  8
0
 62
7
  6
CONTINUOUS
 10
262.4178626759
 20
225.9155345183
  0
VERTEX
  8
0
 62
7
  6
CONTINUOUS
 10
262.4332384247
 20
225.9145995506
  0
VERTEX
  8
0
 62
7
  6
CONTINUOUS
 10
262.4755235802
 20
225.9015204123
  0
VERTEX
  8
0
 62
7
  6
CONTINUOUS
 10
262.5174513203
 20
225.8731212157
  0
VERTEX
  8
0
 62
7
  6
CONTINUOUS
 10
262.5586956593
 20
225.8296213345
  0
VERTEX
  8
0
 62
7
  6
CONTINUOUS
 10
262.5989384019
 20
225.7713562229
  0
VERTEX
  8
0
 62
7
  6
CONTINUOUS
 10
262.6378691294
 20
225.6987751533
  0
VERTEX
  8
0
 62
7
  6
CONTINUOUS
 10
262.6751875602
 20
225.6124375556
  0
VERTEX
  8
0
 62
7
  6
CONTINUOUS
 10
262.7106055613
 20
225.5130097396
  0
VERTEX
  8
0
 62
7
  6
CONTINUOUS
 10
262.7438496752
 20
225.4012591917
  0
VERTEX
  8
0
 62
7
  6
CONTINUOUS
 10
262.7746634776
 20
225.2780478918
  0
VERTEX
  8
0
 62
7
  6
CONTINUOUS
 10
262.8028091935
 20
225.1443264134
  0
VERTEX
  8
0
 62
7
  6
CONTINUOUS
 10
262.8280697005
 20
225.0011262034
  0
VERTEX
  8
0
 62
7
  6
CONTINUOUS
 10
262.8502500984
 20
224.8495517625
  0
VERTEX
  8
0
 62
7
  6
CONTINUOUS
 10
262.8691792201
 20
224.6907724745
  0
VERTEX
  8
0
 62
7
  6
CONTINUOUS
 10
262.8847109791
 20
224.5260132402
  0
VERTEX
  8
0
 62
7
  6
CONTINUOUS
 10
262.8967255141
 20
224.3565450883
  0
VERTEX
  8
0
 62
7
  6
CONTINUOUS
 10
262.9051300942
 20
224.1836753366
  0
VERTEX
  8
0
 62
7
  6
CONTINUOUS
 10
262.9098598376
 20
224.0087376802
  0
VERTEX
  8
0
 62
7
  6
CONTINUOUS
 10
262.9108783439
 20
223.8330817856
  0
VERTEX
  8
0
 62
7
  6
CONTINUOUS
 10
262.9081773751
 20
223.6580625987
  0
SEQEND
  0
POLYLINE
  8
0
 62
7
  6
CONTINUOUS
 66
1
 70
0
  0
VERTEX
  8
0
 62
7
  6
CONTINUOUS
 10
380.1052704406
 20
225.8037218947
  0
VERTEX
  8
0
 62
7
  6
CONTINUOUS
 10
380.0175211339
 20
225.8092082834
  0
VERTEX
  8
0
 62
7
  6
CONTINUOUS
 10
379.9296138968
 20
225.8108350425
  0
VERTEX
  8
0
 62
7
  6
CONTINUOUS
 10
379.8867762351
 20
225.8097452203
  0
SEQEND
  0
POLYLINE
  8
0
 62
7
  6
CONTINUOUS
 66
1
 70
0
  0
VERTEX
  8
0
 62
7
  6
CONTINUOUS
 10
280.8865968992
 20
223.7311919329
  0
VERTEX
  8
0
 62
7
  6
CONTINUOUS
 10
280.8910538861
 20
223.9014944527
  0
VERTEX
  8
0
 62
7
  6
CONTINUOUS
 10
280.8907401446
 20
224.0724625108
  0
VERTEX
  8
0
 62
7
  6
CONTINUOUS
 10
280.8856579674
 20
224.2428467347
  0
VERTEX
  8
0
 62
7
  6
CONTINUOUS
 10
280.8758444932
 20
224.4114020192
  0
VERTEX
  8
0
 62
7
  6
CONTINUOUS
 10
280.8613714353
 20
224.5768966247
  0
VERTEX
  8
0
 62
7
  6
CONTINUOUS
 10
280.8423445576
 20
224.7381211756
  0
VERTEX
  8
0
 62
7
  6
CONTINUOUS
 10
280.8189029019
 20
224.8938975002
  0
VERTEX
  8
0
 62
7
  6
CONTINUOUS
 10
280.7912177712
 20
225.0430872431
  0
VERTEX
  8
0
 62
7
  6
CONTINUOUS
 10
280.7594914783
 20
225.1846001806
  0
VERTEX
  8
0
 62
7
  6
CONTINUOUS
 10
280.7239558676
 20
225.3174021872
  0
VERTEX
  8
0
 62
7
  6
CONTINUOUS
 10
280.6848706206
 20
225.4405227944
  0
VERTEX
  8
0
 62
7
  6
CONTINUOUS
 10
280.642521358
 20
225.5530622818
  0
VERTEX
  8
0
 62
7
  6
CONTINUOUS
 10
280.597217553
 20
225.6541982521
  0
VERTEX
  8
0
 62
7
  6
CONTINUOUS
 10
280.5492902692
 20
225.7431916414
  0
VERTEX
  8
0
 62
7
  6
CONTINUOUS
 10
280.4990897414
 20
225.8193921189
  0
VERTEX
  8
0
 62
7
  6
CONTINUOUS
 10
280.446982817
 20
225.8822428393
  0
VERTEX
  8
0
 62
7
  6
CONTINUOUS
 10
280.3933502746
 20
225.9312845126
  0
VERTEX
  8
0
 62
7
  6
CONTINUOUS
 10
280.3385840409
 20
225.9661587607
  0
VERTEX
  8
0
 62
7
  6
CONTINUOUS
 10
280.2830843274
 20
225.9866107357
  0
VERTEX
  8
0
 62
7
  6
CONTINUOUS
 10
280.2320578044
 20
225.9925597751
  0
SEQEND
  0
POLYLINE
  8
0
 62
7
  6
CONTINUOUS
 66
1
 70
0
  0
VERTEX
  8
0
 62
7
  6
CONTINUOUS
 10
266.4956921901
 20
84.9168025821
  0
VERTEX
  8
0
 62
7
  6
CONTINUOUS
 10
266.3659214866
 20
84.3298227531
  0
VERTEX
  8
0
 62
7
  6
CONTINUOUS
 10
266.2275274521
 20
83.7678801733
  0
VERTEX
  8
0
 62
7
  6
CONTINUOUS
 10
266.0809684304
 20
83.2325981796
  0
VERTEX
  8
0
 62
7
  6
CONTINUOUS
 10
265.9265446228
 20
82.7248951791
  0
VERTEX
  8
0
 62
7
  6
CONTINUOUS
 10
265.7645492814
 20
82.2457103528
  0
VERTEX
  8
0
 62
7
  6
CONTINUOUS
 10
265.5954708606
 20
81.7965112178
  0
VERTEX
  8
0
 62
7
  6
CONTINUOUS
 10
265.4197699537
 20
81.3785260589
  0
VERTEX
  8
0
 62
7
  6
CONTINUOUS
 10
265.2379377708
 20
80.992927196
  0
VERTEX
  8
0
 62
7
  6
CONTINUOUS
 10
265.0504815001
 20
80.6407899616
  0
VERTEX
  8
0
 62
7
  6
CONTINUOUS
 10
264.857917826
 20
80.3230829617
  0
VERTEX
  8
0
 62
7
  6
CONTINUOUS
 10
264.6607809327
 20
80.040685759
  0
VERTEX
  8
0
 62
7
  6
CONTINUOUS
 10
264.4596096384
 20
79.7943692649
  0
VERTEX
  8
0
 62
7
  6
CONTINUOUS
 10
264.2549510996
 20
79.584807118
  0
VERTEX
  8
0
 62
7
  6
CONTINUOUS
 10
264.0473790883
 20
79.412590061
  0
VERTEX
  8
0
 62
7
  6
CONTINUOUS
 10
263.8374035813
 20
79.2781599943
  0
VERTEX
  8
0
 62
7
  6
CONTINUOUS
 10
263.6258124686
 20
79.1819992764
  0
VERTEX
  8
0
 62
7
  6
CONTINUOUS
 10
263.4134058292
 20
79.124333696
  0
VERTEX
  8
0
 62
7
  6
CONTINUOUS
 10
263.200699206
 20
79.1051287034
  0
SEQEND
  0
POLYLINE
  8
0
 62
7
  6
CONTINUOUS
 66
1
 70
0
  0
VERTEX
  8
0
 62
7
  6
CONTINUOUS
 10
381.6004116142
 20
223.8297745021
  0
VERTEX
  8
0
 62
7
  6
CONTINUOUS
 10
381.590476698
 20
223.8313648393
  0
VERTEX
  8
0
 62
7
  6
CONTINUOUS
 10
381.5803166949
 20
223.8328994662
  0
VERTEX
  8
0
 62
7
  6
CONTINUOUS
 10
381.569763748
 20
223.8343727505
  0
VERTEX
  8
0
 62
7
  6
CONTINUOUS
 10
381.5587974893
 20
223.8357435473
  0
VERTEX
  8
0
 62
7
  6
CONTINUOUS
 10
381.5473699603
 20
223.8369851749
  0
VERTEX
  8
0
 62
7
  6
CONTINUOUS
 10
381.5352000754
 20
223.8381016793
  0
VERTEX
  8
0
 62
7
  6
CONTINUOUS
 10
381.5220650055
 20
223.8390932463
  0
VERTEX
  8
0
 62
7
  6
CONTINUOUS
 10
381.5077830412
 20
223.839933802
  0
VERTEX
  8
0
 62
7
  6
CONTINUOUS
 10
381.4921748466
 20
223.8406023501
  0
VERTEX
  8
0
 62
7
  6
CONTINUOUS
 10
381.4750487481
 20
223.8410735728
  0
VERTEX
  8
0
 62
7
  6
CONTINUOUS
 10
381.4561729409
 20
223.8413316841
  0
VERTEX
  8
0
 62
7
  6
CONTINUOUS
 10
381.4353394306
 20
223.841367205
  0
VERTEX
  8
0
 62
7
  6
CONTINUOUS
 10
381.4123064859
 20
223.8411727022
  0
VERTEX
  8
0
 62
7
  6
CONTINUOUS
 10
381.3868176705
 20
223.8407601605
  0
VERTEX
  8
0
 62
7
  6
CONTINUOUS
 10
381.3586009892
 20
223.8401389089
  0
VERTEX
  8
0
 62
7
  6
CONTINUOUS
 10
381.3273560943
 20
223.8393378495
  0
VERTEX
  8
0
 62
7
  6
CONTINUOUS
 10
381.2929068649
 20
223.838357231
  0
VERTEX
  8
0
 62
7
  6
CONTINUOUS
 10
381.2549747589
 20
223.8371939071
  0
VERTEX
  8
0
 62
7
  6
CONTINUOUS
 10
381.0619385084
 20
223.8308949663
  0
SEQEND
  0
POLYLINE
  8
0
 62
7
  6
CONTINUOUS
 66
1
 70
0
  0
VERTEX
  8
0
 62
7
  6
CONTINUOUS
 10
-25.2690465729
 20
223.8214648342
  0
VERTEX
  8
0
 62
7
  6
CONTINUOUS
 10
-25.2820037803
 20
223.8192425847
  0
VERTEX
  8
0
 62
7
  6
CONTINUOUS
 10
-25.2961031341
 20
223.8169078534
  0
VERTEX
  8
0
 62
7
  6
CONTINUOUS
 10
-25.3112558556
 20
223.8145345444
  0
VERTEX
  8
0
 62
7
  6
CONTINUOUS
 10
-25.3273748051
 20
223.8121919201
  0
VERTEX
  8
0
 62
7
  6
CONTINUOUS
 10
-25.3443973559
 20
223.80995003
  0
VERTEX
  8
0
 62
7
  6
CONTINUOUS
 10
-25.362136672
 20
223.8079290143
  0
VERTEX
  8
0
 62
7
  6
CONTINUOUS
 10
-25.3808701051
 20
223.80605011
  0
VERTEX
  8
0
 62
7
  6
CONTINUOUS
 10
-25.4007702672
 20
223.8042834603
  0
VERTEX
  8
0
 62
7
  6
CONTINUOUS
 10
-25.4220006875
 20
223.8025925621
  0
VERTEX
  8
0
 62
7
  6
CONTINUOUS
 10
-25.4447799948
 20
223.8009441397
  0
VERTEX
  8
0
 62
7
  6
CONTINUOUS
 10
-25.4688048849
 20
223.7993819599
  0
VERTEX
  8
0
 62
7
  6
CONTINUOUS
 10
-25.4938281386
 20
223.7979395867
  0
VERTEX
  8
0
 62
7
  6
CONTINUOUS
 10
-25.5194469391
 20
223.7967363606
  0
SEQEND
  0
LINE
  8
0
 62
7
  6
CONTINUOUS
 10
381.640014504
 20
223.8232333517
 11
381.6004116142
 21
223.8297745021
  0
POLYLINE
  8
0
 62
7
  6
CONTINUOUS
 66
1
 70
0
  0
VERTEX
  8
0
 62
7
  6
CONTINUOUS
 10
379.9562761629
 20
225.7971590983
  0
VERTEX
  8
0
 62
7
  6
CONTINUOUS
 10
379.3481475636
 20
225.9072884316
  0
VERTEX
  8
0
 62
7
  6
CONTINUOUS
 10
378.7619923667
 20
225.9394839151
  0
VERTEX
  8
0
 62
7
  6
CONTINUOUS
 10
378.1030574756
 20
225.9460912617
  0
VERTEX
  8
0
 62
7
  6
CONTINUOUS
 10
377.4023273852
 20
225.9436824654
  0
VERTEX
  8
0
 62
7
  6
CONTINUOUS
 10
376.6305400776
 20
225.9422731573
  0
VERTEX
  8
0
 62
7
  6
CONTINUOUS
 10
375.7170358022
 20
225.9482701244
  0
VERTEX
  8
0
 62
7
  6
CONTINUOUS
 10
374.6771006478
 20
225.9589243177
  0
VERTEX
  8
0
 62
7
  6
CONTINUOUS
 10
373.5919571271
 20
225.959374985
  0
VERTEX
  8
0
 62
7
  6
CONTINUOUS
 10
372.337985551
 20
225.9522141492
  0
VERTEX
  8
0
 62
7
  6
CONTINUOUS
 10
370.9692308115
 20
225.9441215744
  0
VERTEX
  8
0
 62
7
  6
CONTINUOUS
 10
369.4971635087
 20
225.9393581862
  0
VERTEX
  8
0
 62
7
  6
CONTINUOUS
 10
367.9721403518
 20
225.9397422224
  0
VERTEX
  8
0
 62
7
  6
CONTINUOUS
 10
366.3646799031
 20
225.9447771985
  0
VERTEX
  8
0
 62
7
  6
CONTINUOUS
 10
364.6771232587
 20
225.9529654003
  0
VERTEX
  8
0
 62
7
  6
CONTINUOUS
 10
362.8685752977
 20
225.96255775
  0
VERTEX
  8
0
 62
7
  6
CONTINUOUS
 10
360.8974209721
 20
225.971887802
  0
VERTEX
  8
0
 62
7
  6
CONTINUOUS
 10
358.7553767489
 20
225.9794444833
  0
VERTEX
  8
0
 62
7
  6
CONTINUOUS
 10
356.5534294294
 20
225.9841123809
  0
VERTEX
  8
0
 62
7
  6
CONTINUOUS
 10
354.4305680887
 20
225.9860207081
  0
SEQEND
  0
LINE
  8
0
 62
7
  6
CONTINUOUS
 10
379.9571838638
 20
225.8017384701
 11
379.4310647783
 21
225.9060232408
  0
POLYLINE
  8
0
 62
7
  6
CONTINUOUS
 66
1
 70
0
  0
VERTEX
  8
0
 62
7
  6
CONTINUOUS
 10
315.6786335113
 20
84.7002780854
  0
VERTEX
  8
0
 62
7
  6
CONTINUOUS
 10
315.4803817261
 20
84.3982087012
  0
VERTEX
  8
0
 62
7
  6
CONTINUOUS
 10
315.2756165514
 20
84.1026099079
  0
VERTEX
  8
0
 62
7
  6
CONTINUOUS
 10
315.0645376035
 20
83.8137013532
  0
VERTEX
  8
0
 62
7
  6
CONTINUOUS
 10
314.8471514723
 20
83.5316976752
  0
VERTEX
  8
0
 62
7
  6
CONTINUOUS
 10
314.6234541386
 20
83.2568083282
  0
VERTEX
  8
0
 62
7
  6
CONTINUOUS
 10
314.3937116094
 20
82.9892377261
  0
VERTEX
  8
0
 62
7
  6
CONTINUOUS
 10
314.1581219286
 20
82.7291847393
  0
VERTEX
  8
0
 62
7
  6
CONTINUOUS
 10
313.9169105576
 20
82.4768427469
  0
VERTEX
  8
0
 62
7
  6
CONTINUOUS
 10
313.6702925899
 20
82.2323993063
  0
VERTEX
  8
0
 62
7
  6
CONTINUOUS
 10
313.4185202033
 20
81.9960362511
  0
VERTEX
  8
0
 62
7
  6
CONTINUOUS
 10
313.161828314
 20
81.7679292656
  0
VERTEX
  8
0
 62
7
  6
CONTINUOUS
 10
312.9005037135
 20
81.5482481269
  0
VERTEX
  8
0
 62
7
  6
CONTINUOUS
 10
312.6348056303
 20
81.3371561175
  0
VERTEX
  8
0
 62
7
  6
CONTINUOUS
 10
312.3650676449
 20
81.1348105017
  0
VERTEX
  8
0
 62
7
  6
CONTINUOUS
 10
312.0915807013
 20
80.9413616603
  0
VERTEX
  8
0
 62
7
  6
CONTINUOUS
 10
311.8147427256
 20
80.7569539536
  0
VERTEX
  8
0
 62
7
  6
CONTINUOUS
 10
311.5348891442
 20
80.581724385
  0
VERTEX
  8
0
 62
7
  6
CONTINUOUS
 10
311.2525021084
 20
80.4158040839
  0
VERTEX
  8
0
 62
7
  6
CONTINUOUS
 10
310.9679851842
 20
80.2593162222
  0
VERTEX
  8
0
 62
7
  6
CONTINUOUS
 10
310.6819035989
 20
80.1123783645
  0
VERTEX
  8
0
 62
7
  6
CONTINUOUS
 10
310.3947610298
 20
79.9750994243
  0
VERTEX
  8
0
 62
7
  6
CONTINUOUS
 10
310.1071280839
 20
79.8475827551
  0
VERTEX
  8
0
 62
7
  6
CONTINUOUS
 10
309.8196316432
 20
79.7299225828
  0
VERTEX
  8
0
 62
7
  6
CONTINUOUS
 10
309.5325803768
 20
79.6222064227
  0
VERTEX
  8
0
 62
7
  6
CONTINUOUS
 10
309.2466781398
 20
79.5245134066
  0
VERTEX
  8
0
 62
7
  6
CONTINUOUS
 10
308.9613513988
 20
79.4369115099
  0
VERTEX
  8
0
 62
7
  6
CONTINUOUS
 10
308.6768136497
 20
79.3594631035
  0
VERTEX
  8
0
 62
7
  6
CONTINUOUS
 10
308.3914624754
 20
79.2922151331
  0
VERTEX
  8
0
 62
7
  6
CONTINUOUS
 10
308.1042180748
 20
79.2352116602
  0
VERTEX
  8
0
 62
7
  6
CONTINUOUS
 10
307.8138907841
 20
79.1884864593
  0
VERTEX
  8
0
 62
7
  6
CONTINUOUS
 10
307.552742412
 20
79.1521007006
  0
VERTEX
  8
0
 62
7
  6
CONTINUOUS
 10
307.2195074831
 20
79.1259888986
  0
VERTEX
  8
0
 62
7
  6
CONTINUOUS
 10
306.713322683
 20
79.1102025122
  0
VERTEX
  8
0
 62
7
  6
CONTINUOUS
 10
306.0675379363
 20
79.1049120235
  0
SEQEND
  0
POLYLINE
  8
0
 62
7
  6
CONTINUOUS
 66
1
 70
0
  0
VERTEX
  8
0
 62
7
  6
CONTINUOUS
 10
316.3823294736
 20
85.7256370549
  0
VERTEX
  8
0
 62
7
  6
CONTINUOUS
 10
316.5288559537
 20
85.9333017213
  0
VERTEX
  8
0
 62
7
  6
CONTINUOUS
 10
316.7063898224
 20
86.1855210539
  0
VERTEX
  8
0
 62
7
  6
CONTINUOUS
 10
316.8663547492
 20
86.4135089127
  0
VERTEX
  8
0
 62
7
  6
CONTINUOUS
 10
317.0249441463
 20
86.6401933481
  0
VERTEX
  8
0
 62
7
  6
CONTINUOUS
 10
317.1821591295
 20
86.8655737922
  0
VERTEX
  8
0
 62
7
  6
CONTINUOUS
 10
317.3380009222
 20
87.089649622
  0
VERTEX
  8
0
 62
7
  6
CONTINUOUS
 10
317.4924708536
 20
87.3124201608
  0
VERTEX
  8
0
 62
7
  6
CONTINUOUS
 10
317.6455703559
 20
87.5338846795
  0
VERTEX
  8
0
 62
7
  6
CONTINUOUS
 10
317.7973009615
 20
87.7540423979
  0
VERTEX
  8
0
 62
7
  6
CONTINUOUS
 10
317.9476643008
 20
87.972892486
  0
VERTEX
  8
0
 62
7
  6
CONTINUOUS
 10
318.0966620994
 20
88.1904340653
  0
VERTEX
  8
0
 62
7
  6
CONTINUOUS
 10
318.2442961754
 20
88.40666621
  0
VERTEX
  8
0
 62
7
  6
CONTINUOUS
 10
318.3905684372
 20
88.6215879487
  0
VERTEX
  8
0
 62
7
  6
CONTINUOUS
 10
318.5354808803
 20
88.8351982654
  0
VERTEX
  8
0
 62
7
  6
CONTINUOUS
 10
318.6790355853
 20
89.0474961008
  0
VERTEX
  8
0
 62
7
  6
CONTINUOUS
 10
318.8212347149
 20
89.258480354
  0
VERTEX
  8
0
 62
7
  6
CONTINUOUS
 10
318.9620805115
 20
89.4681498831
  0
VERTEX
  8
0
 62
7
  6
CONTINUOUS
 10
319.1015752947
 20
89.6765035074
  0
VERTEX
  8
0
 62
7
  6
CONTINUOUS
 10
319.2198655665
 20
89.853585705
  0
VERTEX
  8
0
 62
7
  6
CONTINUOUS
 10
319.376521469
 20
90.0892581294
  0
VERTEX
  8
0
 62
7
  6
CONTINUOUS
 10
319.6502545179
 20
90.5031900628
  0
VERTEX
  8
0
 62
7
  6
CONTINUOUS
 10
319.961623814
 20
90.9771044496
  0
VERTEX
  8
0
 62
7
  6
CONTINUOUS
 10
320.2517644252
 20
91.4223119386
  0
VERTEX
  8
0
 62
7
  6
CONTINUOUS
 10
320.5402695798
 20
91.8683901139
  0
VERTEX
  8
0
 62
7
  6
CONTINUOUS
 10
320.8271183336
 20
92.3153496383
  0
VERTEX
  8
0
 62
7
  6
CONTINUOUS
 10
321.1122900392
 20
92.7632010235
  0
VERTEX
  8
0
 62
7
  6
CONTINUOUS
 10
321.3957643475
 20
93.2119546297
  0
VERTEX
  8
0
 62
7
  6
CONTINUOUS
 10
321.6775212186
 20
93.6616206594
  0
VERTEX
  8
0
 62
7
  6
CONTINUOUS
 10
321.957541026
 20
94.1122091046
  0
VERTEX
  8
0
 62
7
  6
CONTINUOUS
 10
322.2358045037
 20
94.5637297738
  0
VERTEX
  8
0
 62
7
  6
CONTINUOUS
 10
322.5122964588
 20
95.016190402
  0
VERTEX
  8
0
 62
7
  6
CONTINUOUS
 10
322.7870169664
 20
95.469590951
  0
VERTEX
  8
0
 62
7
  6
CONTINUOUS
 10
323.0599701319
 20
95.9239293305
  0
VERTEX
  8
0
 62
7
  6
CONTINUOUS
 10
323.3311603775
 20
96.3792032893
  0
VERTEX
  8
0
 62
7
  6
CONTINUOUS
 10
323.6005924104
 20
96.8354104308
  0
VERTEX
  8
0
 62
7
  6
CONTINUOUS
 10
323.8682711935
 20
97.2925482284
  0
VERTEX
  8
0
 62
7
  6
CONTINUOUS
 10
324.1342019178
 20
97.7506140393
  0
VERTEX
  8
0
 62
7
  6
CONTINUOUS
 10
324.398389977
 20
98.2096051174
  0
VERTEX
  8
0
 62
7
  6
CONTINUOUS
 10
324.6613741852
 20
98.6704657388
  0
VERTEX
  8
0
 62
7
  6
CONTINUOUS
 10
324.9215605441
 20
99.130351649
  0
VERTEX
  8
0
 62
7
  6
CONTINUOUS
 10
325.1767692433
 20
99.5853137063
  0
VERTEX
  8
0
 62
7
  6
CONTINUOUS
 10
325.429409636
 20
100.0395532674
  0
VERTEX
  8
0
 62
7
  6
CONTINUOUS
 10
325.6813258851
 20
100.4963408416
  0
VERTEX
  8
0
 62
7
  6
CONTINUOUS
 10
325.9319055588
 20
100.9545850937
  0
VERTEX
  8
0
 62
7
  6
CONTINUOUS
 10
326.1811505226
 20
101.4142850739
  0
VERTEX
  8
0
 62
7
  6
CONTINUOUS
 10
326.4290627464
 20
101.8754397794
  0
VERTEX
  8
0
 62
7
  6
CONTINUOUS
 10
326.6756442938
 20
102.3380481595
  0
VERTEX
  8
0
 62
7
  6
CONTINUOUS
 10
326.9208973119
 20
102.8021091211
  0
VERTEX
  8
0
 62
7
  6
CONTINUOUS
 10
327.1648240226
 20
103.267621533
  0
VERTEX
  8
0
 62
7
  6
CONTINUOUS
 10
327.407426714
 20
103.7345842303
  0
VERTEX
  8
0
 62
7
  6
CONTINUOUS
 10
327.6487077338
 20
104.2029960179
  0
VERTEX
  8
0
 62
7
  6
CONTINUOUS
 10
327.8886694819
 20
104.6728556738
  0
VERTEX
  8
0
 62
7
  6
CONTINUOUS
 10
328.1273142582
 20
105.1441620271
  0
VERTEX
  8
0
 62
7
  6
CONTINUOUS
 10
328.3646424117
 20
105.6169149003
  0
VERTEX
  8
0
 62
7
  6
CONTINUOUS
 10
328.6006530051
 20
106.0911147704
  0
VERTEX
  8
0
 62
7
  6
CONTINUOUS
 10
328.8353452932
 20
106.5667620169
  0
VERTEX
  8
0
 62
7
  6
CONTINUOUS
 10
329.0687187617
 20
107.0438569015
  0
VERTEX
  8
0
 62
7
  6
CONTINUOUS
 10
329.300773133
 20
107.5223995657
  0
VERTEX
  8
0
 62
7
  6
CONTINUOUS
 10
329.5288515883
 20
107.9967865783
  0
VERTEX
  8
0
 62
7
  6
CONTINUOUS
 10
329.7609246841
 20
108.4838281817
  0
VERTEX
  8
0
 62
7
  6
CONTINUOUS
 10
330.0073803493
 20
109.0058157773
  0
VERTEX
  8
0
 62
7
  6
CONTINUOUS
 10
330.257709956
 20
109.5410077661
  0
VERTEX
  8
0
 62
7
  6
CONTINUOUS
 10
330.5042127179
 20
110.0731890924
  0
VERTEX
  8
0
 62
7
  6
CONTINUOUS
 10
330.7494514924
 20
110.6077668477
  0
VERTEX
  8
0
 62
7
  6
CONTINUOUS
 10
330.993423755
 20
111.1447423171
  0
VERTEX
  8
0
 62
7
  6
CONTINUOUS
 10
331.236127415
 20
111.6841165652
  0
VERTEX
  8
0
 62
7
  6
CONTINUOUS
 10
331.4775608228
 20
112.2258904315
  0
VERTEX
  8
0
 62
7
  6
CONTINUOUS
 10
331.7177227783
 20
112.7700645273
  0
VERTEX
  8
0
 62
7
  6
CONTINUOUS
 10
331.9566125374
 20
113.3166392312
  0
VERTEX
  8
0
 62
7
  6
CONTINUOUS
 10
332.1942298193
 20
113.8656146863
  0
VERTEX
  8
0
 62
7
  6
CONTINUOUS
 10
332.4305748129
 20
114.4169907965
  0
VERTEX
  8
0
 62
7
  6
CONTINUOUS
 10
332.6656481823
 20
114.9707672234
  0
VERTEX
  8
0
 62
7
  6
CONTINUOUS
 10
332.8994510733
 20
115.5269433839
  0
VERTEX
  8
0
 62
7
  6
CONTINUOUS
 10
333.1319851182
 20
116.085518447
  0
VERTEX
  8
0
 62
7
  6
CONTINUOUS
 10
333.3632524409
 20
116.6464913313
  0
VERTEX
  8
0
 62
7
  6
CONTINUOUS
 10
333.5932556617
 20
117.2098607027
  0
VERTEX
  8
0
 62
7
  6
CONTINUOUS
 10
333.8219979016
 20
117.7756249725
  0
VERTEX
  8
0
 62
7
  6
CONTINUOUS
 10
334.0494827859
 20
118.3437822947
  0
VERTEX
  8
0
 62
7
  6
CONTINUOUS
 10
334.2775183699
 20
118.9189503364
  0
VERTEX
  8
0
 62
7
  6
CONTINUOUS
 10
334.5006975353
 20
119.4872674179
  0
VERTEX
  8
0
 62
7
  6
CONTINUOUS
 10
334.7118868238
 20
120.0301186096
  0
VERTEX
  8
0
 62
7
  6
CONTINUOUS
 10
334.9185120822
 20
120.5661579448
  0
VERTEX
  8
0
 62
7
  6
CONTINUOUS
 10
335.1260877639
 20
121.1094744004
  0
VERTEX
  8
0
 62
7
  6
CONTINUOUS
 10
335.3327792378
 20
121.6553698587
  0
VERTEX
  8
0
 62
7
  6
CONTINUOUS
 10
335.538589721
 20
122.2038426819
  0
VERTEX
  8
0
 62
7
  6
CONTINUOUS
 10
335.743522782
 20
122.7548910532
  0
VERTEX
  8
0
 62
7
  6
CONTINUOUS
 10
335.9475791165
 20
123.3085146184
  0
VERTEX
  8
0
 62
7
  6
CONTINUOUS
 10
336.150755947
 20
123.8647147916
  0
VERTEX
  8
0
 62
7
  6
CONTINUOUS
 10
336.3530504237
 20
124.4234930236
  0
VERTEX
  8
0
 62
7
  6
CONTINUOUS
 10
336.5544598136
 20
124.9848507057
  0
VERTEX
  8
0
 62
7
  6
CONTINUOUS
 10
336.7549815026
 20
125.5487891691
  0
VERTEX
  8
0
 62
7
  6
CONTINUOUS
 10
336.9546129974
 20
126.1153096828
  0
VERTEX
  8
0
 62
7
  6
CONTINUOUS
 10
337.1533519283
 20
126.6844134535
  0
VERTEX
  8
0
 62
7
  6
CONTINUOUS
 10
337.3511960513
 20
127.2561016235
  0
VERTEX
  8
0
 62
7
  6
CONTINUOUS
 10
337.5481432504
 20
127.8303752702
  0
VERTEX
  8
0
 62
7
  6
CONTINUOUS
 10
337.7441915405
 20
128.4072354041
  0
VERTEX
  8
0
 62
7
  6
CONTINUOUS
 10
337.9393390692
 20
128.9866829684
  0
VERTEX
  8
0
 62
7
  6
CONTINUOUS
 10
338.1335841198
 20
129.568718837
  0
VERTEX
  8
0
 62
7
  6
CONTINUOUS
 10
338.3175183439
 20
130.1244631049
  0
VERTEX
  8
0
 62
7
  6
CONTINUOUS
 10
338.5193606124
 20
130.7405586307
  0
VERTEX
  8
0
 62
7
  6
CONTINUOUS
 10
338.7760723029
 20
131.532643391
  0
VERTEX
  8
0
 62
7
  6
CONTINUOUS
 10
339.04945315
 20
132.386157693
  0
VERTEX
  8
0
 62
7
  6
CONTINUOUS
 10
339.3114447978
 20
133.2150482849
  0
VERTEX
  8
0
 62
7
  6
CONTINUOUS
 10
339.5714055938
 20
134.0479967521
  0
VERTEX
  8
0
 62
7
  6
CONTINUOUS
 10
339.8293402941
 20
134.8850006733
  0
VERTEX
  8
0
 62
7
  6
CONTINUOUS
 10
340.0852541346
 20
135.7260573829
  0
VERTEX
  8
0
 62
7
  6
CONTINUOUS
 10
340.3391528421
 20
136.5711639652
  0
VERTEX
  8
0
 62
7
  6
CONTINUOUS
 10
340.5910426448
 20
137.4203172493
  0
VERTEX
  8
0
 62
7
  6
CONTINUOUS
 10
340.8409302834
 20
138.2735138036
  0
VERTEX
  8
0
 62
7
  6
CONTINUOUS
 10
341.0888230216
 20
139.13074993
  0
VERTEX
  8
0
 62
7
  6
CONTINUOUS
 10
341.3347286576
 20
139.9920216583
  0
VERTEX
  8
0
 62
7
  6
CONTINUOUS
 10
341.5786553613
 20
140.8573248292
  0
VERTEX
  8
0
 62
7
  6
CONTINUOUS
 10
341.8206052702
 20
141.7266583543
  0
VERTEX
  8
0
 62
7
  6
CONTINUOUS
 10
342.060572408
 20
142.6000252764
  0
VERTEX
  8
0
 62
7
  6
CONTINUOUS
 10
342.2985503947
 20
143.4774288435
  0
VERTEX
  8
0
 62
7
  6
CONTINUOUS
 10
342.5345329988
 20
144.3588722282
  0
VERTEX
  8
0
 62
7
  6
CONTINUOUS
 10
342.7685141446
 20
145.2443585237
  0
VERTEX
  8
0
 62
7
  6
CONTINUOUS
 10
343.0004879199
 20
146.1338907399
  0
VERTEX
  8
0
 62
7
  6
CONTINUOUS
 10
343.2278758075
 20
147.0172396023
  0
VERTEX
  8
0
 62
7
  6
CONTINUOUS
 10
343.4583905764
 20
147.9251045336
  0
VERTEX
  8
0
 62
7
  6
CONTINUOUS
 10
343.702109813
 20
148.8986026591
  0
VERTEX
  8
0
 62
7
  6
CONTINUOUS
 10
343.9483956527
 20
149.8967428358
  0
VERTEX
  8
0
 62
7
  6
CONTINUOUS
 10
344.1894359034
 20
150.888637365
  0
VERTEX
  8
0
 62
7
  6
CONTINUOUS
 10
344.42783276
 20
151.884583098
  0
VERTEX
  8
0
 62
7
  6
CONTINUOUS
 10
344.6635851537
 20
152.8845805788
  0
VERTEX
  8
0
 62
7
  6
CONTINUOUS
 10
344.8966922958
 20
153.8886302091
  0
VERTEX
  8
0
 62
7
  6
CONTINUOUS
 10
345.1271536888
 20
154.8967322419
  0
VERTEX
  8
0
 62
7
  6
CONTINUOUS
 10
345.3549691378
 20
155.9088867768
  0
VERTEX
  8
0
 62
7
  6
CONTINUOUS
 10
345.5801387606
 20
156.9250937535
  0
VERTEX
  8
0
 62
7
  6
CONTINUOUS
 10
345.8026629994
 20
157.945352947
  0
VERTEX
  8
0
 62
7
  6
CONTINUOUS
 10
346.0225426246
 20
158.9696639651
  0
VERTEX
  8
0
 62
7
  6
CONTINUOUS
 10
346.2397775099
 20
159.9980268721
  0
VERTEX
  8
0
 62
7
  6
CONTINUOUS
 10
346.4543652091
 20
161.0304429133
  0
VERTEX
  8
0
 62
7
  6
CONTINUOUS
 10
346.6663034589
 20
162.0669132411
  0
VERTEX
  8
0
 62
7
  6
CONTINUOUS
 10
346.8755905549
 20
163.1074387231
  0
VERTEX
  8
0
 62
7
  6
CONTINUOUS
 10
347.0822253444
 20
164.1520199463
  0
VERTEX
  8
0
 62
7
  6
CONTINUOUS
 10
347.2862072185
 20
165.2006572206
  0
VERTEX
  8
0
 62
7
  6
CONTINUOUS
 10
347.4875361045
 20
166.253350583
  0
VERTEX
  8
0
 62
7
  6
CONTINUOUS
 10
347.6989555431
 20
167.3795920527
  0
VERTEX
  8
0
 62
7
  6
CONTINUOUS
 10
347.8822372535
 20
168.3709043803
  0
VERTEX
  8
0
 62
7
  6
CONTINUOUS
 10
347.9878194046
 20
168.9490967552
  0
VERTEX
  8
0
 62
7
  6
CONTINUOUS
 10
348.0674211625
 20
169.3902690616
  0
VERTEX
  8
0
 62
7
  6
CONTINUOUS
 10
348.1591288589
 20
169.9014819145
  0
VERTEX
  8
0
 62
7
  6
CONTINUOUS
 10
348.2502470663
 20
170.4137151007
  0
VERTEX
  8
0
 62
7
  6
CONTINUOUS
 10
348.3407758313
 20
170.9269685962
  0
VERTEX
  8
0
 62
7
  6
CONTINUOUS
 10
348.430715228
 20
171.4412423636
  0
VERTEX
  8
0
 62
7
  6
CONTINUOUS
 10
348.5200653572
 20
171.9565363513
  0
VERTEX
  8
0
 62
7
  6
CONTINUOUS
 10
348.6088263471
 20
172.4728504942
  0
VERTEX
  8
0
 62
7
  6
CONTINUOUS
 10
348.6969983525
 20
172.9901847134
  0
VERTEX
  8
0
 62
7
  6
CONTINUOUS
 10
348.784581555
 20
173.5085389165
  0
VERTEX
  8
0
 62
7
  6
CONTINUOUS
 10
348.8715761627
 20
174.0279129975
  0
VERTEX
  8
0
 62
7
  6
CONTINUOUS
 10
348.95798241
 20
174.5483068371
  0
VERTEX
  8
0
 62
7
  6
CONTINUOUS
 10
349.0438005578
 20
175.0697203025
  0
VERTEX
  8
0
 62
7
  6
CONTINUOUS
 10
349.1290308929
 20
175.5921532477
  0
VERTEX
  8
0
 62
7
  6
CONTINUOUS
 10
349.2136737281
 20
176.1156055133
  0
VERTEX
  8
0
 62
7
  6
CONTINUOUS
 10
349.2977294023
 20
176.640076927
  0
VERTEX
  8
0
 62
7
  6
CONTINUOUS
 10
349.3811982797
 20
177.1655673032
  0
VERTEX
  8
0
 62
7
  6
CONTINUOUS
 10
349.4640805115
 20
177.6920765649
  0
VERTEX
  8
0
 62
7
  6
CONTINUOUS
 10
349.5465584942
 20
178.220798131
  0
VERTEX
  8
0
 62
7
  6
CONTINUOUS
 10
349.6280796935
 20
178.7481544663
  0
VERTEX
  8
0
 62
7
  6
CONTINUOUS
 10
349.7079505561
 20
179.2695703982
  0
VERTEX
  8
0
 62
7
  6
CONTINUOUS
 10
349.786822741
 20
179.789208734
  0
VERTEX
  8
0
 62
7
  6
CONTINUOUS
 10
349.8651546529
 20
180.3100443901
  0
VERTEX
  8
0
 62
7
  6
CONTINUOUS
 10
349.9427938012
 20
180.8310855696
  0
VERTEX
  8
0
 62
7
  6
CONTINUOUS
 10
350.0197404091
 20
181.3523321587
  0
VERTEX
  8
0
 62
7
  6
CONTINUOUS
 10
350.0959946919
 20
181.8737840477
  0
VERTEX
  8
0
 62
7
  6
CONTINUOUS
 10
350.1715568576
 20
182.3954411309
  0
VERTEX
  8
0
 62
7
  6
CONTINUOUS
 10
350.2464271066
 20
182.9173033062
  0
VERTEX
  8
0
 62
7
  6
CONTINUOUS
 10
350.3206056324
 20
183.4393704751
  0
VERTEX
  8
0
 62
7
  6
CONTINUOUS
 10
350.3940926214
 20
183.9616425426
  0
VERTEX
  8
0
 62
7
  6
CONTINUOUS
 10
350.4668882535
 20
184.4841194173
  0
VERTEX
  8
0
 62
7
  6
CONTINUOUS
 10
350.5389927018
 20
185.0068010108
  0
VERTEX
  8
0
 62
7
  6
CONTINUOUS
 10
350.6104061336
 20
185.5296872382
  0
VERTEX
  8
0
 62
7
  6
CONTINUOUS
 10
350.6811287097
 20
186.0527780175
  0
VERTEX
  8
0
 62
7
  6
CONTINUOUS
 10
350.7511605854
 20
186.5760732697
  0
VERTEX
  8
0
 62
7
  6
CONTINUOUS
 10
350.8205019102
 20
187.0995729186
  0
VERTEX
  8
0
 62
7
  6
CONTINUOUS
 10
350.8891528283
 20
187.6232768908
  0
VERTEX
  8
0
 62
7
  6
CONTINUOUS
 10
350.9571134787
 20
188.1471851156
  0
VERTEX
  8
0
 62
7
  6
CONTINUOUS
 10
351.0243216902
 20
188.6708040467
  0
VERTEX
  8
0
 62
7
  6
CONTINUOUS
 10
351.090964508
 20
189.1956140522
  0
VERTEX
  8
0
 62
7
  6
CONTINUOUS
 10
351.1573060816
 20
189.7237466508
  0
VERTEX
  8
0
 62
7
  6
CONTINUOUS
 10
351.2230340111
 20
190.2527644746
  0
VERTEX
  8
0
 62
7
  6
CONTINUOUS
 10
351.2879043649
 20
190.7807204961
  0
VERTEX
  8
0
 62
7
  6
CONTINUOUS
 10
351.3519991216
 20
191.3082633843
  0
VERTEX
  8
0
 62
7
  6
CONTINUOUS
 10
351.4153170317
 20
191.8353937754
  0
VERTEX
  8
0
 62
7
  6
CONTINUOUS
 10
351.4778568018
 20
192.3621123278
  0
VERTEX
  8
0
 62
7
  6
CONTINUOUS
 10
351.539617158
 20
192.8884196902
  0
VERTEX
  8
0
 62
7
  6
CONTINUOUS
 10
351.6005968456
 20
193.4143165012
  0
VERTEX
  8
0
 62
7
  6
CONTINUOUS
 10
351.6607946288
 20
193.93980339
  0
VERTEX
  8
0
 62
7
  6
CONTINUOUS
 10
351.7202092904
 20
194.4648809765
  0
VERTEX
  8
0
 62
7
  6
CONTINUOUS
 10
351.7788396314
 20
194.9895498708
  0
VERTEX
  8
0
 62
7
  6
CONTINUOUS
 10
351.8366844709
 20
195.5138106744
  0
VERTEX
  8
0
 62
7
  6
CONTINUOUS
 10
351.8937426456
 20
196.0376639793
  0
VERTEX
  8
0
 62
7
  6
CONTINUOUS
 10
351.9500130099
 20
196.561110369
  0
VERTEX
  8
0
 62
7
  6
CONTINUOUS
 10
352.0054944349
 20
197.084150418
  0
VERTEX
  8
0
 62
7
  6
CONTINUOUS
 10
352.0601858089
 20
197.6067846924
  0
VERTEX
  8
0
 62
7
  6
CONTINUOUS
 10
352.1140860368
 20
198.1290137497
  0
VERTEX
  8
0
 62
7
  6
CONTINUOUS
 10
352.1671940397
 20
198.6508381392
  0
VERTEX
  8
0
 62
7
  6
CONTINUOUS
 10
352.219229586
 20
199.1694025155
  0
SEQEND
  0
POLYLINE
  8
0
 62
7
  6
CONTINUOUS
 66
1
 70
0
  0
VERTEX
  8
0
 62
7
  6
CONTINUOUS
 10
352.219229586
 20
199.1694025155
  0
VERTEX
  8
0
 62
7
  6
CONTINUOUS
 10
352.2710291354
 20
199.693275071
  0
VERTEX
  8
0
 62
7
  6
CONTINUOUS
 10
352.3237125653
 20
200.2342240935
  0
VERTEX
  8
0
 62
7
  6
CONTINUOUS
 10
352.3760285843
 20
200.7798554565
  0
VERTEX
  8
0
 62
7
  6
CONTINUOUS
 10
352.4270393803
 20
201.3206134524
  0
VERTEX
  8
0
 62
7
  6
CONTINUOUS
 10
352.47706063
 20
201.8596817525
  0
VERTEX
  8
0
 62
7
  6
CONTINUOUS
 10
352.5260946891
 20
202.3970591579
  0
VERTEX
  8
0
 62
7
  6
CONTINUOUS
 10
352.5741439524
 20
202.932744449
  0
VERTEX
  8
0
 62
7
  6
CONTINUOUS
 10
352.621210854
 20
203.4667363867
  0
VERTEX
  8
0
 62
7
  6
CONTINUOUS
 10
352.6672978598
 20
203.9990337157
  0
VERTEX
  8
0
 62
7
  6
CONTINUOUS
 10
352.712405959
 20
204.5296359322
  0
VERTEX
  8
0
 62
7
  6
CONTINUOUS
 10
352.756532721
 20
205.0585442738
  0
VERTEX
  8
0
 62
7
  6
CONTINUOUS
 10
352.7996753595
 20
205.5857601589
  0
VERTEX
  8
0
 62
7
  6
CONTINUOUS
 10
352.8418312314
 20
206.1112849333
  0
VERTEX
  8
0
 62
7
  6
CONTINUOUS
 10
352.8829978354
 20
206.6351198702
  0
VERTEX
  8
0
 62
7
  6
CONTINUOUS
 10
352.923172812
 20
207.1572661711
  0
VERTEX
  8
0
 62
7
  6
CONTINUOUS
 10
352.9623539424
 20
207.6777249655
  0
VERTEX
  8
0
 62
7
  6
CONTINUOUS
 10
353.0005391482
 20
208.1964973115
  0
VERTEX
  8
0
 62
7
  6
CONTINUOUS
 10
353.0377264901
 20
208.7135841965
  0
VERTEX
  8
0
 62
7
  6
CONTINUOUS
 10
353.0739141676
 20
209.2289865372
  0
VERTEX
  8
0
 62
7
  6
CONTINUOUS
 10
353.1088344847
 20
209.738631647
  0
VERTEX
  8
0
 62
7
  6
CONTINUOUS
 10
353.1432840157
 20
210.2547409015
  0
VERTEX
  8
0
 62
7
  6
CONTINUOUS
 10
353.1782670683
 20
210.7934704979
  0
VERTEX
  8
0
 62
7
  6
CONTINUOUS
 10
353.2126818242
 20
211.3390506665
  0
VERTEX
  8
0
 62
7
  6
CONTINUOUS
 10
353.2457443749
 20
211.8797587593
  0
VERTEX
  8
0
 62
7
  6
CONTINUOUS
 10
353.2777100434
 20
212.4195053702
  0
VERTEX
  8
0
 62
7
  6
CONTINUOUS
 10
353.3085744721
 20
212.9582927175
  0
VERTEX
  8
0
 62
7
  6
CONTINUOUS
 10
353.3383334059
 20
213.4961229676
  0
VERTEX
  8
0
 62
7
  6
CONTINUOUS
 10
353.3669839902
 20
214.0329975738
  0
VERTEX
  8
0
 62
7
  6
CONTINUOUS
 10
353.3945306543
 20
214.5689142812
  0
VERTEX
  8
0
 62
7
  6
CONTINUOUS
 10
353.4209802984
 20
215.1038695767
  0
VERTEX
  8
0
 62
7
  6
CONTINUOUS
 10
353.4463397835
 20
215.6378599673
  0
VERTEX
  8
0
 62
7
  6
CONTINUOUS
 10
353.4706159276
 20
216.1708819819
  0
VERTEX
  8
0
 62
7
  6
CONTINUOUS
 10
353.4938155053
 20
216.7029321715
  0
VERTEX
  8
0
 62
7
  6
CONTINUOUS
 10
353.5159452463
 20
217.2340071098
  0
VERTEX
  8
0
 62
7
  6
CONTINUOUS
 10
353.5370118353
 20
217.7641033937
  0
VERTEX
  8
0
 62
7
  6
CONTINUOUS
 10
353.5570219105
 20
218.2932176436
  0
VERTEX
  8
0
 62
7
  6
CONTINUOUS
 10
353.5759820636
 20
218.8213465035
  0
VERTEX
  8
0
 62
7
  6
CONTINUOUS
 10
353.5938988384
 20
219.3484866419
  0
VERTEX
  8
0
 62
7
  6
CONTINUOUS
 10
353.610778731
 20
219.8746347516
  0
VERTEX
  8
0
 62
7
  6
CONTINUOUS
 10
353.6279425431
 20
220.4477545271
  0
VERTEX
  8
0
 62
7
  6
CONTINUOUS
 10
353.6414536091
 20
220.9239417804
  0
VERTEX
  8
0
 62
7
  6
CONTINUOUS
 10
353.6465483413
 20
221.110498541
  0
SEQEND
  0
LINE
  8
0
 62
7
  6
CONTINUOUS
 10
316.2070567539
 20
85.4779667515
 11
316.3823294736
 21
85.7256370549
  0
LINE
  8
0
 62
7
  6
CONTINUOUS
 10
316.1003861162
 20
85.3275855032
 11
316.2070567539
 21
85.4779667515
  0
LINE
  8
0
 62
7
  6
CONTINUOUS
 10
315.9925832554
 20
85.1758709574
 11
316.1003861162
 21
85.3275855032
  0
LINE
  8
0
 62
7
  6
CONTINUOUS
 10
315.8836465978
 20
85.0228239154
 11
315.9925832554
 21
85.1758709574
  0
LINE
  8
0
 62
7
  6
CONTINUOUS
 10
315.7735746022
 20
84.8684451612
 11
315.8836465978
 21
85.0228239154
  0
LINE
  8
0
 62
7
  6
CONTINUOUS
 10
315.6623657684
 20
84.7127354703
 11
315.7735746022
 21
84.8684451612
  0
POLYLINE
  8
0
 62
7
  6
CONTINUOUS
 66
1
 70
0
  0
VERTEX
  8
0
 62
7
  6
CONTINUOUS
 10
353.6465483413
 20
221.110498541
  0
VERTEX
  8
0
 62
7
  6
CONTINUOUS
 10
353.6525123329
 20
221.3405029872
  0
VERTEX
  8
0
 62
7
  6
CONTINUOUS
 10
353.6560954167
 20
221.4809985891
  0
VERTEX
  8
0
 62
7
  6
CONTINUOUS
 10
353.6596258291
 20
221.6223156805
  0
VERTEX
  8
0
 62
7
  6
CONTINUOUS
 10
353.6631029107
 20
221.764454597
  0
VERTEX
  8
0
 62
7
  6
CONTINUOUS
 10
353.6665259999
 20
221.9074156756
  0
VERTEX
  8
0
 62
7
  6
CONTINUOUS
 10
353.6698944324
 20
222.0511992544
  0
VERTEX
  8
0
 62
7
  6
CONTINUOUS
 10
353.6732075419
 20
222.1958056726
  0
VERTEX
  8
0
 62
7
  6
CONTINUOUS
 10
353.6764646595
 20
222.3412352707
  0
VERTEX
  8
0
 62
7
  6
CONTINUOUS
 10
353.679665114
 20
222.4874883906
  0
VERTEX
  8
0
 62
7
  6
CONTINUOUS
 10
353.6828082318
 20
222.6345653751
  0
VERTEX
  8
0
 62
7
  6
CONTINUOUS
 10
353.6858933374
 20
222.7824665681
  0
VERTEX
  8
0
 62
7
  6
CONTINUOUS
 10
353.6889197527
 20
222.9311923149
  0
VERTEX
  8
0
 62
7
  6
CONTINUOUS
 10
353.6918867974
 20
223.0807429617
  0
VERTEX
  8
0
 62
7
  6
CONTINUOUS
 10
353.6947937892
 20
223.2311188561
  0
VERTEX
  8
0
 62
7
  6
CONTINUOUS
 10
353.6976413904
 20
223.3823916622
  0
VERTEX
  8
0
 62
7
  6
CONTINUOUS
 10
353.7004255538
 20
223.5343474362
  0
VERTEX
  8
0
 62
7
  6
CONTINUOUS
 10
353.7031427712
 20
223.6867719599
  0
VERTEX
  8
0
 62
7
  6
CONTINUOUS
 10
353.7057947422
 20
223.8397363695
  0
SEQEND
  0
POLYLINE
  8
0
 62
7
  6
CONTINUOUS
 66
1
 70
0
  0
VERTEX
  8
0
 62
7
  6
CONTINUOUS
 10
353.7054457653
 20
223.8397816484
  0
VERTEX
  8
0
 62
7
  6
CONTINUOUS
 10
353.7103854904
 20
223.9690921809
  0
VERTEX
  8
0
 62
7
  6
CONTINUOUS
 10
353.707756271
 20
224.1055827555
  0
VERTEX
  8
0
 62
7
  6
CONTINUOUS
 10
353.6963014627
 20
224.2487185191
  0
VERTEX
  8
0
 62
7
  6
CONTINUOUS
 10
353.6748133472
 20
224.3972035199
  0
VERTEX
  8
0
 62
7
  6
CONTINUOUS
 10
353.6410748331
 20
224.554028189
  0
VERTEX
  8
0
 62
7
  6
CONTINUOUS
 10
353.5973716087
 20
224.7045454565
  0
VERTEX
  8
0
 62
7
  6
CONTINUOUS
 10
353.5505626023
 20
224.833098625
  0
VERTEX
  8
0
 62
7
  6
CONTINUOUS
 10
353.4991431384
 20
224.9511739697
  0
VERTEX
  8
0
 62
7
  6
CONTINUOUS
 10
353.4425053011
 20
225.0624660594
  0
VERTEX
  8
0
 62
7
  6
CONTINUOUS
 10
353.3778073119
 20
225.1724025193
  0
VERTEX
  8
0
 62
7
  6
CONTINUOUS
 10
353.2994198906
 20
225.287402164
  0
VERTEX
  8
0
 62
7
  6
CONTINUOUS
 10
353.2081289036
 20
225.4022557446
  0
VERTEX
  8
0
 62
7
  6
CONTINUOUS
 10
353.1026992463
 20
225.515098946
  0
VERTEX
  8
0
 62
7
  6
CONTINUOUS
 10
352.9849875061
 20
225.6211463917
  0
VERTEX
  8
0
 62
7
  6
CONTINUOUS
 10
352.8587469137
 20
225.7157385807
  0
VERTEX
  8
0
 62
7
  6
CONTINUOUS
 10
352.7211825903
 20
225.7998080696
  0
VERTEX
  8
0
 62
7
  6
CONTINUOUS
 10
352.5724699883
 20
225.8713614589
  0
VERTEX
  8
0
 62
7
  6
CONTINUOUS
 10
352.4069205472
 20
225.9300163706
  0
VERTEX
  8
0
 62
7
  6
CONTINUOUS
 10
352.2092719691
 20
225.9736551099
  0
VERTEX
  8
0
 62
7
  6
CONTINUOUS
 10
351.9929982138
 20
225.990525131
  0
SEQEND
  0
POLYLINE
  8
0
 62
7
  6
CONTINUOUS
 66
1
 70
0
  0
VERTEX
  8
0
 62
7
  6
CONTINUOUS
 10
337.8346574452
 20
84.5812542945
  0
VERTEX
  8
0
 62
7
  6
CONTINUOUS
 10
338.9567735297
 20
86.0495225868
  0
VERTEX
  8
0
 62
7
  6
CONTINUOUS
 10
340.0575900714
 20
87.504310184
  0
VERTEX
  8
0
 62
7
  6
CONTINUOUS
 10
341.1200766534
 20
88.926036425
  0
VERTEX
  8
0
 62
7
  6
CONTINUOUS
 10
342.1860068042
 20
90.3743455259
  0
VERTEX
  8
0
 62
7
  6
CONTINUOUS
 10
343.30358797
 20
91.9220541191
  0
VERTEX
  8
0
 62
7
  6
CONTINUOUS
 10
344.4263925855
 20
93.5131630067
  0
VERTEX
  8
0
 62
7
  6
CONTINUOUS
 10
345.5266398549
 20
95.1106646735
  0
VERTEX
  8
0
 62
7
  6
CONTINUOUS
 10
346.6127220138
 20
96.727080839
  0
SEQEND
  0
POLYLINE
  8
0
 62
7
  6
CONTINUOUS
 66
1
 70
0
  0
VERTEX
  8
0
 62
7
  6
CONTINUOUS
 10
356.1849059716
 20
223.8368514897
  0
VERTEX
  8
0
 62
7
  6
CONTINUOUS
 10
356.1897651952
 20
224.0030761911
  0
VERTEX
  8
0
 62
7
  6
CONTINUOUS
 10
356.1824535123
 20
224.169183379
  0
VERTEX
  8
0
 62
7
  6
CONTINUOUS
 10
356.1630214808
 20
224.3340243798
  0
VERTEX
  8
0
 62
7
  6
CONTINUOUS
 10
356.1316034716
 20
224.4964592912
  0
VERTEX
  8
0
 62
7
  6
CONTINUOUS
 10
356.0884167378
 20
224.6553648493
  0
VERTEX
  8
0
 62
7
  6
CONTINUOUS
 10
356.0337599184
 20
224.8096421817
  0
VERTEX
  8
0
 62
7
  6
CONTINUOUS
 10
355.9680109703
 20
224.9582244246
  0
VERTEX
  8
0
 62
7
  6
CONTINUOUS
 10
355.8916245548
 20
225.1000840977
  0
VERTEX
  8
0
 62
7
  6
CONTINUOUS
 10
355.8051288938
 20
225.2342402083
  0
VERTEX
  8
0
 62
7
  6
CONTINUOUS
 10
355.7091221171
 20
225.359765036
  0
VERTEX
  8
0
 62
7
  6
CONTINUOUS
 10
355.6042681257
 20
225.4757905474
  0
VERTEX
  8
0
 62
7
  6
CONTINUOUS
 10
355.4912920016
 20
225.5815143992
  0
VERTEX
  8
0
 62
7
  6
CONTINUOUS
 10
355.3709749929
 20
225.6762054867
  0
VERTEX
  8
0
 62
7
  6
CONTINUOUS
 10
355.2441491117
 20
225.7592089989
  0
VERTEX
  8
0
 62
7
  6
CONTINUOUS
 10
355.1116913804
 20
225.8299509473
  0
VERTEX
  8
0
 62
7
  6
CONTINUOUS
 10
354.974517767
 20
225.887942135
  0
VERTEX
  8
0
 62
7
  6
CONTINUOUS
 10
354.833576851
 20
225.9327815395
  0
VERTEX
  8
0
 62
7
  6
CONTINUOUS
 10
354.6898432634
 20
225.9641590859
  0
VERTEX
  8
0
 62
7
  6
CONTINUOUS
 10
354.5443110056
 20
225.9818577869
  0
VERTEX
  8
0
 62
7
  6
CONTINUOUS
 10
354.4309438568
 20
225.9860845187
  0
SEQEND
  0
POLYLINE
  8
0
 62
7
  6
CONTINUOUS
 66
1
 70
0
  0
VERTEX
  8
0
 62
7
  6
CONTINUOUS
 10
381.936770276
 20
223.7956121912
  0
VERTEX
  8
0
 62
7
  6
CONTINUOUS
 10
381.9355220286
 20
223.8834690111
  0
VERTEX
  8
0
 62
7
  6
CONTINUOUS
 10
381.930415095
 20
223.9711851055
  0
VERTEX
  8
0
 62
7
  6
CONTINUOUS
 10
381.9214594291
 20
224.0585911667
  0
VERTEX
  8
0
 62
7
  6
CONTINUOUS
 10
381.9086723604
 20
224.145518593
  0
VERTEX
  8
0
 62
7
  6
CONTINUOUS
 10
381.8920786028
 20
224.2317996747
  0
VERTEX
  8
0
 62
7
  6
CONTINUOUS
 10
381.8717102166
 20
224.3172679773
  0
VERTEX
  8
0
 62
7
  6
CONTINUOUS
 10
381.8476065492
 20
224.4017585322
  0
VERTEX
  8
0
 62
7
  6
CONTINUOUS
 10
381.819814044
 20
224.4851086337
  0
VERTEX
  8
0
 62
7
  6
CONTINUOUS
 10
381.7883862033
 20
224.5671577173
  0
VERTEX
  8
0
 62
7
  6
CONTINUOUS
 10
381.7533836051
 20
224.6477475006
  0
VERTEX
  8
0
 62
7
  6
CONTINUOUS
 10
381.71487365
 20
224.7267225981
  0
VERTEX
  8
0
 62
7
  6
CONTINUOUS
 10
381.6729305895
 20
224.8039305564
  0
VERTEX
  8
0
 62
7
  6
CONTINUOUS
 10
381.6276352689
 20
224.879222355
  0
VERTEX
  8
0
 62
7
  6
CONTINUOUS
 10
381.5790749904
 20
224.9524527011
  0
VERTEX
  8
0
 62
7
  6
CONTINUOUS
 10
381.5273433893
 20
225.0234801916
  0
VERTEX
  8
0
 62
7
  6
CONTINUOUS
 10
381.4725400385
 20
225.092167916
  0
VERTEX
  8
0
 62
7
  6
CONTINUOUS
 10
381.4147703834
 20
225.1583834408
  0
VERTEX
  8
0
 62
7
  6
CONTINUOUS
 10
381.3541458208
 20
225.2219988143
  0
VERTEX
  8
0
 62
7
  6
CONTINUOUS
 10
381.2907831709
 20
225.2828911739
  0
VERTEX
  8
0
 62
7
  6
CONTINUOUS
 10
381.224804646
 20
225.3409428163
  0
VERTEX
  8
0
 62
7
  6
CONTINUOUS
 10
381.156337498
 20
225.3960415229
  0
VERTEX
  8
0
 62
7
  6
CONTINUOUS
 10
381.0855137546
 20
225.4480808106
  0
VERTEX
  8
0
 62
7
  6
CONTINUOUS
 10
381.0124700426
 20
225.4969600496
  0
VERTEX
  8
0
 62
7
  6
CONTINUOUS
 10
380.9373471294
 20
225.5425848074
  0
VERTEX
  8
0
 62
7
  6
CONTINUOUS
 10
380.8602897454
 20
225.5848669165
  0
VERTEX
  8
0
 62
7
  6
CONTINUOUS
 10
380.7814466898
 20
225.6237244722
  0
VERTEX
  8
0
 62
7
  6
CONTINUOUS
 10
380.7009701239
 20
225.6590822362
  0
VERTEX
  8
0
 62
7
  6
CONTINUOUS
 10
380.6190154632
 20
225.6908717025
  0
VERTEX
  8
0
 62
7
  6
CONTINUOUS
 10
380.535740998
 20
225.719031263
  0
VERTEX
  8
0
 62
7
  6
CONTINUOUS
 10
380.4513074845
 20
225.7435063664
  0
VERTEX
  8
0
 62
7
  6
CONTINUOUS
 10
380.3658779665
 20
225.7642495616
  0
VERTEX
  8
0
 62
7
  6
CONTINUOUS
 10
380.2796173687
 20
225.7812206232
  0
VERTEX
  8
0
 62
7
  6
CONTINUOUS
 10
380.1926921706
 20
225.7943866106
  0
VERTEX
  8
0
 62
7
  6
CONTINUOUS
 10
380.1052704406
 20
225.8037218947
  0
SEQEND
  0
ENDSEC
  0
EOF
