999
DXF file: K:\Client\125_Heirloom\001\00\Final_Data\Drawings\BASINS\lineal-362110_1.dxf
999
Pro/ENGINEER 2017110 by Parametric Technology Corporation
  0
SECTION
  2
HEADER
  9
$EXTMAX
 10
420.0
 20
297.0
 30
0.0
  9
$EXTMIN
 10
0.0
 20
0.0
 30
0.0
  9
$LIMMIN
 10
0.0
 20
0.0
  9
$LIMMAX
 10
420.0
 20
297.0
  9
$VIEWCTR
 10
210.0
 20
148.5
  9
$VIEWSIZE
 40
297.0
  9
$CLAYER
  8
0
  9
$LTSCALE
 40
23.1
  9
$CELTYPE
  6
BYLAYER
  9
$DIMSCALE
 40
1.0
  9
$DIMASZ
 40
3.0
  9
$DIMEXO
 40
1.0
  9
$DIMDLI
 40
15.96
  9
$DIMEXE
 40
1.0
  9
$DIMCEN
 40
3.78
  9
$DIMLFAC
 40
1.0
  9
$DIMBLK
  1
_FILLED
  9
$DIMALT
 70
0
  9
$DIMALTF
 40
0.0393700787
  9
$DIMTXT
 40
3.0
  9
$AUNITS
 70
0
  9
$PDMODE
 70
3
  9
$PDSIZE
 40
5.0
  9
$TILEMODE
 70
1
  0
ENDSEC
  0
SECTION
  2
TABLES
  0
TABLE
  2
LTYPE
 70
6
  0
LTYPE
  2
BYBLOCK
 70
0
  3

 72
65
 73
0
 40
0.0
  0
LTYPE
  2
BYLAYER
 70
0
  3

 72
65
 73
0
 40
0.0
  0
LTYPE
  2
CONTINUOUS
 70
64
  3
Solid line
 72
65
 73
0
 40
0.0
  0
LTYPE
  2
CENTER
 70
64
  3
____ _ ____ _ ____ _ ____ _ ____ _ ____ _ ____
 72
65
 73
4
 40
0.6
 49
0.375
 49
-0.075
 49
0.075
 49
-0.075
  0
LTYPE
  2
HIDDEN
 70
64
  3
- - - - - - - - - - - - - - - - - - - -
 72
65
 73
2
 40
0.2
 49
0.1
 49
-0.1
  0
LTYPE
  2
PHANTOM
 70
64
  3
_____ _ _ _____ _ _ _____ _ _ _____
 72
65
 73
6
 40
0.8
 49
0.45
 49
-0.05
 49
0.1
 49
-0.05
 49
0.1
 49
-0.05
  0
LTYPE
  2
DOT
 70
64
  3
. . . . . . . . . . . . . . . . . . . .
 72
65
 73
2
 40
0.2
 49
0.1
 49
-0.1
  0
LTYPE
  2
DASHED
 70
64
  3
- - - - - - - - - - - - - - - - - - - -
 72
65
 73
2
 40
0.2
 49
0.1
 49
-0.1
  0
ENDTAB
  0
TABLE
  2
LAYER
 70
36
  0
LAYER
  2
0
 70
0
 62
7
  6
CONTINUOUS
  0
LAYER
  2
DEFAULT_1
 70
0
 62
7
  6
CENTER
  0
LAYER
  2
DEFAULT_2
 70
0
 62
8
  6
HIDDEN
  0
LAYER
  2
DEFAULT_3
 70
0
 62
7
  6
PHANTOM
  0
LAYER
  2
0000_BOM
 70
0
 62
7
  6
CONTINUOUS
  0
LAYER
  2
0000_REV_TABLE
 70
0
 62
7
  6
CONTINUOUS
  0
LAYER
  2
0000_STEVENS_NOTE
 70
0
 62
7
  6
CONTINUOUS
  0
LAYER
  2
01_DATUM_PLANES
 70
0
 62
7
  6
CONTINUOUS
  0
LAYER
  2
01_DEF_PLANES
 70
0
 62
7
  6
CONTINUOUS
  0
LAYER
  2
02_DATUM_COS
 70
0
 62
7
  6
CONTINUOUS
  0
LAYER
  2
90_IMP_FEAT
 70
0
 62
7
  6
CONTINUOUS
  0
LAYER
  2
95_STL
 70
0
 62
7
  6
CONTINUOUS
  0
LAYER
  2
99_SOLID
 70
0
 62
7
  6
CONTINUOUS
  0
LAYER
  2
CAD-MASTER_ZINC-PL
 70
0
 62
7
  6
CONTINUOUS
  0
LAYER
  2
CURVE
 70
0
 62
7
  6
CONTINUOUS
  0
LAYER
  2
SHELL
 70
0
 62
7
  6
CONTINUOUS
  0
LAYER
  2
SKEL
 70
0
 62
7
  6
CONTINUOUS
  0
LAYER
  2
SKETCH
 70
0
 62
7
  6
CONTINUOUS
  0
LAYER
  2
SURFACE
 70
0
 62
7
  6
CONTINUOUS
  0
ENDTAB
  0
TABLE
  2
STYLE
 70
1
  0
STYLE
  2
STANDARD
 70
0
 40
0.0
 41
0.75
 50
0.0
 71
0
 42
0.2
  3
txt
  4

  0
STYLE
  2
TEXTSTYLE_1
 70
0
 40
0.0
 41
0.8
 50
0.0
 71
0
 42
0.2
  3
gdt
  4

  0
ENDTAB
  0
ENDSEC
  0
SECTION
  2
BLOCKS
  0
ENDSEC
  0
SECTION
  2
ENTITIES
  0
POLYLINE
  8
0
 62
7
  6
CONTINUOUS
 66
1
 70
0
  0
VERTEX
  8
0
 62
7
  6
CONTINUOUS
 10
24.3411530515
 20
83.8457743292
  0
VERTEX
  8
0
 62
7
  6
CONTINUOUS
 10
22.4005418556
 20
86.3541052587
  0
VERTEX
  8
0
 62
7
  6
CONTINUOUS
 10
20.5024704028
 20
88.8948547107
  0
VERTEX
  8
0
 62
7
  6
CONTINUOUS
 10
18.4318363216
 20
91.7830540016
  0
VERTEX
  8
0
 62
7
  6
CONTINUOUS
 10
16.4222187222
 20
94.7140871747
  0
VERTEX
  8
0
 62
7
  6
CONTINUOUS
 10
14.3098469375
 20
97.9436582507
  0
VERTEX
  8
0
 62
7
  6
CONTINUOUS
 10
12.2712997187
 20
101.2203442416
  0
VERTEX
  8
0
 62
7
  6
CONTINUOUS
 10
10.1830568532
 20
104.7592054833
  0
VERTEX
  8
0
 62
7
  6
CONTINUOUS
 10
8.1804735784
 20
108.34726248
  0
VERTEX
  8
0
 62
7
  6
CONTINUOUS
 10
6.2675658205
 20
111.9753167984
  0
VERTEX
  8
0
 62
7
  6
CONTINUOUS
 10
4.4408639825
 20
115.6474973854
  0
VERTEX
  8
0
 62
7
  6
CONTINUOUS
 10
2.8691980118
 20
118.9910463332
  0
VERTEX
  8
0
 62
7
  6
CONTINUOUS
 10
1.366699857
 20
122.3662160012
  0
VERTEX
  8
0
 62
7
  6
CONTINUOUS
 10
0.0247028772
 20
125.5454339606
  0
VERTEX
  8
0
 62
7
  6
CONTINUOUS
 10
-1.2596631571
 20
128.7483572239
  0
VERTEX
  8
0
 62
7
  6
CONTINUOUS
 10
-2.3630478229
 20
131.6367473519
  0
VERTEX
  8
0
 62
7
  6
CONTINUOUS
 10
-3.4230664888
 20
134.5413158147
  0
VERTEX
  8
0
 62
7
  6
CONTINUOUS
 10
-4.3548419836
 20
137.2080874605
  0
VERTEX
  8
0
 62
7
  6
CONTINUOUS
 10
-5.2528189946
 20
139.8864265679
  0
VERTEX
  8
0
 62
7
  6
CONTINUOUS
 10
-6.1317049082
 20
142.618226956
  0
VERTEX
  8
0
 62
7
  6
CONTINUOUS
 10
-6.9782996632
 20
145.36020774
  0
VERTEX
  8
0
 62
7
  6
CONTINUOUS
 10
-7.7813409128
 20
148.0681366322
  0
VERTEX
  8
0
 62
7
  6
CONTINUOUS
 10
-8.5557719221
 20
150.7843840817
  0
VERTEX
  8
0
 62
7
  6
CONTINUOUS
 10
-9.9554538079
 20
155.9752177544
  0
VERTEX
  8
0
 62
7
  6
CONTINUOUS
 10
-11.3662965688
 20
161.6137246665
  0
VERTEX
  8
0
 62
7
  6
CONTINUOUS
 10
-12.6868567429
 20
167.3092802181
  0
VERTEX
  8
0
 62
7
  6
CONTINUOUS
 10
-13.9295276667
 20
173.0823819099
  0
VERTEX
  8
0
 62
7
  6
CONTINUOUS
 10
-15.1999333817
 20
179.4421642559
  0
VERTEX
  8
0
 62
7
  6
CONTINUOUS
 10
-16.4132913977
 20
185.9835703885
  0
VERTEX
  8
0
 62
7
  6
CONTINUOUS
 10
-17.55690172
 20
192.5930414519
  0
VERTEX
  8
0
 62
7
  6
CONTINUOUS
 10
-18.7200739312
 20
199.82373799
  0
VERTEX
  8
0
 62
7
  6
CONTINUOUS
 10
-19.7693047896
 20
206.8754131307
  0
VERTEX
  8
0
 62
7
  6
CONTINUOUS
 10
-20.7838317847
 20
214.3119598341
  0
VERTEX
  8
0
 62
7
  6
CONTINUOUS
 10
-21.2904371962
 20
218.3341353755
  0
VERTEX
  8
0
 62
7
  6
CONTINUOUS
 10
-21.7661409643
 20
222.3600565634
  0
SEQEND
  0
POLYLINE
  8
0
 62
7
  6
CONTINUOUS
 66
1
 70
0
  0
VERTEX
  8
0
 62
7
  6
CONTINUOUS
 10
344.2096310323
 20
83.8457743292
  0
VERTEX
  8
0
 62
7
  6
CONTINUOUS
 10
346.1502422282
 20
86.3541052587
  0
VERTEX
  8
0
 62
7
  6
CONTINUOUS
 10
348.048313681
 20
88.8948547107
  0
VERTEX
  8
0
 62
7
  6
CONTINUOUS
 10
350.1189477622
 20
91.7830540016
  0
VERTEX
  8
0
 62
7
  6
CONTINUOUS
 10
352.1285653616
 20
94.7140871747
  0
VERTEX
  8
0
 62
7
  6
CONTINUOUS
 10
354.2409371463
 20
97.9436582507
  0
VERTEX
  8
0
 62
7
  6
CONTINUOUS
 10
356.2794843651
 20
101.2203442416
  0
VERTEX
  8
0
 62
7
  6
CONTINUOUS
 10
358.3677272306
 20
104.7592054833
  0
VERTEX
  8
0
 62
7
  6
CONTINUOUS
 10
360.3703105054
 20
108.34726248
  0
VERTEX
  8
0
 62
7
  6
CONTINUOUS
 10
362.2832182633
 20
111.9753167984
  0
VERTEX
  8
0
 62
7
  6
CONTINUOUS
 10
364.1099201013
 20
115.6474973854
  0
VERTEX
  8
0
 62
7
  6
CONTINUOUS
 10
365.681586072
 20
118.9910463332
  0
VERTEX
  8
0
 62
7
  6
CONTINUOUS
 10
367.1840842268
 20
122.3662160012
  0
VERTEX
  8
0
 62
7
  6
CONTINUOUS
 10
368.5260812066
 20
125.5454339606
  0
VERTEX
  8
0
 62
7
  6
CONTINUOUS
 10
369.810447241
 20
128.7483572239
  0
VERTEX
  8
0
 62
7
  6
CONTINUOUS
 10
370.9138319067
 20
131.6367473519
  0
VERTEX
  8
0
 62
7
  6
CONTINUOUS
 10
371.9738505726
 20
134.5413158147
  0
VERTEX
  8
0
 62
7
  6
CONTINUOUS
 10
372.9056260674
 20
137.2080874605
  0
VERTEX
  8
0
 62
7
  6
CONTINUOUS
 10
373.8036030784
 20
139.8864265679
  0
VERTEX
  8
0
 62
7
  6
CONTINUOUS
 10
374.682488992
 20
142.618226956
  0
VERTEX
  8
0
 62
7
  6
CONTINUOUS
 10
375.529083747
 20
145.36020774
  0
VERTEX
  8
0
 62
7
  6
CONTINUOUS
 10
376.3321249966
 20
148.0681366322
  0
VERTEX
  8
0
 62
7
  6
CONTINUOUS
 10
377.106556006
 20
150.7843840817
  0
VERTEX
  8
0
 62
7
  6
CONTINUOUS
 10
378.5062378917
 20
155.9752177544
  0
VERTEX
  8
0
 62
7
  6
CONTINUOUS
 10
379.9170806526
 20
161.6137246665
  0
VERTEX
  8
0
 62
7
  6
CONTINUOUS
 10
381.2376408267
 20
167.3092802181
  0
VERTEX
  8
0
 62
7
  6
CONTINUOUS
 10
382.4803117505
 20
173.0823819099
  0
VERTEX
  8
0
 62
7
  6
CONTINUOUS
 10
383.7507174655
 20
179.4421642559
  0
VERTEX
  8
0
 62
7
  6
CONTINUOUS
 10
384.9640754816
 20
185.9835703885
  0
VERTEX
  8
0
 62
7
  6
CONTINUOUS
 10
386.1076858038
 20
192.5930414519
  0
VERTEX
  8
0
 62
7
  6
CONTINUOUS
 10
387.270858015
 20
199.82373799
  0
VERTEX
  8
0
 62
7
  6
CONTINUOUS
 10
388.3200888734
 20
206.8754131307
  0
VERTEX
  8
0
 62
7
  6
CONTINUOUS
 10
389.3346158685
 20
214.3119598341
  0
VERTEX
  8
0
 62
7
  6
CONTINUOUS
 10
389.8412212801
 20
218.3341353755
  0
VERTEX
  8
0
 62
7
  6
CONTINUOUS
 10
390.3169250481
 20
222.3600565634
  0
SEQEND
  0
POLYLINE
  8
0
 62
9
  6
CONTINUOUS
 66
1
 70
0
  0
VERTEX
  8
0
 62
9
  6
CONTINUOUS
 10
-21.7434349093
 20
222.8743114732
  0
VERTEX
  8
0
 62
9
  6
CONTINUOUS
 10
-21.7812241548
 20
222.7365967927
  0
VERTEX
  8
0
 62
9
  6
CONTINUOUS
 10
-21.7977631398
 20
222.6049654225
  0
VERTEX
  8
0
 62
9
  6
CONTINUOUS
 10
-21.7940197752
 20
222.4896475583
  0
SEQEND
  0
LINE
  8
0
 62
7
  6
CONTINUOUS
 10
-21.8439835136
 20
222.9309947652
 11
-21.8404133899
 21
222.897108208
  0
LINE
  8
0
 62
7
  6
CONTINUOUS
 10
-21.8405025113
 20
222.8971087443
 11
-21.7940197752
 21
222.4896475583
  0
POLYLINE
  8
0
 62
9
  6
CONTINUOUS
 66
1
 70
0
  0
VERTEX
  8
0
 62
9
  6
CONTINUOUS
 10
-7.6295373324
 20
223.124385426
  0
VERTEX
  8
0
 62
9
  6
CONTINUOUS
 10
-7.6439505304
 20
223.2946879458
  0
VERTEX
  8
0
 62
9
  6
CONTINUOUS
 10
-7.6445650542
 20
223.4656560039
  0
VERTEX
  8
0
 62
9
  6
CONTINUOUS
 10
-7.6313764132
 20
223.6360402278
  0
VERTEX
  8
0
 62
9
  6
CONTINUOUS
 10
-7.6044809853
 20
223.8045955124
  0
VERTEX
  8
0
 62
9
  6
CONTINUOUS
 10
-7.5640753122
 20
223.9700901179
  0
VERTEX
  8
0
 62
9
  6
CONTINUOUS
 10
-7.5104546642
 20
224.1313146687
  0
VERTEX
  8
0
 62
9
  6
CONTINUOUS
 10
-7.4440108821
 20
224.2870909934
  0
VERTEX
  8
0
 62
9
  6
CONTINUOUS
 10
-7.365229513
 20
224.4362807362
  0
VERTEX
  8
0
 62
9
  6
CONTINUOUS
 10
-7.2746862623
 20
224.5777936737
  0
VERTEX
  8
0
 62
9
  6
CONTINUOUS
 10
-7.1730427874
 20
224.7105956804
  0
VERTEX
  8
0
 62
9
  6
CONTINUOUS
 10
-7.0610418625
 20
224.8337162875
  0
VERTEX
  8
0
 62
9
  6
CONTINUOUS
 10
-6.9395019495
 20
224.9462557749
  0
VERTEX
  8
0
 62
9
  6
CONTINUOUS
 10
-6.8093112184
 20
225.0473917453
  0
VERTEX
  8
0
 62
9
  6
CONTINUOUS
 10
-6.6714210551
 20
225.1363851345
  0
VERTEX
  8
0
 62
9
  6
CONTINUOUS
 10
-6.5268391102
 20
225.212585612
  0
VERTEX
  8
0
 62
9
  6
CONTINUOUS
 10
-6.3766219363
 20
225.2754363324
  0
VERTEX
  8
0
 62
9
  6
CONTINUOUS
 10
-6.2218672661
 20
225.3244780057
  0
VERTEX
  8
0
 62
9
  6
CONTINUOUS
 10
-6.0637059896
 20
225.3593522539
  0
VERTEX
  8
0
 62
9
  6
CONTINUOUS
 10
-5.903293891
 20
225.3798042288
  0
VERTEX
  8
0
 62
9
  6
CONTINUOUS
 10
-5.7738144698
 20
225.3856806666
  0
SEQEND
  0
POLYLINE
  8
0
 62
7
  6
CONTINUOUS
 66
1
 70
0
  0
VERTEX
  8
0
 62
7
  6
CONTINUOUS
 10
-20.9931439907
 20
224.7701582296
  0
VERTEX
  8
0
 62
7
  6
CONTINUOUS
 10
-21.0844762913
 20
224.7025772171
  0
VERTEX
  8
0
 62
7
  6
CONTINUOUS
 10
-21.1800989263
 20
224.6226724283
  0
VERTEX
  8
0
 62
7
  6
CONTINUOUS
 10
-21.2786039405
 20
224.5288962511
  0
VERTEX
  8
0
 62
7
  6
CONTINUOUS
 10
-21.3771251409
 20
224.4209592904
  0
VERTEX
  8
0
 62
7
  6
CONTINUOUS
 10
-21.4731293506
 20
224.2984515328
  0
VERTEX
  8
0
 62
7
  6
CONTINUOUS
 10
-21.5635215148
 20
224.1620199936
  0
VERTEX
  8
0
 62
7
  6
CONTINUOUS
 10
-21.645430404
 20
224.0127619524
  0
VERTEX
  8
0
 62
7
  6
CONTINUOUS
 10
-21.716478808
 20
223.8517410809
  0
VERTEX
  8
0
 62
7
  6
CONTINUOUS
 10
-21.7744015078
 20
223.6807347565
  0
VERTEX
  8
0
 62
7
  6
CONTINUOUS
 10
-21.8174840841
 20
223.501143386
  0
VERTEX
  8
0
 62
7
  6
CONTINUOUS
 10
-21.844189345
 20
223.3148376137
  0
VERTEX
  8
0
 62
7
  6
CONTINUOUS
 10
-21.8532992002
 20
223.1239209693
  0
VERTEX
  8
0
 62
7
  6
CONTINUOUS
 10
-21.8439835136
 20
222.9309947652
  0
SEQEND
  0
LINE
  8
0
 62
7
  6
CONTINUOUS
 10
-20.907869108
 20
224.8264750705
 11
-20.9931439907
 21
224.7701582296
  0
POLYLINE
  8
0
 62
9
  6
CONTINUOUS
 66
1
 70
0
  0
VERTEX
  8
0
 62
9
  6
CONTINUOUS
 10
-12.9347536681
 20
223.0512601571
  0
VERTEX
  8
0
 62
9
  6
CONTINUOUS
 10
-12.2189755152
 20
217.9926200775
  0
VERTEX
  8
0
 62
9
  6
CONTINUOUS
 10
-11.4426189723
 20
212.8468137481
  0
VERTEX
  8
0
 62
9
  6
CONTINUOUS
 10
-10.599569086
 20
207.5810947063
  0
VERTEX
  8
0
 62
9
  6
CONTINUOUS
 10
-9.7049098509
 20
202.2948829541
  0
VERTEX
  8
0
 62
9
  6
CONTINUOUS
 10
-8.7710761717
 20
197.0610232373
  0
VERTEX
  8
0
 62
9
  6
CONTINUOUS
 10
-7.8067844117
 20
191.9240024548
  0
VERTEX
  8
0
 62
9
  6
CONTINUOUS
 10
-6.8249494757
 20
186.9479101176
  0
VERTEX
  8
0
 62
9
  6
CONTINUOUS
 10
-5.8301556832
 20
182.145065167
  0
VERTEX
  8
0
 62
9
  6
CONTINUOUS
 10
-4.8341874793
 20
177.5630576111
  0
VERTEX
  8
0
 62
9
  6
CONTINUOUS
 10
-3.8301546381
 20
173.159513782
  0
VERTEX
  8
0
 62
9
  6
CONTINUOUS
 10
-2.8140818449
 20
168.9092060449
  0
VERTEX
  8
0
 62
9
  6
CONTINUOUS
 10
-1.7862175186
 20
164.8092969119
  0
VERTEX
  8
0
 62
9
  6
CONTINUOUS
 10
-0.7451871773
 20
160.849595472
  0
VERTEX
  8
0
 62
9
  6
CONTINUOUS
 10
0.3083308818
 20
157.0270122345
  0
VERTEX
  8
0
 62
9
  6
CONTINUOUS
 10
1.376304191
 20
153.3287018142
  0
VERTEX
  8
0
 62
9
  6
CONTINUOUS
 10
2.4513035781
 20
149.7734273845
  0
VERTEX
  8
0
 62
9
  6
CONTINUOUS
 10
3.5237804928
 20
146.3837848041
  0
VERTEX
  8
0
 62
9
  6
CONTINUOUS
 10
4.5985414039
 20
143.1341564884
  0
VERTEX
  8
0
 62
9
  6
CONTINUOUS
 10
5.6773472465
 20
140.0101170636
  0
VERTEX
  8
0
 62
9
  6
CONTINUOUS
 10
6.7611200502
 20
137.0011687314
  0
VERTEX
  8
0
 62
9
  6
CONTINUOUS
 10
7.8516276604
 20
134.0950161263
  0
VERTEX
  8
0
 62
9
  6
CONTINUOUS
 10
8.9500029601
 20
131.2833178834
  0
VERTEX
  8
0
 62
9
  6
CONTINUOUS
 10
10.0576925951
 20
128.5571910039
  0
VERTEX
  8
0
 62
9
  6
CONTINUOUS
 10
11.1771793501
 20
125.9065646702
  0
VERTEX
  8
0
 62
9
  6
CONTINUOUS
 10
12.3114016486
 20
123.3208154819
  0
VERTEX
  8
0
 62
9
  6
CONTINUOUS
 10
13.4621034961
 20
120.7933207487
  0
VERTEX
  8
0
 62
9
  6
CONTINUOUS
 10
14.6337882089
 20
118.3119946021
  0
VERTEX
  8
0
 62
9
  6
CONTINUOUS
 10
15.8226547702
 20
115.8831601959
  0
VERTEX
  8
0
 62
9
  6
CONTINUOUS
 10
17.0254618466
 20
113.5114993084
  0
VERTEX
  8
0
 62
9
  6
CONTINUOUS
 10
18.2448664583
 20
111.1897896451
  0
VERTEX
  8
0
 62
9
  6
CONTINUOUS
 10
19.4816635686
 20
108.9146405692
  0
VERTEX
  8
0
 62
9
  6
CONTINUOUS
 10
20.7387312849
 20
106.679431959
  0
VERTEX
  8
0
 62
9
  6
CONTINUOUS
 10
22.0177587125
 20
104.4798598283
  0
VERTEX
  8
0
 62
9
  6
CONTINUOUS
 10
23.3242611466
 20
102.3060027018
  0
VERTEX
  8
0
 62
9
  6
CONTINUOUS
 10
24.6663491967
 20
100.1444680391
  0
VERTEX
  8
0
 62
9
  6
CONTINUOUS
 10
26.0396485766
 20
98.00198871
  0
VERTEX
  8
0
 62
9
  6
CONTINUOUS
 10
27.4287735939
 20
95.9002005172
  0
VERTEX
  8
0
 62
9
  6
CONTINUOUS
 10
28.872502175
 20
93.7801451719
  0
VERTEX
  8
0
 62
9
  6
CONTINUOUS
 10
30.3956932413
 20
91.607362762
  0
VERTEX
  8
0
 62
9
  6
CONTINUOUS
 10
32.0358060418
 20
89.3340084052
  0
VERTEX
  8
0
 62
9
  6
CONTINUOUS
 10
33.8453053149
 20
86.8936965549
  0
VERTEX
  8
0
 62
9
  6
CONTINUOUS
 10
35.8101525877
 20
84.3098047362
  0
SEQEND
  0
POLYLINE
  8
0
 62
9
  6
CONTINUOUS
 66
1
 70
0
  0
VERTEX
  8
0
 62
9
  6
CONTINUOUS
 10
24.3410505249
 20
83.84336285
  0
VERTEX
  8
0
 62
9
  6
CONTINUOUS
 10
24.3414486721
 20
83.84293567
  0
VERTEX
  8
0
 62
9
  6
CONTINUOUS
 10
24.3427084285
 20
83.842059981
  0
VERTEX
  8
0
 62
9
  6
CONTINUOUS
 10
24.3445283776
 20
83.8412178201
  0
VERTEX
  8
0
 62
9
  6
CONTINUOUS
 10
24.3468980488
 20
83.840407753
  0
VERTEX
  8
0
 62
9
  6
CONTINUOUS
 10
24.3498074252
 20
83.8396290245
  0
VERTEX
  8
0
 62
9
  6
CONTINUOUS
 10
24.3532479644
 20
83.8388802453
  0
VERTEX
  8
0
 62
9
  6
CONTINUOUS
 10
24.3572115741
 20
83.8381606913
  0
VERTEX
  8
0
 62
9
  6
CONTINUOUS
 10
24.36169159
 20
83.837469078
  0
VERTEX
  8
0
 62
9
  6
CONTINUOUS
 10
24.3666818358
 20
83.836804748
  0
VERTEX
  8
0
 62
9
  6
CONTINUOUS
 10
24.3721774505
 20
83.8361665596
  0
VERTEX
  8
0
 62
9
  6
CONTINUOUS
 10
24.3781741098
 20
83.835553995
  0
VERTEX
  8
0
 62
9
  6
CONTINUOUS
 10
24.3846686635
 20
83.8349659703
  0
VERTEX
  8
0
 62
9
  6
CONTINUOUS
 10
24.3916584385
 20
83.8344020208
  0
VERTEX
  8
0
 62
9
  6
CONTINUOUS
 10
24.3991420973
 20
83.8338611491
  0
VERTEX
  8
0
 62
9
  6
CONTINUOUS
 10
24.4071189752
 20
83.8333429255
  0
VERTEX
  8
0
 62
9
  6
CONTINUOUS
 10
24.4155888072
 20
83.8328465615
  0
VERTEX
  8
0
 62
9
  6
CONTINUOUS
 10
24.424552742
 20
83.8323717165
  0
VERTEX
  8
0
 62
9
  6
CONTINUOUS
 10
24.4340097905
 20
83.8319178379
  0
VERTEX
  8
0
 62
9
  6
CONTINUOUS
 10
24.4544035289
 20
83.8310716428
  0
SEQEND
  0
POLYLINE
  8
0
 62
9
  6
CONTINUOUS
 66
1
 70
0
  0
VERTEX
  8
0
 62
9
  6
CONTINUOUS
 10
35.8100738789
 20
84.3099960753
  0
VERTEX
  8
0
 62
9
  6
CONTINUOUS
 10
36.2380614275
 20
83.7230162463
  0
VERTEX
  8
0
 62
9
  6
CONTINUOUS
 10
36.6944914011
 20
83.1610736664
  0
VERTEX
  8
0
 62
9
  6
CONTINUOUS
 10
37.1778488506
 20
82.6257916727
  0
VERTEX
  8
0
 62
9
  6
CONTINUOUS
 10
37.6871446889
 20
82.1180886722
  0
VERTEX
  8
0
 62
9
  6
CONTINUOUS
 10
38.221411608
 20
81.6389038459
  0
VERTEX
  8
0
 62
9
  6
CONTINUOUS
 10
38.7790389328
 20
81.1897047109
  0
VERTEX
  8
0
 62
9
  6
CONTINUOUS
 10
39.3585072466
 20
80.771719552
  0
VERTEX
  8
0
 62
9
  6
CONTINUOUS
 10
39.9581968914
 20
80.3861206892
  0
VERTEX
  8
0
 62
9
  6
CONTINUOUS
 10
40.5764347267
 20
80.0339834548
  0
VERTEX
  8
0
 62
9
  6
CONTINUOUS
 10
41.2115171298
 20
79.7162764549
  0
VERTEX
  8
0
 62
9
  6
CONTINUOUS
 10
41.8616819235
 20
79.4338792521
  0
VERTEX
  8
0
 62
9
  6
CONTINUOUS
 10
42.525152492
 20
79.1875627581
  0
VERTEX
  8
0
 62
9
  6
CONTINUOUS
 10
43.2001238391
 20
78.9780006111
  0
VERTEX
  8
0
 62
9
  6
CONTINUOUS
 10
43.8847041038
 20
78.8057835542
  0
VERTEX
  8
0
 62
9
  6
CONTINUOUS
 10
44.5772108473
 20
78.6713534874
  0
VERTEX
  8
0
 62
9
  6
CONTINUOUS
 10
45.2750461364
 20
78.5751927695
  0
VERTEX
  8
0
 62
9
  6
CONTINUOUS
 10
45.9755735782
 20
78.5175271892
  0
VERTEX
  8
0
 62
9
  6
CONTINUOUS
 10
46.6770845866
 20
78.4983221965
  0
SEQEND
  0
POLYLINE
  8
0
 62
7
  6
CONTINUOUS
 66
1
 70
0
  0
VERTEX
  8
0
 62
7
  6
CONTINUOUS
 10
-20.6895632649
 20
224.9449916022
  0
VERTEX
  8
0
 62
7
  6
CONTINUOUS
 10
-20.7561082813
 20
224.912465923
  0
VERTEX
  8
0
 62
7
  6
CONTINUOUS
 10
-20.8287755758
 20
224.8734334985
  0
VERTEX
  8
0
 62
7
  6
CONTINUOUS
 10
-20.907869108
 20
224.8264750705
  0
SEQEND
  0
POLYLINE
  8
0
 62
7
  6
CONTINUOUS
 66
1
 70
0
  0
VERTEX
  8
0
 62
7
  6
CONTINUOUS
 10
-20.6086595762
 20
224.9806510114
  0
VERTEX
  8
0
 62
7
  6
CONTINUOUS
 10
-20.649777425
 20
224.9630259657
  0
VERTEX
  8
0
 62
7
  6
CONTINUOUS
 10
-20.7282266548
 20
224.9263047248
  0
SEQEND
  0
POLYLINE
  8
0
 62
7
  6
CONTINUOUS
 66
1
 70
0
  0
VERTEX
  8
0
 62
7
  6
CONTINUOUS
 10
-20.6086595762
 20
224.9806510114
  0
VERTEX
  8
0
 62
7
  6
CONTINUOUS
 10
-20.6282828958
 20
224.9723795456
  0
VERTEX
  8
0
 62
7
  6
CONTINUOUS
 10
-20.6895632649
 20
224.9449916022
  0
SEQEND
  0
POLYLINE
  8
0
 62
9
  6
CONTINUOUS
 66
1
 70
0
  0
VERTEX
  8
0
 62
9
  6
CONTINUOUS
 10
49.2572412831
 20
223.2329751415
  0
VERTEX
  8
0
 62
9
  6
CONTINUOUS
 10
49.2546434327
 20
223.362285674
  0
VERTEX
  8
0
 62
9
  6
CONTINUOUS
 10
49.2564785752
 20
223.4987762487
  0
VERTEX
  8
0
 62
9
  6
CONTINUOUS
 10
49.2634793004
 20
223.6419120123
  0
VERTEX
  8
0
 62
9
  6
CONTINUOUS
 10
49.2763485916
 20
223.790397013
  0
VERTEX
  8
0
 62
9
  6
CONTINUOUS
 10
49.296387988
 20
223.9472216822
  0
VERTEX
  8
0
 62
9
  6
CONTINUOUS
 10
49.3222316187
 20
224.0977389496
  0
VERTEX
  8
0
 62
9
  6
CONTINUOUS
 10
49.3498409496
 20
224.2262921182
  0
VERTEX
  8
0
 62
9
  6
CONTINUOUS
 10
49.3801191535
 20
224.3443674629
  0
VERTEX
  8
0
 62
9
  6
CONTINUOUS
 10
49.4134290531
 20
224.4556595526
  0
VERTEX
  8
0
 62
9
  6
CONTINUOUS
 10
49.4514421612
 20
224.5655960124
  0
VERTEX
  8
0
 62
9
  6
CONTINUOUS
 10
49.4974598694
 20
224.6805956572
  0
VERTEX
  8
0
 62
9
  6
CONTINUOUS
 10
49.551012658
 20
224.7954492377
  0
VERTEX
  8
0
 62
9
  6
CONTINUOUS
 10
49.6128182227
 20
224.9082924392
  0
VERTEX
  8
0
 62
9
  6
CONTINUOUS
 10
49.6817830366
 20
225.0143398848
  0
VERTEX
  8
0
 62
9
  6
CONTINUOUS
 10
49.7557057381
 20
225.1089320739
  0
VERTEX
  8
0
 62
9
  6
CONTINUOUS
 10
49.8362221884
 20
225.1930015627
  0
VERTEX
  8
0
 62
9
  6
CONTINUOUS
 10
49.9232269465
 20
225.264554952
  0
VERTEX
  8
0
 62
9
  6
CONTINUOUS
 10
50.0200433873
 20
225.3232098638
  0
VERTEX
  8
0
 62
9
  6
CONTINUOUS
 10
50.1355833646
 20
225.366848603
  0
VERTEX
  8
0
 62
9
  6
CONTINUOUS
 10
50.2529561446
 20
225.3835597996
  0
VERTEX
  8
0
 62
9
  6
CONTINUOUS
 10
50.2661639931
 20
225.3837382823
  0
SEQEND
  0
POLYLINE
  8
0
 62
9
  6
CONTINUOUS
 66
1
 70
0
  0
VERTEX
  8
0
 62
9
  6
CONTINUOUS
 10
53.6693807257
 20
223.2300449829
  0
VERTEX
  8
0
 62
9
  6
CONTINUOUS
 10
53.666797158
 20
223.3962696843
  0
VERTEX
  8
0
 62
9
  6
CONTINUOUS
 10
53.6707814718
 20
223.5623768721
  0
VERTEX
  8
0
 62
9
  6
CONTINUOUS
 10
53.6813060983
 20
223.7272178729
  0
VERTEX
  8
0
 62
9
  6
CONTINUOUS
 10
53.6982982419
 20
223.8896527844
  0
VERTEX
  8
0
 62
9
  6
CONTINUOUS
 10
53.7216403846
 20
224.0485583425
  0
VERTEX
  8
0
 62
9
  6
CONTINUOUS
 10
53.7511710952
 20
224.2028356748
  0
VERTEX
  8
0
 62
9
  6
CONTINUOUS
 10
53.7866861475
 20
224.3514179178
  0
VERTEX
  8
0
 62
9
  6
CONTINUOUS
 10
53.8279399322
 20
224.4932775908
  0
VERTEX
  8
0
 62
9
  6
CONTINUOUS
 10
53.8746471555
 20
224.6274337014
  0
VERTEX
  8
0
 62
9
  6
CONTINUOUS
 10
53.9264848114
 20
224.7529585291
  0
VERTEX
  8
0
 62
9
  6
CONTINUOUS
 10
53.9830944161
 20
224.8689840405
  0
VERTEX
  8
0
 62
9
  6
CONTINUOUS
 10
54.0440844864
 20
224.9747078924
  0
VERTEX
  8
0
 62
9
  6
CONTINUOUS
 10
54.1090332475
 20
225.0693989798
  0
VERTEX
  8
0
 62
9
  6
CONTINUOUS
 10
54.1774915488
 20
225.152402492
  0
VERTEX
  8
0
 62
9
  6
CONTINUOUS
 10
54.2489859709
 20
225.2231444405
  0
VERTEX
  8
0
 62
9
  6
CONTINUOUS
 10
54.3230220986
 20
225.2811356282
  0
VERTEX
  8
0
 62
9
  6
CONTINUOUS
 10
54.3990879401
 20
225.3259750327
  0
VERTEX
  8
0
 62
9
  6
CONTINUOUS
 10
54.4766574679
 20
225.3573525791
  0
VERTEX
  8
0
 62
9
  6
CONTINUOUS
 10
54.5551942246
 20
225.3750512801
  0
VERTEX
  8
0
 62
9
  6
CONTINUOUS
 10
54.6170269525
 20
225.379278324
  0
SEQEND
  0
POLYLINE
  8
0
 62
9
  6
CONTINUOUS
 66
1
 70
0
  0
VERTEX
  8
0
 62
9
  6
CONTINUOUS
 10
73.3337726598
 20
84.0934715785
  0
VERTEX
  8
0
 62
9
  6
CONTINUOUS
 10
73.4567276286
 20
83.7914021943
  0
VERTEX
  8
0
 62
9
  6
CONTINUOUS
 10
73.584665395
 20
83.4958034011
  0
VERTEX
  8
0
 62
9
  6
CONTINUOUS
 10
73.7175705188
 20
83.2068948464
  0
VERTEX
  8
0
 62
9
  6
CONTINUOUS
 10
73.8550928213
 20
82.9248911683
  0
VERTEX
  8
0
 62
9
  6
CONTINUOUS
 10
73.9968530772
 20
82.6500018213
  0
VERTEX
  8
0
 62
9
  6
CONTINUOUS
 10
74.1429129029
 20
82.3824312193
  0
VERTEX
  8
0
 62
9
  6
CONTINUOUS
 10
74.2932095624
 20
82.1223782325
  0
VERTEX
  8
0
 62
9
  6
CONTINUOUS
 10
74.4477156474
 20
81.87003624
  0
VERTEX
  8
0
 62
9
  6
CONTINUOUS
 10
74.606376454
 20
81.6255927995
  0
VERTEX
  8
0
 62
9
  6
CONTINUOUS
 10
74.7691892986
 20
81.3892297443
  0
VERTEX
  8
0
 62
9
  6
CONTINUOUS
 10
74.9361134146
 20
81.1611227587
  0
VERTEX
  8
0
 62
9
  6
CONTINUOUS
 10
75.1071852753
 20
80.94144162
  0
VERTEX
  8
0
 62
9
  6
CONTINUOUS
 10
75.2823869148
 20
80.7303496106
  0
VERTEX
  8
0
 62
9
  6
CONTINUOUS
 10
75.4618155658
 20
80.5280039949
  0
VERTEX
  8
0
 62
9
  6
CONTINUOUS
 10
75.6454899135
 20
80.3345551534
  0
VERTEX
  8
0
 62
9
  6
CONTINUOUS
 10
75.8335985181
 20
80.1501474467
  0
VERTEX
  8
0
 62
9
  6
CONTINUOUS
 10
76.0262197014
 20
79.9749178781
  0
VERTEX
  8
0
 62
9
  6
CONTINUOUS
 10
76.2236676777
 20
79.808997577
  0
VERTEX
  8
0
 62
9
  6
CONTINUOUS
 10
76.4261218442
 20
79.6525097153
  0
VERTEX
  8
0
 62
9
  6
CONTINUOUS
 10
76.6340209618
 20
79.5055718577
  0
VERTEX
  8
0
 62
9
  6
CONTINUOUS
 10
76.8477009319
 20
79.3682929174
  0
VERTEX
  8
0
 62
9
  6
CONTINUOUS
 10
77.0675959029
 20
79.2407762482
  0
VERTEX
  8
0
 62
9
  6
CONTINUOUS
 10
77.2942382633
 20
79.123116076
  0
VERTEX
  8
0
 62
9
  6
CONTINUOUS
 10
77.5276123826
 20
79.0153999159
  0
VERTEX
  8
0
 62
9
  6
CONTINUOUS
 10
77.7683674088
 20
78.9177068997
  0
VERTEX
  8
0
 62
9
  6
CONTINUOUS
 10
78.0150086142
 20
78.8301050031
  0
VERTEX
  8
0
 62
9
  6
CONTINUOUS
 10
78.2673458572
 20
78.7526565967
  0
VERTEX
  8
0
 62
9
  6
CONTINUOUS
 10
78.5221711195
 20
78.6854086262
  0
VERTEX
  8
0
 62
9
  6
CONTINUOUS
 10
78.7771127712
 20
78.6284051533
  0
VERTEX
  8
0
 62
9
  6
CONTINUOUS
 10
79.0296541696
 20
78.5816799525
  0
VERTEX
  8
0
 62
9
  6
CONTINUOUS
 10
79.3337565612
 20
78.5452941937
  0
VERTEX
  8
0
 62
9
  6
CONTINUOUS
 10
79.5178110214
 20
78.5191823918
  0
VERTEX
  8
0
 62
9
  6
CONTINUOUS
 10
79.4119067711
 20
78.5033960053
  0
VERTEX
  8
0
 62
9
  6
CONTINUOUS
 10
79.0773761115
 20
78.4981055167
  0
SEQEND
  0
LINE
  8
0
 62
9
  6
CONTINUOUS
 10
73.2880975694
 20
84.1059289634
 11
73.2609842273
 21
84.2098832673
  0
LINE
  8
0
 62
9
  6
CONTINUOUS
 10
73.2609842273
 20
84.2098832673
 11
73.2340470552
 21
84.3132461596
  0
LINE
  8
0
 62
9
  6
CONTINUOUS
 10
73.2340470552
 20
84.3132461596
 11
73.2072854348
 21
84.4160174086
  0
LINE
  8
0
 62
9
  6
CONTINUOUS
 10
73.2072854348
 20
84.4160174086
 11
73.1674707825
 21
84.5690644506
  0
LINE
  8
0
 62
9
  6
CONTINUOUS
 10
73.1674707825
 20
84.5690644506
 11
73.1411452638
 21
84.6703555854
  0
LINE
  8
0
 62
9
  6
CONTINUOUS
 10
73.1411452638
 20
84.6703555854
 11
73.11499305
 21
84.7710542634
  0
LINE
  8
0
 62
9
  6
CONTINUOUS
 10
73.11499305
 20
84.7710542634
 11
73.0890134788
 21
84.8711602447
  0
LINE
  8
0
 62
9
  6
CONTINUOUS
 10
73.0890134788
 20
84.8711602447
 11
73.0632058791
 21
84.9706732864
  0
POLYLINE
  8
0
 62
9
  6
CONTINUOUS
 66
1
 70
0
  0
VERTEX
  8
0
 62
9
  6
CONTINUOUS
 10
72.9710097305
 20
85.3264952145
  0
VERTEX
  8
0
 62
9
  6
CONTINUOUS
 10
72.8470276927
 20
85.8067024059
  0
VERTEX
  8
0
 62
9
  6
CONTINUOUS
 10
72.7885985262
 20
86.0333868413
  0
VERTEX
  8
0
 62
9
  6
CONTINUOUS
 10
72.7305835829
 20
86.2587672853
  0
VERTEX
  8
0
 62
9
  6
CONTINUOUS
 10
72.6729811424
 20
86.4828431151
  0
VERTEX
  8
0
 62
9
  6
CONTINUOUS
 10
72.6157893356
 20
86.7056136539
  0
VERTEX
  8
0
 62
9
  6
CONTINUOUS
 10
72.5590061487
 20
86.9270781727
  0
VERTEX
  8
0
 62
9
  6
CONTINUOUS
 10
72.5026294267
 20
87.1472358911
  0
VERTEX
  8
0
 62
9
  6
CONTINUOUS
 10
72.4466568771
 20
87.3660859792
  0
VERTEX
  8
0
 62
9
  6
CONTINUOUS
 10
72.3910860734
 20
87.5836275584
  0
VERTEX
  8
0
 62
9
  6
CONTINUOUS
 10
72.335914459
 20
87.7998597031
  0
VERTEX
  8
0
 62
9
  6
CONTINUOUS
 10
72.2811393505
 20
88.0147814419
  0
VERTEX
  8
0
 62
9
  6
CONTINUOUS
 10
72.2267579417
 20
88.2283917585
  0
VERTEX
  8
0
 62
9
  6
CONTINUOUS
 10
72.172767307
 20
88.440689594
  0
VERTEX
  8
0
 62
9
  6
CONTINUOUS
 10
72.1191644053
 20
88.6516738471
  0
VERTEX
  8
0
 62
9
  6
CONTINUOUS
 10
72.0659460833
 20
88.8613433763
  0
VERTEX
  8
0
 62
9
  6
CONTINUOUS
 10
72.0131090793
 20
89.0696970006
  0
VERTEX
  8
0
 62
9
  6
CONTINUOUS
 10
71.9684071191
 20
89.2467791982
  0
VERTEX
  8
0
 62
9
  6
CONTINUOUS
 10
71.9085654587
 20
89.4824516226
  0
VERTEX
  8
0
 62
9
  6
CONTINUOUS
 10
71.803716326
 20
89.8963835559
  0
VERTEX
  8
0
 62
9
  6
CONTINUOUS
 10
71.6844344735
 20
90.3702979427
  0
VERTEX
  8
0
 62
9
  6
CONTINUOUS
 10
71.572525013
 20
90.8155054318
  0
VERTEX
  8
0
 62
9
  6
CONTINUOUS
 10
71.4607595315
 20
91.2615836071
  0
VERTEX
  8
0
 62
9
  6
CONTINUOUS
 10
71.34916748
 20
91.7085431314
  0
VERTEX
  8
0
 62
9
  6
CONTINUOUS
 10
71.2377778921
 20
92.1563945167
  0
VERTEX
  8
0
 62
9
  6
CONTINUOUS
 10
71.1266193824
 20
92.6051481229
  0
VERTEX
  8
0
 62
9
  6
CONTINUOUS
 10
71.0157201302
 20
93.0548141525
  0
VERTEX
  8
0
 62
9
  6
CONTINUOUS
 10
70.9051077339
 20
93.5054025977
  0
VERTEX
  8
0
 62
9
  6
CONTINUOUS
 10
70.7948092846
 20
93.956923267
  0
VERTEX
  8
0
 62
9
  6
CONTINUOUS
 10
70.6848461461
 20
94.4093838952
  0
VERTEX
  8
0
 62
9
  6
CONTINUOUS
 10
70.5752182129
 20
94.8627844441
  0
VERTEX
  8
0
 62
9
  6
CONTINUOUS
 10
70.465919712
 20
95.3171228237
  0
VERTEX
  8
0
 62
9
  6
CONTINUOUS
 10
70.3569444252
 20
95.7723967825
  0
VERTEX
  8
0
 62
9
  6
CONTINUOUS
 10
70.2482857332
 20
96.228603924
  0
VERTEX
  8
0
 62
9
  6
CONTINUOUS
 10
70.1399366575
 20
96.6857417216
  0
VERTEX
  8
0
 62
9
  6
CONTINUOUS
 10
70.0318898984
 20
97.1438075324
  0
VERTEX
  8
0
 62
9
  6
CONTINUOUS
 10
69.9241378717
 20
97.6027986106
  0
VERTEX
  8
0
 62
9
  6
CONTINUOUS
 10
69.8164438189
 20
98.0636592319
  0
VERTEX
  8
0
 62
9
  6
CONTINUOUS
 10
69.7094864551
 20
98.5235451422
  0
VERTEX
  8
0
 62
9
  6
CONTINUOUS
 10
69.6041480784
 20
98.9785071995
  0
VERTEX
  8
0
 62
9
  6
CONTINUOUS
 10
69.4994221401
 20
99.4327467606
  0
VERTEX
  8
0
 62
9
  6
CONTINUOUS
 10
69.3945759391
 20
99.8895343348
  0
VERTEX
  8
0
 62
9
  6
CONTINUOUS
 10
69.2898504901
 20
100.3477785869
  0
VERTEX
  8
0
 62
9
  6
CONTINUOUS
 10
69.1852431699
 20
100.8074785671
  0
VERTEX
  8
0
 62
9
  6
CONTINUOUS
 10
69.0807512085
 20
101.2686332725
  0
VERTEX
  8
0
 62
9
  6
CONTINUOUS
 10
68.9763717041
 20
101.7312416526
  0
VERTEX
  8
0
 62
9
  6
CONTINUOUS
 10
68.8721016375
 20
102.1953026142
  0
VERTEX
  8
0
 62
9
  6
CONTINUOUS
 10
68.7679378844
 20
102.6608150262
  0
VERTEX
  8
0
 62
9
  6
CONTINUOUS
 10
68.6638772272
 20
103.1277777235
  0
VERTEX
  8
0
 62
9
  6
CONTINUOUS
 10
68.559916365
 20
103.5961895111
  0
VERTEX
  8
0
 62
9
  6
CONTINUOUS
 10
68.4560519225
 20
104.0660491669
  0
VERTEX
  8
0
 62
9
  6
CONTINUOUS
 10
68.3522806663
 20
104.5373555203
  0
VERTEX
  8
0
 62
9
  6
CONTINUOUS
 10
68.2486021052
 20
105.0101083934
  0
VERTEX
  8
0
 62
9
  6
CONTINUOUS
 10
68.1450175575
 20
105.4843082635
  0
VERTEX
  8
0
 62
9
  6
CONTINUOUS
 10
68.0415280709
 20
105.95995551
  0
VERTEX
  8
0
 62
9
  6
CONTINUOUS
 10
67.9381343685
 20
106.4370503947
  0
VERTEX
  8
0
 62
9
  6
CONTINUOUS
 10
67.834836841
 20
106.9155930589
  0
VERTEX
  8
0
 62
9
  6
CONTINUOUS
 10
67.7328799724
 20
107.3899800715
  0
VERTEX
  8
0
 62
9
  6
CONTINUOUS
 10
67.628530169
 20
107.8770216748
  0
VERTEX
  8
0
 62
9
  6
CONTINUOUS
 10
67.5171545752
 20
108.3990092704
  0
VERTEX
  8
0
 62
9
  6
CONTINUOUS
 10
67.4035387283
 20
108.9342012592
  0
VERTEX
  8
0
 62
9
  6
CONTINUOUS
 10
67.291011317
 20
109.4663825856
  0
VERTEX
  8
0
 62
9
  6
CONTINUOUS
 10
67.1784685035
 20
110.0009603409
  0
VERTEX
  8
0
 62
9
  6
CONTINUOUS
 10
67.0659138375
 20
110.5379358103
  0
VERTEX
  8
0
 62
9
  6
CONTINUOUS
 10
66.9533502592
 20
111.0773100583
  0
VERTEX
  8
0
 62
9
  6
CONTINUOUS
 10
66.8407800878
 20
111.6190839247
  0
VERTEX
  8
0
 62
9
  6
CONTINUOUS
 10
66.7282050113
 20
112.1632580205
  0
VERTEX
  8
0
 62
9
  6
CONTINUOUS
 10
66.6156260756
 20
112.7098327244
  0
VERTEX
  8
0
 62
9
  6
CONTINUOUS
 10
66.5030436757
 20
113.2588081795
  0
VERTEX
  8
0
 62
9
  6
CONTINUOUS
 10
66.3904575463
 20
113.8101842896
  0
VERTEX
  8
0
 62
9
  6
CONTINUOUS
 10
66.2778667531
 20
114.3639607166
  0
VERTEX
  8
0
 62
9
  6
CONTINUOUS
 10
66.1652696851
 20
114.9201368771
  0
VERTEX
  8
0
 62
9
  6
CONTINUOUS
 10
66.0526640471
 20
115.4787119402
  0
VERTEX
  8
0
 62
9
  6
CONTINUOUS
 10
65.9400468523
 20
116.0396848244
  0
VERTEX
  8
0
 62
9
  6
CONTINUOUS
 10
65.8274144163
 20
116.6030541959
  0
VERTEX
  8
0
 62
9
  6
CONTINUOUS
 10
65.7147623505
 20
117.1688184656
  0
VERTEX
  8
0
 62
9
  6
CONTINUOUS
 10
65.6020855568
 20
117.7369757879
  0
VERTEX
  8
0
 62
9
  6
CONTINUOUS
 10
65.4884355545
 20
118.3121438296
  0
VERTEX
  8
0
 62
9
  6
CONTINUOUS
 10
65.3766338148
 20
118.8804609111
  0
VERTEX
  8
0
 62
9
  6
CONTINUOUS
 10
65.2702335781
 20
119.4233121028
  0
VERTEX
  8
0
 62
9
  6
CONTINUOUS
 10
65.1654740685
 20
119.9593514379
  0
VERTEX
  8
0
 62
9
  6
CONTINUOUS
 10
65.0596883015
 20
120.5026678936
  0
VERTEX
  8
0
 62
9
  6
CONTINUOUS
 10
64.9537603223
 20
121.0485633519
  0
VERTEX
  8
0
 62
9
  6
CONTINUOUS
 10
64.8476856069
 20
121.5970361751
  0
VERTEX
  8
0
 62
9
  6
CONTINUOUS
 10
64.7414591377
 20
122.1480845464
  0
VERTEX
  8
0
 62
9
  6
CONTINUOUS
 10
64.6350799361
 20
122.7017081116
  0
VERTEX
  8
0
 62
9
  6
CONTINUOUS
 10
64.528551908
 20
123.2579082847
  0
VERTEX
  8
0
 62
9
  6
CONTINUOUS
 10
64.4218790605
 20
123.8166865167
  0
VERTEX
  8
0
 62
9
  6
CONTINUOUS
 10
64.3150652367
 20
124.3780441989
  0
VERTEX
  8
0
 62
9
  6
CONTINUOUS
 10
64.2081141126
 20
124.9419826622
  0
VERTEX
  8
0
 62
9
  6
CONTINUOUS
 10
64.1010291941
 20
125.508503176
  0
VERTEX
  8
0
 62
9
  6
CONTINUOUS
 10
63.9938138133
 20
126.0776069466
  0
VERTEX
  8
0
 62
9
  6
CONTINUOUS
 10
63.8864711259
 20
126.6492951167
  0
VERTEX
  8
0
 62
9
  6
CONTINUOUS
 10
63.7790041071
 20
127.2235687633
  0
VERTEX
  8
0
 62
9
  6
CONTINUOUS
 10
63.6714155485
 20
127.8004288973
  0
VERTEX
  8
0
 62
9
  6
CONTINUOUS
 10
63.5637080548
 20
128.3798764615
  0
VERTEX
  8
0
 62
9
  6
CONTINUOUS
 10
63.45588404
 20
128.9619123302
  0
SEQEND
  0
LINE
  8
0
 62
9
  6
CONTINUOUS
 10
73.0632058791
 20
84.9706732864
 11
72.9710097305
 21
85.3264952145
  0
POLYLINE
  8
0
 62
9
  6
CONTINUOUS
 66
1
 70
0
  0
VERTEX
  8
0
 62
9
  6
CONTINUOUS
 10
63.45588404
 20
128.9619123302
  0
VERTEX
  8
0
 62
9
  6
CONTINUOUS
 10
63.2398951291
 20
130.1337521239
  0
VERTEX
  8
0
 62
9
  6
CONTINUOUS
 10
63.0945491784
 20
130.9258368841
  0
VERTEX
  8
0
 62
9
  6
CONTINUOUS
 10
62.9390920172
 20
131.7793511862
  0
VERTEX
  8
0
 62
9
  6
CONTINUOUS
 10
62.7886766398
 20
132.6082417781
  0
VERTEX
  8
0
 62
9
  6
CONTINUOUS
 10
62.6382442267
 20
133.4411902453
  0
VERTEX
  8
0
 62
9
  6
CONTINUOUS
 10
62.4877880902
 20
134.2781941665
  0
VERTEX
  8
0
 62
9
  6
CONTINUOUS
 10
62.3373008676
 20
135.119250876
  0
VERTEX
  8
0
 62
9
  6
CONTINUOUS
 10
62.1867745059
 20
135.9643574583
  0
VERTEX
  8
0
 62
9
  6
CONTINUOUS
 10
62.0362002474
 20
136.8135107425
  0
VERTEX
  8
0
 62
9
  6
CONTINUOUS
 10
61.8855686134
 20
137.6667072968
  0
VERTEX
  8
0
 62
9
  6
CONTINUOUS
 10
61.73486939
 20
138.5239434231
  0
VERTEX
  8
0
 62
9
  6
CONTINUOUS
 10
61.5840916115
 20
139.3852151515
  0
VERTEX
  8
0
 62
9
  6
CONTINUOUS
 10
61.4332237897
 20
140.2505183223
  0
VERTEX
  8
0
 62
9
  6
CONTINUOUS
 10
61.2822629189
 20
141.1198518475
  0
VERTEX
  8
0
 62
9
  6
CONTINUOUS
 10
61.1312174027
 20
141.9932187695
  0
VERTEX
  8
0
 62
9
  6
CONTINUOUS
 10
60.9800962126
 20
142.8706223366
  0
VERTEX
  8
0
 62
9
  6
CONTINUOUS
 10
60.8289081111
 20
143.7520657213
  0
VERTEX
  8
0
 62
9
  6
CONTINUOUS
 10
60.6776616418
 20
144.6375520168
  0
VERTEX
  8
0
 62
9
  6
CONTINUOUS
 10
60.5263651179
 20
145.5270842331
  0
VERTEX
  8
0
 62
9
  6
CONTINUOUS
 10
60.3768300393
 20
146.4104330954
  0
VERTEX
  8
0
 62
9
  6
CONTINUOUS
 10
60.2236539434
 20
147.3182980267
  0
VERTEX
  8
0
 62
9
  6
CONTINUOUS
 10
60.0601214835
 20
148.2917961523
  0
VERTEX
  8
0
 62
9
  6
CONTINUOUS
 10
59.8933396179
 20
149.2899363289
  0
VERTEX
  8
0
 62
9
  6
CONTINUOUS
 10
59.7282562625
 20
150.2818308582
  0
VERTEX
  8
0
 62
9
  6
CONTINUOUS
 10
59.5632247406
 20
151.2777765911
  0
VERTEX
  8
0
 62
9
  6
CONTINUOUS
 10
59.3982465549
 20
152.277774072
  0
VERTEX
  8
0
 62
9
  6
CONTINUOUS
 10
59.2333228144
 20
153.2818237022
  0
VERTEX
  8
0
 62
9
  6
CONTINUOUS
 10
59.0684542187
 20
154.2899257351
  0
VERTEX
  8
0
 62
9
  6
CONTINUOUS
 10
58.9036410421
 20
155.3020802699
  0
VERTEX
  8
0
 62
9
  6
CONTINUOUS
 10
58.7388831186
 20
156.3182872466
  0
VERTEX
  8
0
 62
9
  6
CONTINUOUS
 10
58.5741798267
 20
157.3385464401
  0
VERTEX
  8
0
 62
9
  6
CONTINUOUS
 10
58.409530083
 20
158.3628574583
  0
VERTEX
  8
0
 62
9
  6
CONTINUOUS
 10
58.2449340648
 20
159.3912203652
  0
VERTEX
  8
0
 62
9
  6
CONTINUOUS
 10
58.0803952122
 20
160.4236364064
  0
VERTEX
  8
0
 62
9
  6
CONTINUOUS
 10
57.9159167078
 20
161.4601067342
  0
VERTEX
  8
0
 62
9
  6
CONTINUOUS
 10
57.7515009481
 20
162.5006322163
  0
VERTEX
  8
0
 62
9
  6
CONTINUOUS
 10
57.5871495542
 20
163.5452134395
  0
VERTEX
  8
0
 62
9
  6
CONTINUOUS
 10
57.422863382
 20
164.5938507137
  0
VERTEX
  8
0
 62
9
  6
CONTINUOUS
 10
57.2586425341
 20
165.6465440762
  0
VERTEX
  8
0
 62
9
  6
CONTINUOUS
 10
57.0833637705
 20
166.7727855459
  0
VERTEX
  8
0
 62
9
  6
CONTINUOUS
 10
56.9303935182
 20
167.7640978735
  0
VERTEX
  8
0
 62
9
  6
CONTINUOUS
 10
56.8415293687
 20
168.3422902483
  0
VERTEX
  8
0
 62
9
  6
CONTINUOUS
 10
56.7733589254
 20
168.7834625547
  0
VERTEX
  8
0
 62
9
  6
CONTINUOUS
 10
56.6948435305
 20
169.2946754077
  0
VERTEX
  8
0
 62
9
  6
CONTINUOUS
 10
56.6163293802
 20
169.8069085938
  0
VERTEX
  8
0
 62
9
  6
CONTINUOUS
 10
56.5378164089
 20
170.3201620894
  0
VERTEX
  8
0
 62
9
  6
CONTINUOUS
 10
56.4593045125
 20
170.8344358567
  0
VERTEX
  8
0
 62
9
  6
CONTINUOUS
 10
56.3807935492
 20
171.3497298444
  0
VERTEX
  8
0
 62
9
  6
CONTINUOUS
 10
56.3022833387
 20
171.8660439873
  0
VERTEX
  8
0
 62
9
  6
CONTINUOUS
 10
56.2237736634
 20
172.3833782065
  0
VERTEX
  8
0
 62
9
  6
CONTINUOUS
 10
56.1452642678
 20
172.9017324096
  0
VERTEX
  8
0
 62
9
  6
CONTINUOUS
 10
56.0667548595
 20
173.4211064907
  0
VERTEX
  8
0
 62
9
  6
CONTINUOUS
 10
55.9882451087
 20
173.9415003303
  0
VERTEX
  8
0
 62
9
  6
CONTINUOUS
 10
55.9097346487
 20
174.4629137957
  0
VERTEX
  8
0
 62
9
  6
CONTINUOUS
 10
55.831223076
 20
174.9853467408
  0
VERTEX
  8
0
 62
9
  6
CONTINUOUS
 10
55.7527099509
 20
175.5087990065
  0
VERTEX
  8
0
 62
9
  6
CONTINUOUS
 10
55.6741947969
 20
176.0332704201
  0
VERTEX
  8
0
 62
9
  6
CONTINUOUS
 10
55.5956771017
 20
176.5587607963
  0
VERTEX
  8
0
 62
9
  6
CONTINUOUS
 10
55.5171566527
 20
177.0852700581
  0
VERTEX
  8
0
 62
9
  6
CONTINUOUS
 10
55.4384549498
 20
177.6139916241
  0
VERTEX
  8
0
 62
9
  6
CONTINUOUS
 10
55.3601150094
 20
178.1413479594
  0
VERTEX
  8
0
 62
9
  6
CONTINUOUS
 10
55.282807653
 20
178.6627638913
  0
VERTEX
  8
0
 62
9
  6
CONTINUOUS
 10
55.2059059916
 20
179.1824022271
  0
VERTEX
  8
0
 62
9
  6
CONTINUOUS
 10
55.1289769044
 20
179.7032378833
  0
VERTEX
  8
0
 62
9
  6
CONTINUOUS
 10
55.0521643278
 20
180.2242790627
  0
VERTEX
  8
0
 62
9
  6
CONTINUOUS
 10
54.9754679478
 20
180.7455256518
  0
VERTEX
  8
0
 62
9
  6
CONTINUOUS
 10
54.8988874617
 20
181.2669775409
  0
VERTEX
  8
0
 62
9
  6
CONTINUOUS
 10
54.8224225772
 20
181.7886346241
  0
VERTEX
  8
0
 62
9
  6
CONTINUOUS
 10
54.7460730122
 20
182.3104967994
  0
VERTEX
  8
0
 62
9
  6
CONTINUOUS
 10
54.6698384949
 20
182.8325639682
  0
VERTEX
  8
0
 62
9
  6
CONTINUOUS
 10
54.593718763
 20
183.3548360358
  0
VERTEX
  8
0
 62
9
  6
CONTINUOUS
 10
54.5177135637
 20
183.8773129104
  0
VERTEX
  8
0
 62
9
  6
CONTINUOUS
 10
54.4418226532
 20
184.399994504
  0
VERTEX
  8
0
 62
9
  6
CONTINUOUS
 10
54.3660457968
 20
184.9228807314
  0
VERTEX
  8
0
 62
9
  6
CONTINUOUS
 10
54.2903827679
 20
185.4459715107
  0
VERTEX
  8
0
 62
9
  6
CONTINUOUS
 10
54.2148333485
 20
185.9692667628
  0
VERTEX
  8
0
 62
9
  6
CONTINUOUS
 10
54.1393973281
 20
186.4927664117
  0
VERTEX
  8
0
 62
9
  6
CONTINUOUS
 10
54.0640745041
 20
187.016470384
  0
VERTEX
  8
0
 62
9
  6
CONTINUOUS
 10
53.9888646809
 20
187.5403786087
  0
VERTEX
  8
0
 62
9
  6
CONTINUOUS
 10
53.9138395278
 20
188.0639975399
  0
VERTEX
  8
0
 62
9
  6
CONTINUOUS
 10
53.8387832898
 20
188.5888075454
  0
VERTEX
  8
0
 62
9
  6
CONTINUOUS
 10
53.7633956975
 20
189.116940144
  0
VERTEX
  8
0
 62
9
  6
CONTINUOUS
 10
53.6880285628
 20
189.6459579678
  0
VERTEX
  8
0
 62
9
  6
CONTINUOUS
 10
53.6129531739
 20
190.1739139893
  0
VERTEX
  8
0
 62
9
  6
CONTINUOUS
 10
53.5380781619
 20
190.7014568775
  0
VERTEX
  8
0
 62
9
  6
CONTINUOUS
 10
53.463405284
 20
191.2285872685
  0
VERTEX
  8
0
 62
9
  6
CONTINUOUS
 10
53.3889363587
 20
191.755305821
  0
VERTEX
  8
0
 62
9
  6
CONTINUOUS
 10
53.3146731774
 20
192.2816131833
  0
VERTEX
  8
0
 62
9
  6
CONTINUOUS
 10
53.2406175044
 20
192.8075099943
  0
VERTEX
  8
0
 62
9
  6
CONTINUOUS
 10
53.1667710775
 20
193.3329968832
  0
VERTEX
  8
0
 62
9
  6
CONTINUOUS
 10
53.0931356083
 20
193.8580744696
  0
VERTEX
  8
0
 62
9
  6
CONTINUOUS
 10
53.0197127827
 20
194.382743364
  0
VERTEX
  8
0
 62
9
  6
CONTINUOUS
 10
52.9465042614
 20
194.9070041675
  0
VERTEX
  8
0
 62
9
  6
CONTINUOUS
 10
52.87351168
 20
195.4308574725
  0
VERTEX
  8
0
 62
9
  6
CONTINUOUS
 10
52.8007366497
 20
195.9543038621
  0
VERTEX
  8
0
 62
9
  6
CONTINUOUS
 10
52.7281807576
 20
196.4773439112
  0
VERTEX
  8
0
 62
9
  6
CONTINUOUS
 10
52.6558455671
 20
196.9999781856
  0
VERTEX
  8
0
 62
9
  6
CONTINUOUS
 10
52.5837326181
 20
197.5222072429
  0
VERTEX
  8
0
 62
9
  6
CONTINUOUS
 10
52.5118434277
 20
198.0440316324
  0
VERTEX
  8
0
 62
9
  6
CONTINUOUS
 10
52.440580809
 20
198.5625960086
  0
VERTEX
  8
0
 62
9
  6
CONTINUOUS
 10
52.3687422781
 20
199.0864685641
  0
VERTEX
  8
0
 62
9
  6
CONTINUOUS
 10
52.2947421198
 20
199.6274175866
  0
VERTEX
  8
0
 62
9
  6
CONTINUOUS
 10
52.2203027164
 20
200.1730489497
  0
VERTEX
  8
0
 62
9
  6
CONTINUOUS
 10
52.1466968849
 20
200.7138069455
  0
VERTEX
  8
0
 62
9
  6
CONTINUOUS
 10
52.073496032
 20
201.2528752457
  0
VERTEX
  8
0
 62
9
  6
CONTINUOUS
 10
52.0006968455
 20
201.790252651
  0
VERTEX
  8
0
 62
9
  6
CONTINUOUS
 10
51.9282959576
 20
202.3259379421
  0
VERTEX
  8
0
 62
9
  6
CONTINUOUS
 10
51.8562899458
 20
202.8599298798
  0
VERTEX
  8
0
 62
9
  6
CONTINUOUS
 10
51.7846753425
 20
203.3922272088
  0
VERTEX
  8
0
 62
9
  6
CONTINUOUS
 10
51.7134507568
 20
203.9228294253
  0
VERTEX
  8
0
 62
9
  6
CONTINUOUS
 10
51.6426196065
 20
204.4517377669
  0
VERTEX
  8
0
 62
9
  6
CONTINUOUS
 10
51.5721858095
 20
204.978953652
  0
VERTEX
  8
0
 62
9
  6
CONTINUOUS
 10
51.5021530826
 20
205.5044784264
  0
VERTEX
  8
0
 62
9
  6
CONTINUOUS
 10
51.432524943
 20
206.0283133634
  0
VERTEX
  8
0
 62
9
  6
CONTINUOUS
 10
51.3633047085
 20
206.5504596643
  0
VERTEX
  8
0
 62
9
  6
CONTINUOUS
 10
51.2944954991
 20
207.0709184586
  0
VERTEX
  8
0
 62
9
  6
CONTINUOUS
 10
51.2261002376
 20
207.5896908047
  0
VERTEX
  8
0
 62
9
  6
CONTINUOUS
 10
51.1581216508
 20
208.1067776897
  0
VERTEX
  8
0
 62
9
  6
CONTINUOUS
 10
51.0905622706
 20
208.6221800303
  0
VERTEX
  8
0
 62
9
  6
CONTINUOUS
 10
51.023972464
 20
209.1318251402
  0
VERTEX
  8
0
 62
9
  6
CONTINUOUS
 10
50.956710289
 20
209.6479343947
  0
VERTEX
  8
0
 62
9
  6
CONTINUOUS
 10
50.8867167894
 20
210.1866639911
  0
VERTEX
  8
0
 62
9
  6
CONTINUOUS
 10
50.8160899651
 20
210.7322441596
  0
VERTEX
  8
0
 62
9
  6
CONTINUOUS
 10
50.7463068398
 20
211.2729522525
  0
VERTEX
  8
0
 62
9
  6
CONTINUOUS
 10
50.676883481
 20
211.8126988633
  0
VERTEX
  8
0
 62
9
  6
CONTINUOUS
 10
50.607826016
 20
212.3514862106
  0
VERTEX
  8
0
 62
9
  6
CONTINUOUS
 10
50.5391404285
 20
212.8893164608
  0
VERTEX
  8
0
 62
9
  6
CONTINUOUS
 10
50.4708307322
 20
213.426191067
  0
VERTEX
  8
0
 62
9
  6
CONTINUOUS
 10
50.4028906992
 20
213.9621077744
  0
VERTEX
  8
0
 62
9
  6
CONTINUOUS
 10
50.3353106262
 20
214.4970630698
  0
VERTEX
  8
0
 62
9
  6
CONTINUOUS
 10
50.2680808658
 20
215.0310534605
  0
VERTEX
  8
0
 62
9
  6
CONTINUOUS
 10
50.2011918305
 20
215.564075475
  0
VERTEX
  8
0
 62
9
  6
CONTINUOUS
 10
50.1346339942
 20
216.0961256646
  0
VERTEX
  8
0
 62
9
  6
CONTINUOUS
 10
50.0683978937
 20
216.627200603
  0
VERTEX
  8
0
 62
9
  6
CONTINUOUS
 10
50.0024741292
 20
217.1572968869
  0
VERTEX
  8
0
 62
9
  6
CONTINUOUS
 10
49.9368533663
 20
217.6864111367
  0
VERTEX
  8
0
 62
9
  6
CONTINUOUS
 10
49.871526336
 20
218.2145399966
  0
VERTEX
  8
0
 62
9
  6
CONTINUOUS
 10
49.8064838364
 20
218.741680135
  0
SEQEND
  0
POLYLINE
  8
0
 62
9
  6
CONTINUOUS
 66
1
 70
0
  0
VERTEX
  8
0
 62
9
  6
CONTINUOUS
 10
49.8064838364
 20
218.741680135
  0
VERTEX
  8
0
 62
9
  6
CONTINUOUS
 10
49.6711876714
 20
219.8409480203
  0
VERTEX
  8
0
 62
9
  6
CONTINUOUS
 10
49.6129725208
 20
220.3171352736
  0
VERTEX
  8
0
 62
9
  6
CONTINUOUS
 10
49.5902366512
 20
220.5036920342
  0
VERTEX
  8
0
 62
9
  6
CONTINUOUS
 10
49.5790743007
 20
220.5940220335
  0
SEQEND
  0
LINE
  8
0
 62
9
  6
CONTINUOUS
 10
49.5790743007
 20
220.5940220335
 11
49.4750832673
 21
221.4443927475
  0
LINE
  8
0
 62
9
  6
CONTINUOUS
 10
49.4750832673
 20
221.4443927475
 11
49.4218420556
 21
221.8806818838
  0
LINE
  8
0
 62
9
  6
CONTINUOUS
 10
49.4218420556
 20
221.8806818838
 11
49.3496190941
 21
222.4739364549
  0
LINE
  8
0
 62
9
  6
CONTINUOUS
 10
49.3496190941
 20
222.4739364549
 11
49.2945583283
 21
222.9275409293
  0
LINE
  8
0
 62
9
  6
CONTINUOUS
 10
49.2945583283
 20
222.9275409293
 11
49.2575701742
 21
223.2329298627
  0
POLYLINE
  8
0
 62
7
  6
CONTINUOUS
 66
1
 70
0
  0
VERTEX
  8
0
 62
7
  6
CONTINUOUS
 10
24.3411532364
 20
83.8457743292
  0
VERTEX
  8
0
 62
7
  6
CONTINUOUS
 10
24.3406590973
 20
83.8447904228
  0
VERTEX
  8
0
 62
7
  6
CONTINUOUS
 10
24.340761044
 20
83.8438457203
  0
VERTEX
  8
0
 62
7
  6
CONTINUOUS
 10
24.3410505249
 20
83.84336285
  0
SEQEND
  0
LINE
  8
0
 62
9
  6
CONTINUOUS
 10
294.8950445596
 20
84.0937745252
 11
294.9406267077
 21
84.1062467085
  0
LINE
  8
0
 62
9
  6
CONTINUOUS
 10
73.3338281375
 20
84.0937745236
 11
73.2882840401
 21
84.1062467056
  0
POLYLINE
  8
0
 62
9
  6
CONTINUOUS
 66
1
 70
0
  0
VERTEX
  8
0
 62
9
  6
CONTINUOUS
 10
344.1049042119
 20
83.8323717286
  0
VERTEX
  8
0
 62
9
  6
CONTINUOUS
 10
344.1149355096
 20
83.8328465728
  0
VERTEX
  8
0
 62
9
  6
CONTINUOUS
 10
344.1244761086
 20
83.8333429359
  0
VERTEX
  8
0
 62
9
  6
CONTINUOUS
 10
344.1335276714
 20
83.8338611588
  0
VERTEX
  8
0
 62
9
  6
CONTINUOUS
 10
344.1420903262
 20
83.8344020303
  0
VERTEX
  8
0
 62
9
  6
CONTINUOUS
 10
344.1501639108
 20
83.8349659798
  0
VERTEX
  8
0
 62
9
  6
CONTINUOUS
 10
344.1577475627
 20
83.8355540048
  0
VERTEX
  8
0
 62
9
  6
CONTINUOUS
 10
344.1648390844
 20
83.83616657
  0
VERTEX
  8
0
 62
9
  6
CONTINUOUS
 10
344.1714357899
 20
83.836804759
  0
VERTEX
  8
0
 62
9
  6
CONTINUOUS
 10
344.1775338632
 20
83.8374690896
  0
VERTEX
  8
0
 62
9
  6
CONTINUOUS
 10
344.1831289385
 20
83.8381607037
  0
VERTEX
  8
0
 62
9
  6
CONTINUOUS
 10
344.1882153435
 20
83.8388802584
  0
VERTEX
  8
0
 62
9
  6
CONTINUOUS
 10
344.1927869168
 20
83.839629038
  0
VERTEX
  8
0
 62
9
  6
CONTINUOUS
 10
344.1968360648
 20
83.8404077667
  0
VERTEX
  8
0
 62
9
  6
CONTINUOUS
 10
344.2003547441
 20
83.8412178331
  0
VERTEX
  8
0
 62
9
  6
CONTINUOUS
 10
344.2033334401
 20
83.8420599928
  0
VERTEX
  8
0
 62
9
  6
CONTINUOUS
 10
344.2057621841
 20
83.8429356799
  0
VERTEX
  8
0
 62
9
  6
CONTINUOUS
 10
344.2076295411
 20
83.8438457275
  0
VERTEX
  8
0
 62
9
  6
CONTINUOUS
 10
344.208922709
 20
83.8447904269
  0
VERTEX
  8
0
 62
9
  6
CONTINUOUS
 10
344.2092768318
 20
83.8451790715
  0
SEQEND
  0
LINE
  8
0
 62
9
  6
CONTINUOUS
 10
344.083371732
 20
83.8314846655
 11
344.1049042119
 21
83.8323717286
  0
LINE
  8
0
 62
9
  6
CONTINUOUS
 10
344.0598774119
 20
83.8306785795
 11
344.083371732
 21
83.8314846655
  0
LINE
  8
0
 62
9
  6
CONTINUOUS
 10
344.0344139453
 20
83.8299504131
 11
344.0598774119
 21
83.8306785795
  0
LINE
  8
0
 62
9
  6
CONTINUOUS
 10
344.0069611272
 20
83.8292970123
 11
344.0344139453
 21
83.8299504131
  0
LINE
  8
0
 62
9
  6
CONTINUOUS
 10
343.977483599
 20
83.8287154904
 11
344.0069611272
 21
83.8292970123
  0
POLYLINE
  8
0
 62
9
  6
CONTINUOUS
 66
1
 70
0
  0
VERTEX
  8
0
 62
9
  6
CONTINUOUS
 10
289.1741360416
 20
78.4981054786
  0
VERTEX
  8
0
 62
9
  6
CONTINUOUS
 10
289.5232555028
 20
78.5033129235
  0
VERTEX
  8
0
 62
9
  6
CONTINUOUS
 10
289.811271039
 20
78.5189269414
  0
VERTEX
  8
0
 62
9
  6
CONTINUOUS
 10
290.0222738618
 20
78.5449275722
  0
VERTEX
  8
0
 62
9
  6
CONTINUOUS
 10
290.201897191
 20
78.581293913
  0
VERTEX
  8
0
 62
9
  6
CONTINUOUS
 10
290.396411583
 20
78.6280041706
  0
VERTEX
  8
0
 62
9
  6
CONTINUOUS
 10
290.590200054
 20
78.685021872
  0
VERTEX
  8
0
 62
9
  6
CONTINUOUS
 10
290.7831179573
 20
78.7523044388
  0
VERTEX
  8
0
 62
9
  6
CONTINUOUS
 10
290.9750221286
 20
78.8298018885
  0
VERTEX
  8
0
 62
9
  6
CONTINUOUS
 10
291.1657699383
 20
78.9174565798
  0
VERTEX
  8
0
 62
9
  6
CONTINUOUS
 10
291.355219682
 20
79.015203358
  0
VERTEX
  8
0
 62
9
  6
CONTINUOUS
 10
291.5432306311
 20
79.12296958
  0
VERTEX
  8
0
 62
9
  6
CONTINUOUS
 10
291.7296630354
 20
79.2406751142
  0
VERTEX
  8
0
 62
9
  6
CONTINUOUS
 10
291.9143783402
 20
79.3682324442
  0
VERTEX
  8
0
 62
9
  6
CONTINUOUS
 10
292.0972392941
 20
79.5055467555
  0
VERTEX
  8
0
 62
9
  6
CONTINUOUS
 10
292.2781100272
 20
79.6525159813
  0
VERTEX
  8
0
 62
9
  6
CONTINUOUS
 10
292.4568561294
 20
79.8090308722
  0
VERTEX
  8
0
 62
9
  6
CONTINUOUS
 10
292.6333447803
 20
79.9749750869
  0
VERTEX
  8
0
 62
9
  6
CONTINUOUS
 10
292.807444834
 20
80.1502252812
  0
VERTEX
  8
0
 62
9
  6
CONTINUOUS
 10
292.9790269271
 20
80.3346511958
  0
VERTEX
  8
0
 62
9
  6
CONTINUOUS
 10
293.1479635601
 20
80.5281157534
  0
VERTEX
  8
0
 62
9
  6
CONTINUOUS
 10
293.3141292074
 20
80.7304751606
  0
VERTEX
  8
0
 62
9
  6
CONTINUOUS
 10
293.4774003966
 20
80.9415790166
  0
VERTEX
  8
0
 62
9
  6
CONTINUOUS
 10
293.6376558135
 20
81.1612704226
  0
VERTEX
  8
0
 62
9
  6
CONTINUOUS
 10
293.7947763792
 20
81.389386101
  0
VERTEX
  8
0
 62
9
  6
CONTINUOUS
 10
293.9486453511
 20
81.6257565142
  0
VERTEX
  8
0
 62
9
  6
CONTINUOUS
 10
294.0991483977
 20
81.8702059933
  0
VERTEX
  8
0
 62
9
  6
CONTINUOUS
 10
294.2461736948
 20
82.1225528666
  0
VERTEX
  8
0
 62
9
  6
CONTINUOUS
 10
294.3896119976
 20
82.3826095959
  0
VERTEX
  8
0
 62
9
  6
CONTINUOUS
 10
294.5293567324
 20
82.6501829149
  0
VERTEX
  8
0
 62
9
  6
CONTINUOUS
 10
294.6653040659
 20
82.9250739746
  0
VERTEX
  8
0
 62
9
  6
CONTINUOUS
 10
294.8142993233
 20
83.2070937925
  0
VERTEX
  8
0
 62
9
  6
CONTINUOUS
 10
294.9254053959
 20
83.4959868897
  0
VERTEX
  8
0
 62
9
  6
CONTINUOUS
 10
294.9470558502
 20
83.7914883596
  0
VERTEX
  8
0
 62
9
  6
CONTINUOUS
 10
294.8951542365
 20
84.0933898105
  0
SEQEND
  0
LINE
  8
0
 62
7
  6
CONTINUOUS
 10
35.3482435104
 20
78.4981054885
 11
35.3486220914
 21
78.4981054829
  0
LINE
  8
0
 62
7
  6
CONTINUOUS
 10
35.3486220914
 20
78.4981054829
 11
35.3486760437
 21
78.4981054826
  0
LINE
  8
0
 62
7
  6
CONTINUOUS
 10
333.2037545001
 20
78.4981054786
 11
35.3471200196
 21
78.4981054786
  0
LINE
  8
0
 62
9
  6
CONTINUOUS
 10
24.52749274
 20
83.8289973667
 11
24.5559088275
 21
83.8284509192
  0
LINE
  8
0
 62
9
  6
CONTINUOUS
 10
24.5011266162
 20
83.8296145053
 11
24.52749274
 21
83.8289973667
  0
LINE
  8
0
 62
9
  6
CONTINUOUS
 10
56.1378391189
 20
84.5797655188
 11
56.5179043694
 21
84.5689574433
  0
POLYLINE
  8
0
 62
9
  6
CONTINUOUS
 66
1
 70
0
  0
VERTEX
  8
0
 62
9
  6
CONTINUOUS
 10
65.2441354592
 20
84.3060043238
  0
VERTEX
  8
0
 62
9
  6
CONTINUOUS
 10
65.4887967902
 20
84.2989098596
  0
VERTEX
  8
0
 62
9
  6
CONTINUOUS
 10
65.7336022023
 20
84.2918570337
  0
VERTEX
  8
0
 62
9
  6
CONTINUOUS
 10
65.9783591405
 20
84.2848523902
  0
VERTEX
  8
0
 62
9
  6
CONTINUOUS
 10
66.2229496713
 20
84.2779016269
  0
VERTEX
  8
0
 62
9
  6
CONTINUOUS
 10
66.4671140653
 20
84.2710133623
  0
VERTEX
  8
0
 62
9
  6
CONTINUOUS
 10
66.7110765851
 20
84.2641822756
  0
VERTEX
  8
0
 62
9
  6
CONTINUOUS
 10
66.9548946477
 20
84.2574090728
  0
VERTEX
  8
0
 62
9
  6
CONTINUOUS
 10
67.1988172783
 20
84.2506872681
  0
VERTEX
  8
0
 62
9
  6
CONTINUOUS
 10
67.4430503848
 20
84.2440139424
  0
VERTEX
  8
0
 62
9
  6
CONTINUOUS
 10
67.6877950362
 20
84.2373842792
  0
VERTEX
  8
0
 62
9
  6
CONTINUOUS
 10
67.933297936
 20
84.2307941635
  0
VERTEX
  8
0
 62
9
  6
CONTINUOUS
 10
68.1796417844
 20
84.2242435302
  0
VERTEX
  8
0
 62
9
  6
CONTINUOUS
 10
68.4270012705
 20
84.2177307054
  0
VERTEX
  8
0
 62
9
  6
CONTINUOUS
 10
68.6753551575
 20
84.2112593076
  0
VERTEX
  8
0
 62
9
  6
CONTINUOUS
 10
68.9247343223
 20
84.2048318043
  0
VERTEX
  8
0
 62
9
  6
CONTINUOUS
 10
69.1751593096
 20
84.1984507703
  0
VERTEX
  8
0
 62
9
  6
CONTINUOUS
 10
69.4266656418
 20
84.1921190799
  0
VERTEX
  8
0
 62
9
  6
CONTINUOUS
 10
69.6792452432
 20
84.1858404683
  0
VERTEX
  8
0
 62
9
  6
CONTINUOUS
 10
69.9329420253
 20
84.1796174479
  0
VERTEX
  8
0
 62
9
  6
CONTINUOUS
 10
70.1876355664
 20
84.1734565684
  0
VERTEX
  8
0
 62
9
  6
CONTINUOUS
 10
70.4432524702
 20
84.1673628886
  0
VERTEX
  8
0
 62
9
  6
CONTINUOUS
 10
70.699690269
 20
84.1613414742
  0
VERTEX
  8
0
 62
9
  6
CONTINUOUS
 10
70.9568508712
 20
84.1553968873
  0
VERTEX
  8
0
 62
9
  6
CONTINUOUS
 10
71.2146415619
 20
84.1495334568
  0
VERTEX
  8
0
 62
9
  6
CONTINUOUS
 10
71.4729667662
 20
84.1437549133
  0
VERTEX
  8
0
 62
9
  6
CONTINUOUS
 10
71.7317310164
 20
84.1380654584
  0
VERTEX
  8
0
 62
9
  6
CONTINUOUS
 10
71.9908373348
 20
84.1324685427
  0
VERTEX
  8
0
 62
9
  6
CONTINUOUS
 10
72.2501888174
 20
84.1269680282
  0
VERTEX
  8
0
 62
9
  6
CONTINUOUS
 10
72.5096856152
 20
84.121571142
  0
VERTEX
  8
0
 62
9
  6
CONTINUOUS
 10
72.7692338432
 20
84.1162691596
  0
VERTEX
  8
0
 62
9
  6
CONTINUOUS
 10
73.0286916439
 20
84.1110554132
  0
VERTEX
  8
0
 62
9
  6
CONTINUOUS
 10
73.2880975694
 20
84.1059289634
  0
SEQEND
  0
LINE
  8
0
 62
9
  6
CONTINUOUS
 10
56.5179043694
 20
84.5689574433
 11
56.9026309293
 21
84.5578678741
  0
LINE
  8
0
 62
9
  6
CONTINUOUS
 10
64.7559290476
 20
84.32028864
 11
65.2441354592
 21
84.3060043238
  0
LINE
  8
0
 62
9
  6
CONTINUOUS
 10
56.9026309293
 20
84.5578678741
 11
57.2920967032
 21
84.5465047122
  0
LINE
  8
0
 62
9
  6
CONTINUOUS
 10
24.4767722761
 20
83.8303048871
 11
24.5011266162
 21
83.8296145053
  0
LINE
  8
0
 62
9
  6
CONTINUOUS
 10
64.2703426156
 20
84.3346532002
 11
64.7559290476
 21
84.32028864
  0
LINE
  8
0
 62
9
  6
CONTINUOUS
 10
57.2920967032
 20
84.5465047122
 11
57.6863808058
 21
84.5348760778
  0
LINE
  8
0
 62
9
  6
CONTINUOUS
 10
57.6863808058
 20
84.5348760778
 11
58.0855934132
 21
84.5229888536
  0
LINE
  8
0
 62
9
  6
CONTINUOUS
 10
63.7887433747
 20
84.3490389562
 11
64.2703426156
 21
84.3346532002
  0
LINE
  8
0
 62
9
  6
CONTINUOUS
 10
63.3124745737
 20
84.3633854636
 11
63.7887433747
 21
84.3490389562
  0
LINE
  8
0
 62
9
  6
CONTINUOUS
 10
58.0855934132
 20
84.5229888536
 11
58.4898782362
 21
84.5108491871
  0
LINE
  8
0
 62
9
  6
CONTINUOUS
 10
58.4898782362
 20
84.5108491871
 11
58.8993802591
 21
84.49846423
  0
LINE
  8
0
 62
9
  6
CONTINUOUS
 10
62.6104661822
 20
84.3847100235
 11
63.3124745737
 21
84.3633854636
  0
LINE
  8
0
 62
9
  6
CONTINUOUS
 10
58.8993802591
 20
84.49846423
 11
59.3142421279
 21
84.4858422956
  0
POLYLINE
  8
0
 62
9
  6
CONTINUOUS
 66
1
 70
0
  0
VERTEX
  8
0
 62
9
  6
CONTINUOUS
 10
59.3142421279
 20
84.4858422956
  0
VERTEX
  8
0
 62
9
  6
CONTINUOUS
 10
59.9468827264
 20
84.4664864516
  0
VERTEX
  8
0
 62
9
  6
CONTINUOUS
 10
60.1605890136
 20
84.4599271846
  0
VERTEX
  8
0
 62
9
  6
CONTINUOUS
 10
60.3757356338
 20
84.453316764
  0
VERTEX
  8
0
 62
9
  6
CONTINUOUS
 10
60.5923404911
 20
84.4466564176
  0
VERTEX
  8
0
 62
9
  6
CONTINUOUS
 10
60.8104212216
 20
84.4399475317
  0
VERTEX
  8
0
 62
9
  6
CONTINUOUS
 10
61.0299957791
 20
84.4331915086
  0
VERTEX
  8
0
 62
9
  6
CONTINUOUS
 10
61.2510824054
 20
84.4263897883
  0
VERTEX
  8
0
 62
9
  6
CONTINUOUS
 10
61.4736987252
 20
84.4195439527
  0
VERTEX
  8
0
 62
9
  6
CONTINUOUS
 10
61.6978601825
 20
84.4126556846
  0
VERTEX
  8
0
 62
9
  6
CONTINUOUS
 10
61.9235925929
 20
84.4057264942
  0
VERTEX
  8
0
 62
9
  6
CONTINUOUS
 10
62.1509168134
 20
84.3987581468
  0
VERTEX
  8
0
 62
9
  6
CONTINUOUS
 10
62.6104661822
 20
84.3847100235
  0
SEQEND
  0
LINE
  8
0
 62
9
  6
CONTINUOUS
 10
24.4544035289
 20
83.8310716428
 11
24.4767722761
 21
83.8303048871
  0
LINE
  8
0
 62
9
  6
CONTINUOUS
 10
33.8556627773
 20
84.1926416713
 11
34.6992607321
 21
84.2427530456
  0
LINE
  8
0
 62
9
  6
CONTINUOUS
 10
34.6992607321
 20
84.2427530456
 11
35.3166359174
 21
84.2794167875
  0
LINE
  8
0
 62
9
  6
CONTINUOUS
 10
33.4644961616
 20
84.1694875699
 11
33.8556627773
 21
84.1926416713
  0
POLYLINE
  8
0
 62
9
  6
CONTINUOUS
 66
1
 70
0
  0
VERTEX
  8
0
 62
9
  6
CONTINUOUS
 10
35.3166359174
 20
84.2794167875
  0
VERTEX
  8
0
 62
9
  6
CONTINUOUS
 10
35.6449066058
 20
84.2988503799
  0
VERTEX
  8
0
 62
9
  6
CONTINUOUS
 10
35.8143445449
 20
84.3088723374
  0
SEQEND
  0
LINE
  8
0
 62
9
  6
CONTINUOUS
 10
33.0905384547
 20
84.147454293
 11
33.4644961616
 21
84.1694875699
  0
LINE
  8
0
 62
9
  6
CONTINUOUS
 10
32.7318275618
 20
84.1264553892
 11
33.0905384547
 21
84.147454293
  0
LINE
  8
0
 62
9
  6
CONTINUOUS
 10
32.3868121769
 20
84.1064262348
 11
32.7318275618
 21
84.1264553892
  0
LINE
  8
0
 62
9
  6
CONTINUOUS
 10
32.1637331862
 20
84.093581801
 11
32.3868121769
 21
84.1064262348
  0
LINE
  8
0
 62
9
  6
CONTINUOUS
 10
31.9457922421
 20
84.0811265915
 11
32.1637331862
 21
84.093581801
  0
LINE
  8
0
 62
9
  6
CONTINUOUS
 10
31.7326824656
 20
84.0690476367
 11
31.9457922421
 21
84.0811265915
  0
LINE
  8
0
 62
9
  6
CONTINUOUS
 10
31.5241127942
 20
84.0573326275
 11
31.7326824656
 21
84.0690476367
  0
LINE
  8
0
 62
9
  6
CONTINUOUS
 10
31.3198193761
 20
84.0459710559
 11
31.5241127942
 21
84.0573326275
  0
LINE
  8
0
 62
9
  6
CONTINUOUS
 10
31.1195683135
 20
84.0349542624
 11
31.3198193761
 21
84.0459710559
  0
LINE
  8
0
 62
9
  6
CONTINUOUS
 10
30.9231435245
 20
84.0242740031
 11
31.1195683135
 21
84.0349542624
  0
LINE
  8
0
 62
9
  6
CONTINUOUS
 10
30.7303401582
 20
84.0139220922
 11
30.9231435245
 21
84.0242740031
  0
LINE
  8
0
 62
9
  6
CONTINUOUS
 10
30.5409562306
 20
84.0038907461
 11
30.7303401582
 21
84.0139220922
  0
LINE
  8
0
 62
9
  6
CONTINUOUS
 10
30.3547935822
 20
83.9941728253
 11
30.5409562306
 21
84.0038907461
  0
LINE
  8
0
 62
9
  6
CONTINUOUS
 10
30.1716671167
 20
83.9847616006
 11
30.3547935822
 21
83.9941728253
  0
LINE
  8
0
 62
9
  6
CONTINUOUS
 10
29.9914068513
 20
83.9756504644
 11
30.1716671167
 21
83.9847616006
  0
LINE
  8
0
 62
9
  6
CONTINUOUS
 10
29.8138556063
 20
83.9668335263
 11
29.9914068513
 21
83.9756504644
  0
POLYLINE
  8
0
 62
9
  6
CONTINUOUS
 66
1
 70
0
  0
VERTEX
  8
0
 62
9
  6
CONTINUOUS
 10
294.9372004692
 20
84.1098029133
  0
VERTEX
  8
0
 62
9
  6
CONTINUOUS
 10
295.7792990678
 20
84.126935627
  0
VERTEX
  8
0
 62
9
  6
CONTINUOUS
 10
296.6724925179
 20
84.1457903851
  0
VERTEX
  8
0
 62
9
  6
CONTINUOUS
 10
297.6119956803
 20
84.1671820121
  0
VERTEX
  8
0
 62
9
  6
CONTINUOUS
 10
298.6057534265
 20
84.1909625962
  0
VERTEX
  8
0
 62
9
  6
CONTINUOUS
 10
299.6638757278
 20
84.2176882641
  0
VERTEX
  8
0
 62
9
  6
CONTINUOUS
 10
300.7726471855
 20
84.2469414308
  0
VERTEX
  8
0
 62
9
  6
CONTINUOUS
 10
301.9344609935
 20
84.2787530785
  0
VERTEX
  8
0
 62
9
  6
CONTINUOUS
 10
303.1111168219
 20
84.3123783256
  0
VERTEX
  8
0
 62
9
  6
CONTINUOUS
 10
304.2684417921
 20
84.346099737
  0
VERTEX
  8
0
 62
9
  6
CONTINUOUS
 10
305.404625191
 20
84.3800308976
  0
VERTEX
  8
0
 62
9
  6
CONTINUOUS
 10
306.5072699196
 20
84.4133330087
  0
VERTEX
  8
0
 62
9
  6
CONTINUOUS
 10
307.5773308488
 20
84.4459140076
  0
VERTEX
  8
0
 62
9
  6
CONTINUOUS
 10
308.6104953044
 20
84.4772875781
  0
VERTEX
  8
0
 62
9
  6
CONTINUOUS
 10
309.6111862001
 20
84.5074088281
  0
VERTEX
  8
0
 62
9
  6
CONTINUOUS
 10
310.5818281087
 20
84.536182928
  0
VERTEX
  8
0
 62
9
  6
CONTINUOUS
 10
311.5235367058
 20
84.5634734914
  0
VERTEX
  8
0
 62
9
  6
CONTINUOUS
 10
312.437646543
 20
84.5891945338
  0
VERTEX
  8
0
 62
9
  6
CONTINUOUS
 10
313.325574752
 20
84.6132249348
  0
VERTEX
  8
0
 62
9
  6
CONTINUOUS
 10
314.1885892198
 20
84.6354839642
  0
VERTEX
  8
0
 62
9
  6
CONTINUOUS
 10
315.0282022841
 20
84.6558503662
  0
VERTEX
  8
0
 62
9
  6
CONTINUOUS
 10
315.8459219884
 20
84.6742502966
  0
VERTEX
  8
0
 62
9
  6
CONTINUOUS
 10
316.6426342888
 20
84.6905990851
  0
VERTEX
  8
0
 62
9
  6
CONTINUOUS
 10
317.4187727283
 20
84.7048584077
  0
VERTEX
  8
0
 62
9
  6
CONTINUOUS
 10
318.1768079071
 20
84.71696223
  0
VERTEX
  8
0
 62
9
  6
CONTINUOUS
 10
318.9182314221
 20
84.7269485683
  0
VERTEX
  8
0
 62
9
  6
CONTINUOUS
 10
319.6455984675
 20
84.7347655577
  0
VERTEX
  8
0
 62
9
  6
CONTINUOUS
 10
320.3624189768
 20
84.7404803108
  0
VERTEX
  8
0
 62
9
  6
CONTINUOUS
 10
321.0669206799
 20
84.7439237067
  0
VERTEX
  8
0
 62
9
  6
CONTINUOUS
 10
321.7574718338
 20
84.7449870453
  0
VERTEX
  8
0
 62
9
  6
CONTINUOUS
 10
322.4372717033
 20
84.743516197
  0
VERTEX
  8
0
 62
9
  6
CONTINUOUS
 10
323.1088824393
 20
84.7394695548
  0
VERTEX
  8
0
 62
9
  6
CONTINUOUS
 10
323.7714831546
 20
84.7328000881
  0
VERTEX
  8
0
 62
9
  6
CONTINUOUS
 10
324.4255124795
 20
84.7234667457
  0
VERTEX
  8
0
 62
9
  6
CONTINUOUS
 10
325.0695872223
 20
84.7114749061
  0
VERTEX
  8
0
 62
9
  6
CONTINUOUS
 10
325.7072375938
 20
84.6964977764
  0
VERTEX
  8
0
 62
9
  6
CONTINUOUS
 10
326.3243766976
 20
84.6794128402
  0
VERTEX
  8
0
 62
9
  6
CONTINUOUS
 10
326.9080936852
 20
84.6602339866
  0
VERTEX
  8
0
 62
9
  6
CONTINUOUS
 10
327.463710523
 20
84.6392972057
  0
VERTEX
  8
0
 62
9
  6
CONTINUOUS
 10
327.9905861917
 20
84.6169556048
  0
VERTEX
  8
0
 62
9
  6
CONTINUOUS
 10
328.4937840223
 20
84.5931409738
  0
VERTEX
  8
0
 62
9
  6
CONTINUOUS
 10
328.9751124931
 20
84.5682640527
  0
VERTEX
  8
0
 62
9
  6
CONTINUOUS
 10
329.4421556401
 20
84.541798789
  0
VERTEX
  8
0
 62
9
  6
CONTINUOUS
 10
329.9071837365
 20
84.5132855236
  0
VERTEX
  8
0
 62
9
  6
CONTINUOUS
 10
330.3548056731
 20
84.4840741535
  0
VERTEX
  8
0
 62
9
  6
CONTINUOUS
 10
330.7738788756
 20
84.4547378368
  0
VERTEX
  8
0
 62
9
  6
CONTINUOUS
 10
331.1688801771
 20
84.4253533729
  0
VERTEX
  8
0
 62
9
  6
CONTINUOUS
 10
331.5395846205
 20
84.3961481945
  0
VERTEX
  8
0
 62
9
  6
CONTINUOUS
 10
331.8890902257
 20
84.3671945223
  0
VERTEX
  8
0
 62
9
  6
CONTINUOUS
 10
332.2201180635
 20
84.3389051943
  0
VERTEX
  8
0
 62
9
  6
CONTINUOUS
 10
332.5327647428
 20
84.3107791033
  0
SEQEND
  0
POLYLINE
  8
0
 62
9
  6
CONTINUOUS
 66
1
 70
0
  0
VERTEX
  8
0
 62
9
  6
CONTINUOUS
 10
26.2005107818
 20
83.8402272438
  0
VERTEX
  8
0
 62
9
  6
CONTINUOUS
 10
26.28319873
 20
83.8416630998
  0
VERTEX
  8
0
 62
9
  6
CONTINUOUS
 10
26.3673608877
 20
83.8431868971
  0
VERTEX
  8
0
 62
9
  6
CONTINUOUS
 10
26.4525508949
 20
83.8448177671
  0
VERTEX
  8
0
 62
9
  6
CONTINUOUS
 10
26.5377834859
 20
83.8465271193
  0
VERTEX
  8
0
 62
9
  6
CONTINUOUS
 10
26.6230003913
 20
83.8483210532
  0
VERTEX
  8
0
 62
9
  6
CONTINUOUS
 10
26.707852956
 20
83.8501902828
  0
VERTEX
  8
0
 62
9
  6
CONTINUOUS
 10
26.7921561895
 20
83.8521302552
  0
VERTEX
  8
0
 62
9
  6
CONTINUOUS
 10
26.8755533904
 20
83.8541314104
  0
VERTEX
  8
0
 62
9
  6
CONTINUOUS
 10
26.9581823629
 20
83.8561905337
  0
VERTEX
  8
0
 62
9
  6
CONTINUOUS
 10
27.0400414671
 20
83.85830919
  0
VERTEX
  8
0
 62
9
  6
CONTINUOUS
 10
27.1212542457
 20
83.860482786
  0
VERTEX
  8
0
 62
9
  6
CONTINUOUS
 10
27.2019423008
 20
83.8627163157
  0
VERTEX
  8
0
 62
9
  6
CONTINUOUS
 10
27.2821833959
 20
83.8650055285
  0
VERTEX
  8
0
 62
9
  6
CONTINUOUS
 10
27.3621117825
 20
83.8673553578
  0
VERTEX
  8
0
 62
9
  6
CONTINUOUS
 10
27.4417375298
 20
83.8697613112
  0
VERTEX
  8
0
 62
9
  6
CONTINUOUS
 10
27.5211126463
 20
83.8722249724
  0
VERTEX
  8
0
 62
9
  6
CONTINUOUS
 10
27.6002812255
 20
83.8747441696
  0
VERTEX
  8
0
 62
9
  6
CONTINUOUS
 10
27.6792996818
 20
83.8773214735
  0
VERTEX
  8
0
 62
9
  6
CONTINUOUS
 10
27.7582204639
 20
83.8799559159
  0
VERTEX
  8
0
 62
9
  6
CONTINUOUS
 10
27.8371115796
 20
83.8826503661
  0
VERTEX
  8
0
 62
9
  6
CONTINUOUS
 10
27.9160080606
 20
83.8854037696
  0
VERTEX
  8
0
 62
9
  6
CONTINUOUS
 10
27.9949588592
 20
83.8882181105
  0
VERTEX
  8
0
 62
9
  6
CONTINUOUS
 10
28.0740096064
 20
83.8910931869
  0
VERTEX
  8
0
 62
9
  6
CONTINUOUS
 10
28.1532112812
 20
83.8940312251
  0
VERTEX
  8
0
 62
9
  6
CONTINUOUS
 10
28.2326146108
 20
83.8970324808
  0
VERTEX
  8
0
 62
9
  6
CONTINUOUS
 10
28.3122881441
 20
83.9000999425
  0
VERTEX
  8
0
 62
9
  6
CONTINUOUS
 10
28.3922462214
 20
83.9032328846
  0
VERTEX
  8
0
 62
9
  6
CONTINUOUS
 10
28.4725281908
 20
83.906432868
  0
VERTEX
  8
0
 62
9
  6
CONTINUOUS
 10
28.5531375338
 20
83.9096991259
  0
VERTEX
  8
0
 62
9
  6
CONTINUOUS
 10
28.6340876101
 20
83.9130321131
  0
VERTEX
  8
0
 62
9
  6
CONTINUOUS
 10
28.7153937642
 20
83.9164314813
  0
VERTEX
  8
0
 62
9
  6
CONTINUOUS
 10
28.7970715081
 20
83.9198976818
  0
VERTEX
  8
0
 62
9
  6
CONTINUOUS
 10
28.8791393123
 20
83.9234305213
  0
VERTEX
  8
0
 62
9
  6
CONTINUOUS
 10
28.9616155664
 20
83.9270305251
  0
VERTEX
  8
0
 62
9
  6
CONTINUOUS
 10
29.0445217413
 20
83.9306977712
  0
VERTEX
  8
0
 62
9
  6
CONTINUOUS
 10
29.1278795945
 20
83.9344330333
  0
VERTEX
  8
0
 62
9
  6
CONTINUOUS
 10
29.2117125077
 20
83.9382365734
  0
VERTEX
  8
0
 62
9
  6
CONTINUOUS
 10
29.2960447438
 20
83.942109389
  0
VERTEX
  8
0
 62
9
  6
CONTINUOUS
 10
29.3809012647
 20
83.9460518702
  0
VERTEX
  8
0
 62
9
  6
CONTINUOUS
 10
29.4663113899
 20
83.9500653757
  0
VERTEX
  8
0
 62
9
  6
CONTINUOUS
 10
29.5522920739
 20
83.9541497941
  0
VERTEX
  8
0
 62
9
  6
CONTINUOUS
 10
29.6388672901
 20
83.9583059928
  0
VERTEX
  8
0
 62
9
  6
CONTINUOUS
 10
29.8138556063
 20
83.9668335263
  0
SEQEND
  0
LINE
  8
0
 62
9
  6
CONTINUOUS
 10
26.0448557072
 20
83.8377273766
 11
26.2005107818
 21
83.8402272438
  0
LINE
  8
0
 62
9
  6
CONTINUOUS
 10
343.9459360417
 20
83.8282036296
 11
343.977483599
 21
83.8287154904
  0
LINE
  8
0
 62
9
  6
CONTINUOUS
 10
25.9080448253
 20
83.8357085293
 11
26.0448557072
 21
83.8377273766
  0
LINE
  8
0
 62
9
  6
CONTINUOUS
 10
25.7910634555
 20
83.8340878595
 11
25.9080448253
 21
83.8357085293
  0
LINE
  8
0
 62
9
  6
CONTINUOUS
 10
343.9122758241
 20
83.8277598989
 11
343.9459360417
 21
83.8282036296
  0
LINE
  8
0
 62
9
  6
CONTINUOUS
 10
25.6434288147
 20
83.8321998379
 11
25.7910634555
 21
83.8340878595
  0
LINE
  8
0
 62
9
  6
CONTINUOUS
 10
25.5176348062
 20
83.8307574895
 11
25.6434288147
 21
83.8321998379
  0
LINE
  8
0
 62
9
  6
CONTINUOUS
 10
343.8764668089
 20
83.8273830613
 11
343.9122758241
 21
83.8277598989
  0
LINE
  8
0
 62
9
  6
CONTINUOUS
 10
25.4055629844
 20
83.829604454
 11
25.5176348062
 21
83.8307574895
  0
LINE
  8
0
 62
9
  6
CONTINUOUS
 10
25.2676502214
 20
83.8283818502
 11
25.4055629844
 21
83.829604454
  0
LINE
  8
0
 62
9
  6
CONTINUOUS
 10
343.8384705297
 20
83.8270720039
 11
343.8764668089
 21
83.8273830613
  0
LINE
  8
0
 62
9
  6
CONTINUOUS
 10
25.169044713
 20
83.8276566618
 11
25.2676502214
 21
83.8283818502
  0
LINE
  8
0
 62
9
  6
CONTINUOUS
 10
25.07537797
 20
83.8271046229
 11
25.169044713
 21
83.8276566618
  0
LINE
  8
0
 62
9
  6
CONTINUOUS
 10
343.7772895996
 20
83.8267270157
 11
343.8384705297
 21
83.8270720039
  0
LINE
  8
0
 62
9
  6
CONTINUOUS
 10
24.9893738667
 20
83.8267328178
 11
25.07537797
 21
83.8271046229
  0
LINE
  8
0
 62
9
  6
CONTINUOUS
 10
343.7109641324
 20
83.82652838
 11
343.7772895996
 21
83.8267270157
  0
LINE
  8
0
 62
9
  6
CONTINUOUS
 10
24.910761238
 20
83.8265276256
 11
24.9893738667
 21
83.8267328178
  0
LINE
  8
0
 62
9
  6
CONTINUOUS
 10
24.838397688
 20
83.8264780172
 11
24.910761238
 21
83.8265276256
  0
LINE
  8
0
 62
9
  6
CONTINUOUS
 10
343.639251934
 20
83.8264776426
 11
343.7109641324
 21
83.82652838
  0
LINE
  8
0
 62
9
  6
CONTINUOUS
 10
343.5617142122
 20
83.8265785124
 11
343.639251934
 21
83.8264776426
  0
LINE
  8
0
 62
9
  6
CONTINUOUS
 10
24.771677254
 20
83.8265781894
 11
24.838397688
 21
83.8264780172
  0
LINE
  8
0
 62
9
  6
CONTINUOUS
 10
343.4775525574
 20
83.8268371465
 11
343.5617142122
 21
83.8265785124
  0
LINE
  8
0
 62
9
  6
CONTINUOUS
 10
24.7102270315
 20
83.8268258342
 11
24.771677254
 21
83.8265781894
  0
LINE
  8
0
 62
9
  6
CONTINUOUS
 10
343.3855265784
 20
83.8272678934
 11
343.4775525574
 21
83.8268371465
  0
LINE
  8
0
 62
9
  6
CONTINUOUS
 10
343.2865457215
 20
83.8278807477
 11
343.3855265784
 21
83.8272678934
  0
LINE
  8
0
 62
9
  6
CONTINUOUS
 10
343.1834235525
 20
83.8286596406
 11
343.2865457215
 21
83.8278807477
  0
LINE
  8
0
 62
9
  6
CONTINUOUS
 10
24.6538685947
 20
83.8272193531
 11
24.7102270315
 21
83.8268258342
  0
LINE
  8
0
 62
9
  6
CONTINUOUS
 10
343.0759773304
 20
83.8296044342
 11
343.1834235525
 21
83.8286596406
  0
LINE
  8
0
 62
9
  6
CONTINUOUS
 10
24.6190608618
 20
83.8275631601
 11
24.6538685947
 21
83.8272193531
  0
LINE
  8
0
 62
9
  6
CONTINUOUS
 10
342.9606176779
 20
83.8307574644
 11
343.0759773304
 21
83.8296044342
  0
LINE
  8
0
 62
9
  6
CONTINUOUS
 10
342.8313317627
 20
83.832199805
 11
342.9606176779
 21
83.8307574644
  0
LINE
  8
0
 62
9
  6
CONTINUOUS
 10
342.7335343483
 20
83.8333932236
 11
342.8313317627
 21
83.832199805
  0
POLYLINE
  8
0
 62
9
  6
CONTINUOUS
 66
1
 70
0
  0
VERTEX
  8
0
 62
9
  6
CONTINUOUS
 10
184.0886655907
 20
83.9744477877
  0
VERTEX
  8
0
 62
9
  6
CONTINUOUS
 10
185.3649721565
 20
83.9585402784
  0
VERTEX
  8
0
 62
9
  6
CONTINUOUS
 10
186.5655892308
 20
83.9439451354
  0
VERTEX
  8
0
 62
9
  6
CONTINUOUS
 10
187.6875445027
 20
83.9306057034
  0
VERTEX
  8
0
 62
9
  6
CONTINUOUS
 10
188.7399710049
 20
83.9183464724
  0
VERTEX
  8
0
 62
9
  6
CONTINUOUS
 10
189.7304180574
 20
83.9070326488
  0
VERTEX
  8
0
 62
9
  6
CONTINUOUS
 10
190.6605896823
 20
83.8966055183
  0
VERTEX
  8
0
 62
9
  6
CONTINUOUS
 10
191.5265015093
 20
83.8870743065
  0
VERTEX
  8
0
 62
9
  6
CONTINUOUS
 10
192.3527474964
 20
83.8781335809
  0
VERTEX
  8
0
 62
9
  6
CONTINUOUS
 10
193.1695251169
 20
83.8694460134
  0
VERTEX
  8
0
 62
9
  6
CONTINUOUS
 10
193.9559719114
 20
83.8612230174
  0
VERTEX
  8
0
 62
9
  6
CONTINUOUS
 10
194.6858487786
 20
83.8537159045
  0
VERTEX
  8
0
 62
9
  6
CONTINUOUS
 10
195.4055155291
 20
83.8464169208
  0
VERTEX
  8
0
 62
9
  6
CONTINUOUS
 10
196.1541179503
 20
83.8389434191
  0
VERTEX
  8
0
 62
9
  6
CONTINUOUS
 10
196.9269514477
 20
83.8313403146
  0
VERTEX
  8
0
 62
9
  6
CONTINUOUS
 10
197.7269693263
 20
83.8235988354
  0
VERTEX
  8
0
 62
9
  6
CONTINUOUS
 10
198.5703058566
 20
83.8155569062
  0
VERTEX
  8
0
 62
9
  6
CONTINUOUS
 10
199.4740188759
 20
83.8070934383
  0
VERTEX
  8
0
 62
9
  6
CONTINUOUS
 10
200.4382085008
 20
83.7982062547
  0
VERTEX
  8
0
 62
9
  6
CONTINUOUS
 10
201.4684297471
 20
83.7888911385
  0
VERTEX
  8
0
 62
9
  6
CONTINUOUS
 10
202.5653113048
 20
83.7791344683
  0
VERTEX
  8
0
 62
9
  6
CONTINUOUS
 10
203.7441672668
 20
83.768832206
  0
VERTEX
  8
0
 62
9
  6
CONTINUOUS
 10
204.9664255518
 20
83.7583630413
  0
VERTEX
  8
0
 62
9
  6
CONTINUOUS
 10
206.2046782308
 20
83.7479142643
  0
VERTEX
  8
0
 62
9
  6
CONTINUOUS
 10
207.4409165982
 20
83.7376899523
  0
VERTEX
  8
0
 62
9
  6
CONTINUOUS
 10
208.631863325
 20
83.7280018141
  0
VERTEX
  8
0
 62
9
  6
CONTINUOUS
 10
209.826124734
 20
83.7183864333
  0
VERTEX
  8
0
 62
9
  6
CONTINUOUS
 10
211.0591554302
 20
83.7086365807
  0
VERTEX
  8
0
 62
9
  6
CONTINUOUS
 10
212.3268527469
 20
83.6987366315
  0
VERTEX
  8
0
 62
9
  6
CONTINUOUS
 10
213.6610179396
 20
83.6884019974
  0
VERTEX
  8
0
 62
9
  6
CONTINUOUS
 10
214.9893218221
 20
83.6783461131
  0
VERTEX
  8
0
 62
9
  6
CONTINUOUS
 10
216.2194573202
 20
83.6691292074
  0
VERTEX
  8
0
 62
9
  6
CONTINUOUS
 10
217.4437898618
 20
83.6599332856
  0
VERTEX
  8
0
 62
9
  6
CONTINUOUS
 10
218.7178936578
 20
83.6505520789
  0
VERTEX
  8
0
 62
9
  6
CONTINUOUS
 10
220.0592009672
 20
83.6407096796
  0
VERTEX
  8
0
 62
9
  6
CONTINUOUS
 10
221.5264704634
 20
83.6300809051
  0
VERTEX
  8
0
 62
9
  6
CONTINUOUS
 10
223.0508091134
 20
83.6193762967
  0
VERTEX
  8
0
 62
9
  6
CONTINUOUS
 10
224.6059224906
 20
83.6085952598
  0
VERTEX
  8
0
 62
9
  6
CONTINUOUS
 10
226.1233610753
 20
83.5986199041
  0
VERTEX
  8
0
 62
9
  6
CONTINUOUS
 10
227.5127529419
 20
83.5897930733
  0
VERTEX
  8
0
 62
9
  6
CONTINUOUS
 10
228.8147636241
 20
83.5818521118
  0
VERTEX
  8
0
 62
9
  6
CONTINUOUS
 10
230.0393400011
 20
83.5747839053
  0
VERTEX
  8
0
 62
9
  6
CONTINUOUS
 10
231.1880597574
 20
83.568507748
  0
VERTEX
  8
0
 62
9
  6
CONTINUOUS
 10
232.2646260986
 20
83.5630303264
  0
VERTEX
  8
0
 62
9
  6
CONTINUOUS
 10
233.2724919115
 20
83.5582613591
  0
VERTEX
  8
0
 62
9
  6
CONTINUOUS
 10
234.2095653612
 20
83.5542027206
  0
VERTEX
  8
0
 62
9
  6
CONTINUOUS
 10
235.0961235996
 20
83.5506795914
  0
VERTEX
  8
0
 62
9
  6
CONTINUOUS
 10
235.9361308812
 20
83.5476895388
  0
VERTEX
  8
0
 62
9
  6
CONTINUOUS
 10
236.7762335157
 20
83.5450335554
  0
VERTEX
  8
0
 62
9
  6
CONTINUOUS
 10
237.6872942504
 20
83.5425978414
  0
VERTEX
  8
0
 62
9
  6
CONTINUOUS
 10
238.600298434
 20
83.5406444825
  0
VERTEX
  8
0
 62
9
  6
CONTINUOUS
 10
239.460585888
 20
83.5392874031
  0
VERTEX
  8
0
 62
9
  6
CONTINUOUS
 10
240.2962524422
 20
83.5383892596
  0
VERTEX
  8
0
 62
9
  6
CONTINUOUS
 10
241.1048855536
 20
83.5379378208
  0
VERTEX
  8
0
 62
9
  6
CONTINUOUS
 10
241.9232194211
 20
83.5378777572
  0
VERTEX
  8
0
 62
9
  6
CONTINUOUS
 10
242.7893257673
 20
83.5382578278
  0
VERTEX
  8
0
 62
9
  6
CONTINUOUS
 10
243.696551663
 20
83.5391131723
  0
VERTEX
  8
0
 62
9
  6
CONTINUOUS
 10
244.6659383014
 20
83.5405379216
  0
VERTEX
  8
0
 62
9
  6
CONTINUOUS
 10
245.6523977753
 20
83.5425257311
  0
VERTEX
  8
0
 62
9
  6
CONTINUOUS
 10
246.6095133841
 20
83.5449391593
  0
VERTEX
  8
0
 62
9
  6
CONTINUOUS
 10
247.56260624
 20
83.5478022293
  0
VERTEX
  8
0
 62
9
  6
CONTINUOUS
 10
248.5246573967
 20
83.5511493269
  0
VERTEX
  8
0
 62
9
  6
CONTINUOUS
 10
249.4861871508
 20
83.5549431739
  0
VERTEX
  8
0
 62
9
  6
CONTINUOUS
 10
250.4386714239
 20
83.5591279813
  0
VERTEX
  8
0
 62
9
  6
CONTINUOUS
 10
251.3922724739
 20
83.563717776
  0
VERTEX
  8
0
 62
9
  6
CONTINUOUS
 10
252.3547482997
 20
83.5687539981
  0
VERTEX
  8
0
 62
9
  6
CONTINUOUS
 10
253.3247144021
 20
83.5742140786
  0
VERTEX
  8
0
 62
9
  6
CONTINUOUS
 10
254.3039016173
 20
83.5801053793
  0
VERTEX
  8
0
 62
9
  6
CONTINUOUS
 10
255.2907035894
 20
83.5864084497
  0
VERTEX
  8
0
 62
9
  6
CONTINUOUS
 10
256.282338226
 20
83.5930997871
  0
VERTEX
  8
0
 62
9
  6
CONTINUOUS
 10
257.2840686698
 20
83.6001908253
  0
VERTEX
  8
0
 62
9
  6
CONTINUOUS
 10
258.3008012386
 20
83.6077366204
  0
VERTEX
  8
0
 62
9
  6
CONTINUOUS
 10
259.3307345729
 20
83.6157242211
  0
VERTEX
  8
0
 62
9
  6
CONTINUOUS
 10
260.3734967585
 20
83.6241668679
  0
VERTEX
  8
0
 62
9
  6
CONTINUOUS
 10
261.4296877218
 20
83.633069441
  0
VERTEX
  8
0
 62
9
  6
CONTINUOUS
 10
262.4990267592
 20
83.6424508107
  0
VERTEX
  8
0
 62
9
  6
CONTINUOUS
 10
263.5837574223
 20
83.6523238478
  0
VERTEX
  8
0
 62
9
  6
CONTINUOUS
 10
264.6856026599
 20
83.6627374522
  0
VERTEX
  8
0
 62
9
  6
CONTINUOUS
 10
265.8057836967
 20
83.6736967398
  0
VERTEX
  8
0
 62
9
  6
CONTINUOUS
 10
266.945239682
 20
83.6852528235
  0
VERTEX
  8
0
 62
9
  6
CONTINUOUS
 10
268.1064747979
 20
83.6974189888
  0
VERTEX
  8
0
 62
9
  6
CONTINUOUS
 10
269.2914050216
 20
83.7102740604
  0
VERTEX
  8
0
 62
9
  6
CONTINUOUS
 10
270.5026339
 20
83.7238304104
  0
VERTEX
  8
0
 62
9
  6
CONTINUOUS
 10
271.7417210168
 20
83.7381881862
  0
VERTEX
  8
0
 62
9
  6
CONTINUOUS
 10
273.0135814099
 20
83.7533721422
  0
VERTEX
  8
0
 62
9
  6
CONTINUOUS
 10
274.3212399149
 20
83.7695487578
  0
VERTEX
  8
0
 62
9
  6
CONTINUOUS
 10
275.6717085033
 20
83.7867368535
  0
VERTEX
  8
0
 62
9
  6
CONTINUOUS
 10
277.0685329084
 20
83.8051872141
  0
VERTEX
  8
0
 62
9
  6
CONTINUOUS
 10
278.5247830567
 20
83.8249276648
  0
VERTEX
  8
0
 62
9
  6
CONTINUOUS
 10
280.0545950553
 20
83.8464691625
  0
VERTEX
  8
0
 62
9
  6
CONTINUOUS
 10
281.6576149031
 20
83.8697179965
  0
VERTEX
  8
0
 62
9
  6
CONTINUOUS
 10
283.3628437931
 20
83.8951442694
  0
VERTEX
  8
0
 62
9
  6
CONTINUOUS
 10
285.0958220421
 20
83.9224030268
  0
VERTEX
  8
0
 62
9
  6
CONTINUOUS
 10
286.7858152337
 20
83.9496660384
  0
VERTEX
  8
0
 62
9
  6
CONTINUOUS
 10
288.4533904118
 20
83.9775331833
  0
VERTEX
  8
0
 62
9
  6
CONTINUOUS
 10
290.0938625622
 20
84.0058834878
  0
VERTEX
  8
0
 62
9
  6
CONTINUOUS
 10
291.7124621879
 20
84.0347227466
  0
VERTEX
  8
0
 62
9
  6
CONTINUOUS
 10
293.3132871909
 20
84.064058739
  0
VERTEX
  8
0
 62
9
  6
CONTINUOUS
 10
294.8950445596
 20
84.0937745252
  0
SEQEND
  0
LINE
  8
0
 62
9
  6
CONTINUOUS
 10
24.5864195944
 20
83.8279732979
 11
24.6190608618
 21
83.8275631601
  0
LINE
  8
0
 62
9
  6
CONTINUOUS
 10
342.6221952158
 20
83.8348514848
 11
342.7335343483
 21
83.8333932236
  0
LINE
  8
0
 62
9
  6
CONTINUOUS
 10
24.5559088275
 20
83.8284509192
 11
24.5864195944
 21
83.8279732979
  0
POLYLINE
  8
0
 62
9
  6
CONTINUOUS
 66
1
 70
0
  0
VERTEX
  8
0
 62
9
  6
CONTINUOUS
 10
73.3338281375
 20
84.0937745236
  0
VERTEX
  8
0
 62
9
  6
CONTINUOUS
 10
74.913480449
 20
84.0640588195
  0
VERTEX
  8
0
 62
9
  6
CONTINUOUS
 10
76.5122564393
 20
84.034722864
  0
VERTEX
  8
0
 62
9
  6
CONTINUOUS
 10
78.1288659917
 20
84.0058835928
  0
VERTEX
  8
0
 62
9
  6
CONTINUOUS
 10
79.7674013619
 20
83.9775332896
  0
VERTEX
  8
0
 62
9
  6
CONTINUOUS
 10
81.4330858217
 20
83.9496662125
  0
VERTEX
  8
0
 62
9
  6
CONTINUOUS
 10
83.1212420184
 20
83.9224032562
  0
VERTEX
  8
0
 62
9
  6
CONTINUOUS
 10
84.8524181389
 20
83.8951444992
  0
VERTEX
  8
0
 62
9
  6
CONTINUOUS
 10
86.5559492842
 20
83.8697182103
  0
VERTEX
  8
0
 62
9
  6
CONTINUOUS
 10
88.1574401257
 20
83.8464693683
  0
VERTEX
  8
0
 62
9
  6
CONTINUOUS
 10
89.6858508355
 20
83.8249278656
  0
VERTEX
  8
0
 62
9
  6
CONTINUOUS
 10
91.140817044
 20
83.8051874055
  0
VERTEX
  8
0
 62
9
  6
CONTINUOUS
 10
92.5364545204
 20
83.7867370343
  0
VERTEX
  8
0
 62
9
  6
CONTINUOUS
 10
93.885815338
 20
83.769548921
  0
VERTEX
  8
0
 62
9
  6
CONTINUOUS
 10
95.1924370336
 20
83.7533722933
  0
VERTEX
  8
0
 62
9
  6
CONTINUOUS
 10
96.4633206719
 20
83.7381883407
  0
VERTEX
  8
0
 62
9
  6
CONTINUOUS
 10
97.7014862103
 20
83.7238305662
  0
VERTEX
  8
0
 62
9
  6
CONTINUOUS
 10
98.9118427038
 20
83.7102742074
  0
VERTEX
  8
0
 62
9
  6
CONTINUOUS
 10
100.0959451604
 20
83.6974191274
  0
VERTEX
  8
0
 62
9
  6
CONTINUOUS
 10
101.2563922075
 20
83.6852529574
  0
VERTEX
  8
0
 62
9
  6
CONTINUOUS
 10
102.3950966836
 20
83.6736968701
  0
VERTEX
  8
0
 62
9
  6
CONTINUOUS
 10
103.5145591408
 20
83.6627375813
  0
VERTEX
  8
0
 62
9
  6
CONTINUOUS
 10
104.6157166593
 20
83.652323974
  0
VERTEX
  8
0
 62
9
  6
CONTINUOUS
 10
105.6997884592
 20
83.642450929
  0
VERTEX
  8
0
 62
9
  6
CONTINUOUS
 10
106.7684945621
 20
83.6330695521
  0
VERTEX
  8
0
 62
9
  6
CONTINUOUS
 10
107.8240754586
 20
83.6241669739
  0
VERTEX
  8
0
 62
9
  6
CONTINUOUS
 10
108.8662496577
 20
83.6157243234
  0
VERTEX
  8
0
 62
9
  6
CONTINUOUS
 10
109.8956155178
 20
83.6077367228
  0
VERTEX
  8
0
 62
9
  6
CONTINUOUS
 10
110.9118007687
 20
83.6001909253
  0
VERTEX
  8
0
 62
9
  6
CONTINUOUS
 10
111.9130046547
 20
83.5930998779
  0
VERTEX
  8
0
 62
9
  6
CONTINUOUS
 10
112.9041292984
 20
83.5864085316
  0
VERTEX
  8
0
 62
9
  6
CONTINUOUS
 10
113.8904338573
 20
83.5801054555
  0
VERTEX
  8
0
 62
9
  6
CONTINUOUS
 10
114.8691374386
 20
83.5742141497
  0
VERTEX
  8
0
 62
9
  6
CONTINUOUS
 10
115.8386340392
 20
83.5687540642
  0
VERTEX
  8
0
 62
9
  6
CONTINUOUS
 10
116.8006529814
 20
83.5637178375
  0
VERTEX
  8
0
 62
9
  6
CONTINUOUS
 10
117.7538097161
 20
83.5591280391
  0
VERTEX
  8
0
 62
9
  6
CONTINUOUS
 10
118.7058584545
 20
83.5549432274
  0
VERTEX
  8
0
 62
9
  6
CONTINUOUS
 10
119.666956905
 20
83.5511493742
  0
VERTEX
  8
0
 62
9
  6
CONTINUOUS
 10
120.6285842321
 20
83.5478022706
  0
VERTEX
  8
0
 62
9
  6
CONTINUOUS
 10
121.581263892
 20
83.5449391965
  0
VERTEX
  8
0
 62
9
  6
CONTINUOUS
 10
122.5379719759
 20
83.5425257621
  0
VERTEX
  8
0
 62
9
  6
CONTINUOUS
 10
123.5240197544
 20
83.5405379435
  0
VERTEX
  8
0
 62
9
  6
CONTINUOUS
 10
124.4930094743
 20
83.539113185
  0
VERTEX
  8
0
 62
9
  6
CONTINUOUS
 10
125.3998712213
 20
83.5382578325
  0
VERTEX
  8
0
 62
9
  6
CONTINUOUS
 10
126.2656351775
 20
83.5378777577
  0
VERTEX
  8
0
 62
9
  6
CONTINUOUS
 10
127.0836486977
 20
83.5379378207
  0
VERTEX
  8
0
 62
9
  6
CONTINUOUS
 10
127.8919686651
 20
83.538389261
  0
VERTEX
  8
0
 62
9
  6
CONTINUOUS
 10
128.7273153665
 20
83.5392874086
  0
VERTEX
  8
0
 62
9
  6
CONTINUOUS
 10
129.5872768925
 20
83.5406444938
  0
VERTEX
  8
0
 62
9
  6
CONTINUOUS
 10
130.4999384211
 20
83.5425978579
  0
VERTEX
  8
0
 62
9
  6
CONTINUOUS
 10
131.410661512
 20
83.5450335761
  0
VERTEX
  8
0
 62
9
  6
CONTINUOUS
 10
132.2504569306
 20
83.5476895617
  0
VERTEX
  8
0
 62
9
  6
CONTINUOUS
 10
133.0901616673
 20
83.5506796155
  0
VERTEX
  8
0
 62
9
  6
CONTINUOUS
 10
133.9764064124
 20
83.5542027478
  0
VERTEX
  8
0
 62
9
  6
CONTINUOUS
 10
134.9131549539
 20
83.55826139
  0
VERTEX
  8
0
 62
9
  6
CONTINUOUS
 10
135.920678755
 20
83.5630303611
  0
VERTEX
  8
0
 62
9
  6
CONTINUOUS
 10
136.9968887802
 20
83.5685077865
  0
VERTEX
  8
0
 62
9
  6
CONTINUOUS
 10
138.1452386938
 20
83.5747839476
  0
VERTEX
  8
0
 62
9
  6
CONTINUOUS
 10
139.3694329059
 20
83.581852158
  0
VERTEX
  8
0
 62
9
  6
CONTINUOUS
 10
140.6710510904
 20
83.5897931234
  0
VERTEX
  8
0
 62
9
  6
CONTINUOUS
 10
142.0600401627
 20
83.598619958
  0
VERTEX
  8
0
 62
9
  6
CONTINUOUS
 10
143.5770581248
 20
83.6085953174
  0
VERTEX
  8
0
 62
9
  6
CONTINUOUS
 10
145.1317605764
 20
83.6193763566
  0
VERTEX
  8
0
 62
9
  6
CONTINUOUS
 10
146.6557160397
 20
83.6300809619
  0
VERTEX
  8
0
 62
9
  6
CONTINUOUS
 10
148.1226346239
 20
83.6407097307
  0
VERTEX
  8
0
 62
9
  6
CONTINUOUS
 10
149.4636367029
 20
83.650552126
  0
VERTEX
  8
0
 62
9
  6
CONTINUOUS
 10
150.7374643156
 20
83.6599333306
  0
VERTEX
  8
0
 62
9
  6
CONTINUOUS
 10
151.9615438962
 20
83.6691292553
  0
VERTEX
  8
0
 62
9
  6
CONTINUOUS
 10
153.1914373363
 20
83.6783461673
  0
VERTEX
  8
0
 62
9
  6
CONTINUOUS
 10
154.5194927719
 20
83.6884020601
  0
VERTEX
  8
0
 62
9
  6
CONTINUOUS
 10
155.8534209303
 20
83.698736703
  0
VERTEX
  8
0
 62
9
  6
CONTINUOUS
 10
157.1209040585
 20
83.7086366556
  0
VERTEX
  8
0
 62
9
  6
CONTINUOUS
 10
158.3537365625
 20
83.7183865085
  0
VERTEX
  8
0
 62
9
  6
CONTINUOUS
 10
159.5478150092
 20
83.7280018864
  0
VERTEX
  8
0
 62
9
  6
CONTINUOUS
 10
160.7385881779
 20
83.7376900207
  0
VERTEX
  8
0
 62
9
  6
CONTINUOUS
 10
161.9746557464
 20
83.7479143326
  0
VERTEX
  8
0
 62
9
  6
CONTINUOUS
 10
163.2127459321
 20
83.7583631102
  0
VERTEX
  8
0
 62
9
  6
CONTINUOUS
 10
164.4348515736
 20
83.7688322732
  0
VERTEX
  8
0
 62
9
  6
CONTINUOUS
 10
165.6135672397
 20
83.779134533
  0
VERTEX
  8
0
 62
9
  6
CONTINUOUS
 10
166.7103241329
 20
83.7888912009
  0
VERTEX
  8
0
 62
9
  6
CONTINUOUS
 10
167.7404332039
 20
83.7982063148
  0
VERTEX
  8
0
 62
9
  6
CONTINUOUS
 10
168.7045219055
 20
83.8070934962
  0
VERTEX
  8
0
 62
9
  6
CONTINUOUS
 10
169.6081437942
 20
83.815556962
  0
VERTEX
  8
0
 62
9
  6
CONTINUOUS
 10
170.4513982288
 20
83.8235988903
  0
VERTEX
  8
0
 62
9
  6
CONTINUOUS
 10
171.2513405901
 20
83.8313403679
  0
VERTEX
  8
0
 62
9
  6
CONTINUOUS
 10
172.0241028636
 20
83.8389434666
  0
VERTEX
  8
0
 62
9
  6
CONTINUOUS
 10
172.7726382158
 20
83.8464169624
  0
VERTEX
  8
0
 62
9
  6
CONTINUOUS
 10
173.4922425977
 20
83.8537159443
  0
VERTEX
  8
0
 62
9
  6
CONTINUOUS
 10
174.2220579808
 20
83.8612230562
  0
VERTEX
  8
0
 62
9
  6
CONTINUOUS
 10
175.0084401807
 20
83.8694460494
  0
VERTEX
  8
0
 62
9
  6
CONTINUOUS
 10
175.8251526553
 20
83.8781336138
  0
VERTEX
  8
0
 62
9
  6
CONTINUOUS
 10
176.6513347893
 20
83.8870743371
  0
VERTEX
  8
0
 62
9
  6
CONTINUOUS
 10
177.5171817611
 20
83.8966055465
  0
VERTEX
  8
0
 62
9
  6
CONTINUOUS
 10
178.4472859263
 20
83.9070326739
  0
VERTEX
  8
0
 62
9
  6
CONTINUOUS
 10
179.437663607
 20
83.9183464938
  0
VERTEX
  8
0
 62
9
  6
CONTINUOUS
 10
180.4900190825
 20
83.9306057206
  0
VERTEX
  8
0
 62
9
  6
CONTINUOUS
 10
181.6119016593
 20
83.9439451477
  0
VERTEX
  8
0
 62
9
  6
CONTINUOUS
 10
182.8124444661
 20
83.9585402849
  0
VERTEX
  8
0
 62
9
  6
CONTINUOUS
 10
184.0886761498
 20
83.9744477877
  0
SEQEND
  0
LINE
  8
0
 62
9
  6
CONTINUOUS
 10
55.7623605386
 20
84.5902844013
 11
56.1378391189
 21
84.5797655188
  0
POLYLINE
  8
0
 62
9
  6
CONTINUOUS
 66
1
 70
0
  0
VERTEX
  8
0
 62
9
  6
CONTINUOUS
 10
338.7664785445
 20
83.9583055897
  0
VERTEX
  8
0
 62
9
  6
CONTINUOUS
 10
338.8541585127
 20
83.9541494001
  0
VERTEX
  8
0
 62
9
  6
CONTINUOUS
 10
338.9412464916
 20
83.9500649894
  0
VERTEX
  8
0
 62
9
  6
CONTINUOUS
 10
339.0277667949
 20
83.9460514912
  0
VERTEX
  8
0
 62
9
  6
CONTINUOUS
 10
339.1137366516
 20
83.9421090189
  0
VERTEX
  8
0
 62
9
  6
CONTINUOUS
 10
339.1991857969
 20
83.9382362122
  0
VERTEX
  8
0
 62
9
  6
CONTINUOUS
 10
339.2841395708
 20
83.9344326796
  0
VERTEX
  8
0
 62
9
  6
CONTINUOUS
 10
339.3686226255
 20
83.930697424
  0
VERTEX
  8
0
 62
9
  6
CONTINUOUS
 10
339.4526587282
 20
83.9270301823
  0
VERTEX
  8
0
 62
9
  6
CONTINUOUS
 10
339.536270028
 20
83.9234301821
  0
VERTEX
  8
0
 62
9
  6
CONTINUOUS
 10
339.6194783828
 20
83.9198973458
  0
VERTEX
  8
0
 62
9
  6
CONTINUOUS
 10
339.7023025839
 20
83.9164311493
  0
VERTEX
  8
0
 62
9
  6
CONTINUOUS
 10
339.7847615008
 20
83.9130317871
  0
VERTEX
  8
0
 62
9
  6
CONTINUOUS
 10
339.8668710403
 20
83.9096988078
  0
VERTEX
  8
0
 62
9
  6
CONTINUOUS
 10
339.9486469431
 20
83.9064325603
  0
VERTEX
  8
0
 62
9
  6
CONTINUOUS
 10
340.0301029613
 20
83.9032325881
  0
VERTEX
  8
0
 62
9
  6
CONTINUOUS
 10
340.1112428304
 20
83.9000996568
  0
VERTEX
  8
0
 62
9
  6
CONTINUOUS
 10
340.1921067078
 20
83.8970322057
  0
VERTEX
  8
0
 62
9
  6
CONTINUOUS
 10
340.2727093896
 20
83.8940309608
  0
VERTEX
  8
0
 62
9
  6
CONTINUOUS
 10
340.3531207356
 20
83.8910929328
  0
VERTEX
  8
0
 62
9
  6
CONTINUOUS
 10
340.4333925499
 20
83.8882178652
  0
VERTEX
  8
0
 62
9
  6
CONTINUOUS
 10
340.5135769672
 20
83.8854035318
  0
VERTEX
  8
0
 62
9
  6
CONTINUOUS
 10
340.5937207189
 20
83.8826501334
  0
VERTEX
  8
0
 62
9
  6
CONTINUOUS
 10
340.6738739982
 20
83.8799556874
  0
VERTEX
  8
0
 62
9
  6
CONTINUOUS
 10
340.7540728822
 20
83.8773212499
  0
VERTEX
  8
0
 62
9
  6
CONTINUOUS
 10
340.8343870634
 20
83.8747439511
  0
VERTEX
  8
0
 62
9
  6
CONTINUOUS
 10
340.9148704647
 20
83.8722247598
  0
VERTEX
  8
0
 62
9
  6
CONTINUOUS
 10
340.9955811735
 20
83.8697611047
  0
VERTEX
  8
0
 62
9
  6
CONTINUOUS
 10
341.0765648255
 20
83.8673551574
  0
VERTEX
  8
0
 62
9
  6
CONTINUOUS
 10
341.1578752899
 20
83.8650053346
  0
VERTEX
  8
0
 62
9
  6
CONTINUOUS
 10
341.2395238187
 20
83.8627161295
  0
VERTEX
  8
0
 62
9
  6
CONTINUOUS
 10
341.3216482335
 20
83.8604826073
  0
VERTEX
  8
0
 62
9
  6
CONTINUOUS
 10
341.4043289862
 20
83.8583090167
  0
VERTEX
  8
0
 62
9
  6
CONTINUOUS
 10
341.4876914995
 20
83.8561903655
  0
VERTEX
  8
0
 62
9
  6
CONTINUOUS
 10
341.5718633351
 20
83.8541312474
  0
VERTEX
  8
0
 62
9
  6
CONTINUOUS
 10
341.6568449377
 20
83.8521300986
  0
VERTEX
  8
0
 62
9
  6
CONTINUOUS
 10
341.7427790038
 20
83.8501901352
  0
VERTEX
  8
0
 62
9
  6
CONTINUOUS
 10
341.8293044223
 20
83.8483209156
  0
VERTEX
  8
0
 62
9
  6
CONTINUOUS
 10
341.9162349832
 20
83.8465269914
  0
VERTEX
  8
0
 62
9
  6
CONTINUOUS
 10
342.0032173563
 20
83.8448176486
  0
VERTEX
  8
0
 62
9
  6
CONTINUOUS
 10
342.0901945479
 20
83.8431867875
  0
VERTEX
  8
0
 62
9
  6
CONTINUOUS
 10
342.1761622257
 20
83.8416629994
  0
VERTEX
  8
0
 62
9
  6
CONTINUOUS
 10
342.2606657769
 20
83.8402271524
  0
VERTEX
  8
0
 62
9
  6
CONTINUOUS
 10
342.3422961549
 20
83.8389236461
  0
VERTEX
  8
0
 62
9
  6
CONTINUOUS
 10
342.419860879
 20
83.8377273034
  0
VERTEX
  8
0
 62
9
  6
CONTINUOUS
 10
342.4927898912
 20
83.8366610983
  0
VERTEX
  8
0
 62
9
  6
CONTINUOUS
 10
342.6221952158
 20
83.8348514848
  0
SEQEND
  0
LINE
  8
0
 62
9
  6
CONTINUOUS
 10
338.5892874489
 20
83.9668330972
 11
338.7664785445
 21
83.9583055897
  0
LINE
  8
0
 62
9
  6
CONTINUOUS
 10
338.4095407329
 20
83.9756499989
 11
338.5892874489
 21
83.9668330972
  0
LINE
  8
0
 62
9
  6
CONTINUOUS
 10
338.2270903106
 20
83.9847610978
 11
338.4095407329
 21
83.9756499989
  0
LINE
  8
0
 62
9
  6
CONTINUOUS
 10
338.0417771388
 20
83.9941722971
 11
338.2270903106
 21
83.9847610978
  0
LINE
  8
0
 62
9
  6
CONTINUOUS
 10
337.8534295807
 20
84.003890208
 11
338.0417771388
 21
83.9941722971
  0
LINE
  8
0
 62
9
  6
CONTINUOUS
 10
337.6618609445
 20
84.0139215435
 11
337.8534295807
 21
84.003890208
  0
LINE
  8
0
 62
9
  6
CONTINUOUS
 10
337.4668714555
 20
84.0242734197
 11
337.6618609445
 21
84.0139215435
  0
LINE
  8
0
 62
9
  6
CONTINUOUS
 10
337.2682573421
 20
84.0349536177
 11
337.4668714555
 21
84.0242734197
  0
LINE
  8
0
 62
9
  6
CONTINUOUS
 10
337.0658117494
 20
84.0459703456
 11
337.2682573421
 21
84.0349536177
  0
LINE
  8
0
 62
9
  6
CONTINUOUS
 10
336.8593165335
 20
84.0573318668
 11
337.0658117494
 21
84.0459703456
  0
LINE
  8
0
 62
9
  6
CONTINUOUS
 10
336.6485357206
 20
84.0690468499
 11
336.8593165335
 21
84.0573318668
  0
LINE
  8
0
 62
9
  6
CONTINUOUS
 10
336.4332033745
 20
84.0811258088
 11
336.6485357206
 21
84.0690468499
  0
LINE
  8
0
 62
9
  6
CONTINUOUS
 10
336.2130263468
 20
84.0935810593
 11
336.4332033745
 21
84.0811258088
  0
LINE
  8
0
 62
9
  6
CONTINUOUS
 10
335.9876956579
 20
84.1064255768
 11
336.2130263468
 21
84.0935810593
  0
LINE
  8
0
 62
9
  6
CONTINUOUS
 10
335.7568671181
 20
84.1196739713
 11
335.9876956579
 21
84.1064255768
  0
LINE
  8
0
 62
9
  6
CONTINUOUS
 10
335.3994407569
 20
84.1403426247
 11
335.7568671181
 21
84.1196739713
  0
LINE
  8
0
 62
9
  6
CONTINUOUS
 10
335.1530638822
 20
84.1546797138
 11
335.3994407569
 21
84.1403426247
  0
LINE
  8
0
 62
9
  6
CONTINUOUS
 10
334.8996359395
 20
84.1694868781
 11
335.1530638822
 21
84.1546797138
  0
LINE
  8
0
 62
9
  6
CONTINUOUS
 10
334.6385330393
 20
84.1847917807
 11
334.8996359395
 21
84.1694868781
  0
POLYLINE
  8
0
 62
9
  6
CONTINUOUS
 66
1
 70
0
  0
VERTEX
  8
0
 62
9
  6
CONTINUOUS
 10
332.5291826941
 20
84.3088909213
  0
VERTEX
  8
0
 62
9
  6
CONTINUOUS
 10
333.0313062206
 20
84.2794143269
  0
VERTEX
  8
0
 62
9
  6
CONTINUOUS
 10
333.1916409257
 20
84.2699804344
  0
VERTEX
  8
0
 62
9
  6
CONTINUOUS
 10
333.3487693429
 20
84.2607288483
  0
VERTEX
  8
0
 62
9
  6
CONTINUOUS
 10
333.5028051045
 20
84.2516537416
  0
SEQEND
  0
POLYLINE
  8
0
 62
9
  6
CONTINUOUS
 66
1
 70
0
  0
VERTEX
  8
0
 62
9
  6
CONTINUOUS
 10
333.9476357586
 20
84.2254388268
  0
VERTEX
  8
0
 62
9
  6
CONTINUOUS
 10
334.0905611485
 20
84.2170187254
  0
VERTEX
  8
0
 62
9
  6
CONTINUOUS
 10
334.2310082681
 20
84.208749379
  0
VERTEX
  8
0
 62
9
  6
CONTINUOUS
 10
334.3690826819
 20
84.2006247323
  0
VERTEX
  8
0
 62
9
  6
CONTINUOUS
 10
334.6385330393
 20
84.1847917807
  0
SEQEND
  0
LINE
  8
0
 62
9
  6
CONTINUOUS
 10
333.5028051045
 20
84.2516537416
 11
333.9476357586
 21
84.2254388268
  0
POLYLINE
  8
0
 62
9
  6
CONTINUOUS
 66
1
 70
0
  0
VERTEX
  8
0
 62
9
  6
CONTINUOUS
 10
35.8101525877
 20
84.3098047362
  0
VERTEX
  8
0
 62
9
  6
CONTINUOUS
 10
35.8755196311
 20
84.3158916538
  0
VERTEX
  8
0
 62
9
  6
CONTINUOUS
 10
35.9424296607
 20
84.3220146343
  0
VERTEX
  8
0
 62
9
  6
CONTINUOUS
 10
36.010965882
 20
84.3281791421
  0
VERTEX
  8
0
 62
9
  6
CONTINUOUS
 10
36.080949011
 20
84.3343942482
  0
VERTEX
  8
0
 62
9
  6
CONTINUOUS
 10
36.1522560921
 20
84.3406733643
  0
VERTEX
  8
0
 62
9
  6
CONTINUOUS
 10
36.224788511
 20
84.3470042864
  0
VERTEX
  8
0
 62
9
  6
CONTINUOUS
 10
36.2984420574
 20
84.353380887
  0
VERTEX
  8
0
 62
9
  6
CONTINUOUS
 10
36.3730969177
 20
84.3597934081
  0
VERTEX
  8
0
 62
9
  6
CONTINUOUS
 10
36.4486377251
 20
84.3662331828
  0
VERTEX
  8
0
 62
9
  6
CONTINUOUS
 10
36.5249314082
 20
84.3726851904
  0
VERTEX
  8
0
 62
9
  6
CONTINUOUS
 10
36.6018449483
 20
84.3791336589
  0
VERTEX
  8
0
 62
9
  6
CONTINUOUS
 10
36.6792457532
 20
84.3855659962
  0
VERTEX
  8
0
 62
9
  6
CONTINUOUS
 10
36.7569952284
 20
84.3919661498
  0
VERTEX
  8
0
 62
9
  6
CONTINUOUS
 10
36.8349610239
 20
84.398322452
  0
VERTEX
  8
0
 62
9
  6
CONTINUOUS
 10
36.9129351389
 20
84.4046144547
  0
VERTEX
  8
0
 62
9
  6
CONTINUOUS
 10
36.9909889949
 20
84.4108463154
  0
VERTEX
  8
0
 62
9
  6
CONTINUOUS
 10
37.0690473095
 20
84.417010269
  0
VERTEX
  8
0
 62
9
  6
CONTINUOUS
 10
37.1473428325
 20
84.4231218657
  0
VERTEX
  8
0
 62
9
  6
CONTINUOUS
 10
37.2260474454
 20
84.4291939146
  0
VERTEX
  8
0
 62
9
  6
CONTINUOUS
 10
37.3052877691
 20
84.4352338597
  0
VERTEX
  8
0
 62
9
  6
CONTINUOUS
 10
37.3852656882
 20
84.4412570439
  0
VERTEX
  8
0
 62
9
  6
CONTINUOUS
 10
37.465943791
 20
84.4472585528
  0
VERTEX
  8
0
 62
9
  6
CONTINUOUS
 10
37.5473577394
 20
84.4532397089
  0
VERTEX
  8
0
 62
9
  6
CONTINUOUS
 10
37.6294923523
 20
84.4591979239
  0
VERTEX
  8
0
 62
9
  6
CONTINUOUS
 10
37.7123407615
 20
84.465131172
  0
VERTEX
  8
0
 62
9
  6
CONTINUOUS
 10
37.7959127968
 20
84.4710387647
  0
VERTEX
  8
0
 62
9
  6
CONTINUOUS
 10
37.8802113109
 20
84.4769195099
  0
VERTEX
  8
0
 62
9
  6
CONTINUOUS
 10
37.9652504734
 20
84.4827729319
  0
VERTEX
  8
0
 62
9
  6
CONTINUOUS
 10
38.0510389949
 20
84.4885983169
  0
VERTEX
  8
0
 62
9
  6
CONTINUOUS
 10
38.1375968961
 20
84.4943954731
  0
VERTEX
  8
0
 62
9
  6
CONTINUOUS
 10
38.2249375966
 20
84.5001640541
  0
VERTEX
  8
0
 62
9
  6
CONTINUOUS
 10
38.3130910911
 20
84.5059043456
  0
VERTEX
  8
0
 62
9
  6
CONTINUOUS
 10
38.4020861008
 20
84.5116169778
  0
VERTEX
  8
0
 62
9
  6
CONTINUOUS
 10
38.4919423587
 20
84.5173014738
  0
VERTEX
  8
0
 62
9
  6
CONTINUOUS
 10
38.5826908568
 20
84.5229583882
  0
VERTEX
  8
0
 62
9
  6
CONTINUOUS
 10
38.674328522
 20
84.5285859749
  0
VERTEX
  8
0
 62
9
  6
CONTINUOUS
 10
38.7668625003
 20
84.5341831146
  0
VERTEX
  8
0
 62
9
  6
CONTINUOUS
 10
38.8602930825
 20
84.5397484654
  0
VERTEX
  8
0
 62
9
  6
CONTINUOUS
 10
38.9546227664
 20
84.5452807963
  0
VERTEX
  8
0
 62
9
  6
CONTINUOUS
 10
39.0498516248
 20
84.5507784913
  0
VERTEX
  8
0
 62
9
  6
CONTINUOUS
 10
39.1459805702
 20
84.5562403442
  0
VERTEX
  8
0
 62
9
  6
CONTINUOUS
 10
39.2430089814
 20
84.5616636773
  0
VERTEX
  8
0
 62
9
  6
CONTINUOUS
 10
39.3409358179
 20
84.5670461166
  0
VERTEX
  8
0
 62
9
  6
CONTINUOUS
 10
39.4397624678
 20
84.5723852624
  0
VERTEX
  8
0
 62
9
  6
CONTINUOUS
 10
39.5394830492
 20
84.5776783341
  0
VERTEX
  8
0
 62
9
  6
CONTINUOUS
 10
39.6401176736
 20
84.582923863
  0
VERTEX
  8
0
 62
9
  6
CONTINUOUS
 10
39.7416763555
 20
84.5881200417
  0
VERTEX
  8
0
 62
9
  6
CONTINUOUS
 10
39.8441844056
 20
84.5932654326
  0
VERTEX
  8
0
 62
9
  6
CONTINUOUS
 10
39.9476636764
 20
84.5983588048
  0
VERTEX
  8
0
 62
9
  6
CONTINUOUS
 10
40.0521363889
 20
84.6033983929
  0
VERTEX
  8
0
 62
9
  6
CONTINUOUS
 10
40.1576283864
 20
84.6083830001
  0
VERTEX
  8
0
 62
9
  6
CONTINUOUS
 10
40.2641525277
 20
84.6133103676
  0
VERTEX
  8
0
 62
9
  6
CONTINUOUS
 10
40.3717278613
 20
84.6181787808
  0
VERTEX
  8
0
 62
9
  6
CONTINUOUS
 10
40.4803627736
 20
84.622985814
  0
VERTEX
  8
0
 62
9
  6
CONTINUOUS
 10
40.5900682864
 20
84.6277292253
  0
VERTEX
  8
0
 62
9
  6
CONTINUOUS
 10
40.7008560262
 20
84.6324069242
  0
VERTEX
  8
0
 62
9
  6
CONTINUOUS
 10
40.8127340727
 20
84.637016629
  0
VERTEX
  8
0
 62
9
  6
CONTINUOUS
 10
40.9257246267
 20
84.6415568666
  0
VERTEX
  8
0
 62
9
  6
CONTINUOUS
 10
41.0398438652
 20
84.6460260758
  0
VERTEX
  8
0
 62
9
  6
CONTINUOUS
 10
41.1551193596
 20
84.6504227541
  0
VERTEX
  8
0
 62
9
  6
CONTINUOUS
 10
41.2715769534
 20
84.6547457269
  0
VERTEX
  8
0
 62
9
  6
CONTINUOUS
 10
41.3892401398
 20
84.658993222
  0
VERTEX
  8
0
 62
9
  6
CONTINUOUS
 10
41.5081421214
 20
84.6631641462
  0
VERTEX
  8
0
 62
9
  6
CONTINUOUS
 10
41.6282816394
 20
84.6672560212
  0
VERTEX
  8
0
 62
9
  6
CONTINUOUS
 10
41.7496709339
 20
84.6712667863
  0
VERTEX
  8
0
 62
9
  6
CONTINUOUS
 10
41.8723026804
 20
84.6751940839
  0
VERTEX
  8
0
 62
9
  6
CONTINUOUS
 10
41.9961825108
 20
84.6790355491
  0
VERTEX
  8
0
 62
9
  6
CONTINUOUS
 10
42.1212822126
 20
84.6827885706
  0
VERTEX
  8
0
 62
9
  6
CONTINUOUS
 10
42.2476163515
 20
84.6864506772
  0
VERTEX
  8
0
 62
9
  6
CONTINUOUS
 10
42.3750585588
 20
84.690017756
  0
VERTEX
  8
0
 62
9
  6
CONTINUOUS
 10
42.5035250505
 20
84.6934842655
  0
VERTEX
  8
0
 62
9
  6
CONTINUOUS
 10
42.6328907971
 20
84.6968477335
  0
VERTEX
  8
0
 62
9
  6
CONTINUOUS
 10
42.763026624
 20
84.7001024752
  0
VERTEX
  8
0
 62
9
  6
CONTINUOUS
 10
42.8938468664
 20
84.7032474036
  0
VERTEX
  8
0
 62
9
  6
CONTINUOUS
 10
43.0252305448
 20
84.7062782717
  0
VERTEX
  8
0
 62
9
  6
CONTINUOUS
 10
43.1571428112
 20
84.7091946682
  0
VERTEX
  8
0
 62
9
  6
CONTINUOUS
 10
43.289522327
 20
84.7119940968
  0
VERTEX
  8
0
 62
9
  6
CONTINUOUS
 10
43.4223211861
 20
84.7146762493
  0
VERTEX
  8
0
 62
9
  6
CONTINUOUS
 10
43.55546687
 20
84.7172390887
  0
VERTEX
  8
0
 62
9
  6
CONTINUOUS
 10
43.6889663895
 20
84.7196833179
  0
VERTEX
  8
0
 62
9
  6
CONTINUOUS
 10
43.8227921762
 20
84.7220086334
  0
VERTEX
  8
0
 62
9
  6
CONTINUOUS
 10
43.9569746602
 20
84.7242157327
  0
VERTEX
  8
0
 62
9
  6
CONTINUOUS
 10
44.0915306703
 20
84.7263054269
  0
VERTEX
  8
0
 62
9
  6
CONTINUOUS
 10
44.2264759691
 20
84.7282779873
  0
VERTEX
  8
0
 62
9
  6
CONTINUOUS
 10
44.3618312947
 20
84.7301341894
  0
VERTEX
  8
0
 62
9
  6
CONTINUOUS
 10
44.4976009746
 20
84.7318742092
  0
VERTEX
  8
0
 62
9
  6
CONTINUOUS
 10
44.6337949257
 20
84.733498566
  0
VERTEX
  8
0
 62
9
  6
CONTINUOUS
 10
44.7704185934
 20
84.735007539
  0
VERTEX
  8
0
 62
9
  6
CONTINUOUS
 10
44.9074803854
 20
84.7364016029
  0
VERTEX
  8
0
 62
9
  6
CONTINUOUS
 10
45.044982544
 20
84.7376811301
  0
VERTEX
  8
0
 62
9
  6
CONTINUOUS
 10
45.1829332184
 20
84.7388464993
  0
VERTEX
  8
0
 62
9
  6
CONTINUOUS
 10
45.3213239632
 20
84.7398984802
  0
VERTEX
  8
0
 62
9
  6
CONTINUOUS
 10
45.4601510365
 20
84.7408376587
  0
VERTEX
  8
0
 62
9
  6
CONTINUOUS
 10
45.5994080188
 20
84.7416647999
  0
VERTEX
  8
0
 62
9
  6
CONTINUOUS
 10
45.7390819883
 20
84.7423805767
  0
VERTEX
  8
0
 62
9
  6
CONTINUOUS
 10
45.879188003
 20
84.7429855954
  0
VERTEX
  8
0
 62
9
  6
CONTINUOUS
 10
46.0197286057
 20
84.7434807356
  0
VERTEX
  8
0
 62
9
  6
CONTINUOUS
 10
46.1607297825
 20
84.7438663439
  0
VERTEX
  8
0
 62
9
  6
CONTINUOUS
 10
46.3022145066
 20
84.7441433026
  0
VERTEX
  8
0
 62
9
  6
CONTINUOUS
 10
46.4441969161
 20
84.7443118099
  0
VERTEX
  8
0
 62
9
  6
CONTINUOUS
 10
46.5867071167
 20
84.744372282
  0
VERTEX
  8
0
 62
9
  6
CONTINUOUS
 10
46.7297222401
 20
84.7443256935
  0
VERTEX
  8
0
 62
9
  6
CONTINUOUS
 10
46.8732365025
 20
84.7441723353
  0
VERTEX
  8
0
 62
9
  6
CONTINUOUS
 10
47.017228097
 20
84.7439144372
  0
VERTEX
  8
0
 62
9
  6
CONTINUOUS
 10
47.1616742575
 20
84.7435535473
  0
VERTEX
  8
0
 62
9
  6
CONTINUOUS
 10
47.3065706571
 20
84.7430914874
  0
VERTEX
  8
0
 62
9
  6
CONTINUOUS
 10
47.4518989188
 20
84.7425307373
  0
VERTEX
  8
0
 62
9
  6
CONTINUOUS
 10
47.5976779495
 20
84.7418706979
  0
VERTEX
  8
0
 62
9
  6
CONTINUOUS
 10
47.7439173629
 20
84.7411120068
  0
VERTEX
  8
0
 62
9
  6
CONTINUOUS
 10
47.8906279666
 20
84.7402539065
  0
VERTEX
  8
0
 62
9
  6
CONTINUOUS
 10
48.0378316177
 20
84.7392961195
  0
VERTEX
  8
0
 62
9
  6
CONTINUOUS
 10
48.1855061001
 20
84.7382383204
  0
VERTEX
  8
0
 62
9
  6
CONTINUOUS
 10
48.3336306167
 20
84.7370793334
  0
VERTEX
  8
0
 62
9
  6
CONTINUOUS
 10
48.4822219035
 20
84.7358211189
  0
VERTEX
  8
0
 62
9
  6
CONTINUOUS
 10
48.6312754537
 20
84.7344642544
  0
VERTEX
  8
0
 62
9
  6
CONTINUOUS
 10
48.7808352531
 20
84.7330120949
  0
VERTEX
  8
0
 62
9
  6
CONTINUOUS
 10
48.9309346183
 20
84.7314681754
  0
VERTEX
  8
0
 62
9
  6
CONTINUOUS
 10
49.0816045244
 20
84.7298337919
  0
VERTEX
  8
0
 62
9
  6
CONTINUOUS
 10
49.2328925114
 20
84.7281122496
  0
VERTEX
  8
0
 62
9
  6
CONTINUOUS
 10
49.3847854982
 20
84.7263022506
  0
VERTEX
  8
0
 62
9
  6
CONTINUOUS
 10
49.5372865334
 20
84.7244041086
  0
VERTEX
  8
0
 62
9
  6
CONTINUOUS
 10
49.6903921357
 20
84.7224153416
  0
VERTEX
  8
0
 62
9
  6
CONTINUOUS
 10
49.8440856024
 20
84.7203337442
  0
VERTEX
  8
0
 62
9
  6
CONTINUOUS
 10
49.9984067114
 20
84.7181577389
  0
VERTEX
  8
0
 62
9
  6
CONTINUOUS
 10
50.1533641779
 20
84.7158852662
  0
VERTEX
  8
0
 62
9
  6
CONTINUOUS
 10
50.3090371825
 20
84.7135165435
  0
VERTEX
  8
0
 62
9
  6
CONTINUOUS
 10
50.4654978686
 20
84.7110514516
  0
VERTEX
  8
0
 62
9
  6
CONTINUOUS
 10
50.6227820396
 20
84.7084911047
  0
VERTEX
  8
0
 62
9
  6
CONTINUOUS
 10
50.7809552208
 20
84.7058367244
  0
VERTEX
  8
0
 62
9
  6
CONTINUOUS
 10
50.940004657
 20
84.7030894136
  0
VERTEX
  8
0
 62
9
  6
CONTINUOUS
 10
51.0999474638
 20
84.7002507035
  0
VERTEX
  8
0
 62
9
  6
CONTINUOUS
 10
51.2607602074
 20
84.6973207676
  0
VERTEX
  8
0
 62
9
  6
CONTINUOUS
 10
51.4224281408
 20
84.694299968
  0
VERTEX
  8
0
 62
9
  6
CONTINUOUS
 10
51.5849410989
 20
84.6911888279
  0
VERTEX
  8
0
 62
9
  6
CONTINUOUS
 10
51.7482814106
 20
84.687987813
  0
VERTEX
  8
0
 62
9
  6
CONTINUOUS
 10
51.912455842
 20
84.6846970944
  0
VERTEX
  8
0
 62
9
  6
CONTINUOUS
 10
52.0774608329
 20
84.6813170404
  0
VERTEX
  8
0
 62
9
  6
CONTINUOUS
 10
52.2433097767
 20
84.6778475567
  0
VERTEX
  8
0
 62
9
  6
CONTINUOUS
 10
52.4100099671
 20
84.6742887579
  0
VERTEX
  8
0
 62
9
  6
CONTINUOUS
 10
52.5775769666
 20
84.6706406837
  0
VERTEX
  8
0
 62
9
  6
CONTINUOUS
 10
52.7460222611
 20
84.6669035028
  0
VERTEX
  8
0
 62
9
  6
CONTINUOUS
 10
52.915366552
 20
84.6630773706
  0
VERTEX
  8
0
 62
9
  6
CONTINUOUS
 10
53.0856272759
 20
84.6591625897
  0
VERTEX
  8
0
 62
9
  6
CONTINUOUS
 10
53.2568272854
 20
84.6551594558
  0
VERTEX
  8
0
 62
9
  6
CONTINUOUS
 10
53.4289886327
 20
84.6510684017
  0
VERTEX
  8
0
 62
9
  6
CONTINUOUS
 10
53.6021329525
 20
84.6468899699
  0
VERTEX
  8
0
 62
9
  6
CONTINUOUS
 10
53.7762838428
 20
84.642624765
  0
VERTEX
  8
0
 62
9
  6
CONTINUOUS
 10
53.9514592406
 20
84.6382736763
  0
VERTEX
  8
0
 62
9
  6
CONTINUOUS
 10
54.1276819399
 20
84.6338375653
  0
VERTEX
  8
0
 62
9
  6
CONTINUOUS
 10
54.3049625005
 20
84.6293176741
  0
VERTEX
  8
0
 62
9
  6
CONTINUOUS
 10
54.4833183907
 20
84.6247152717
  0
VERTEX
  8
0
 62
9
  6
CONTINUOUS
 10
54.6627526927
 20
84.6200315059
  0
VERTEX
  8
0
 62
9
  6
CONTINUOUS
 10
54.8432728126
 20
84.6152676021
  0
VERTEX
  8
0
 62
9
  6
CONTINUOUS
 10
55.0248836453
 20
84.6104247412
  0
VERTEX
  8
0
 62
9
  6
CONTINUOUS
 10
55.2075891364
 20
84.6055041039
  0
VERTEX
  8
0
 62
9
  6
CONTINUOUS
 10
55.3913985533
 20
84.6005065594
  0
VERTEX
  8
0
 62
9
  6
CONTINUOUS
 10
55.5763193467
 20
84.5954330351
  0
VERTEX
  8
0
 62
9
  6
CONTINUOUS
 10
55.7623605386
 20
84.5902844013
  0
SEQEND
  0
POLYLINE
  8
0
 62
9
  6
CONTINUOUS
 66
1
 70
0
  0
VERTEX
  8
0
 62
9
  6
CONTINUOUS
 10
184.0973023837
 20
79.0035632629
  0
VERTEX
  8
0
 62
9
  6
CONTINUOUS
 10
184.097729679
 20
78.907949863
  0
VERTEX
  8
0
 62
9
  6
CONTINUOUS
 10
184.0981597086
 20
78.8222296919
  0
VERTEX
  8
0
 62
9
  6
CONTINUOUS
 10
184.0985919563
 20
78.7465106511
  0
VERTEX
  8
0
 62
9
  6
CONTINUOUS
 10
184.0990263776
 20
78.6807817573
  0
VERTEX
  8
0
 62
9
  6
CONTINUOUS
 10
184.099462856
 20
78.6250625068
  0
VERTEX
  8
0
 62
9
  6
CONTINUOUS
 10
184.099901021
 20
78.5794055304
  0
VERTEX
  8
0
 62
9
  6
CONTINUOUS
 10
184.1003407297
 20
78.5438429299
  0
VERTEX
  8
0
 62
9
  6
CONTINUOUS
 10
184.1007813442
 20
78.5184285757
  0
VERTEX
  8
0
 62
9
  6
CONTINUOUS
 10
184.1012203523
 20
78.5031850887
  0
VERTEX
  8
0
 62
9
  6
CONTINUOUS
 10
184.101663508
 20
78.4981054786
  0
SEQEND
  0
LINE
  8
0
 62
9
  6
CONTINUOUS
 10
184.0964581167
 20
79.2240296661
 11
184.0973023837
 21
79.0035632629
  0
LINE
  8
0
 62
9
  6
CONTINUOUS
 10
184.0956295098
 20
79.4828790244
 11
184.0964581167
 21
79.2240296661
  0
LINE
  8
0
 62
9
  6
CONTINUOUS
 10
184.0948175755
 20
79.7798201469
 11
184.0956295098
 21
79.4828790244
  0
LINE
  8
0
 62
9
  6
CONTINUOUS
 10
184.0940257506
 20
80.1136478112
 11
184.0948175755
 21
79.7798201469
  0
LINE
  8
0
 62
9
  6
CONTINUOUS
 10
184.0932567775
 20
80.4831291734
 11
184.0940257506
 21
80.1136478112
  0
POLYLINE
  8
0
 62
9
  6
CONTINUOUS
 66
1
 70
0
  0
VERTEX
  8
0
 62
9
  6
CONTINUOUS
 10
184.0921486409
 20
81.1030391021
  0
VERTEX
  8
0
 62
9
  6
CONTINUOUS
 10
184.0925114329
 20
80.8879029239
  0
VERTEX
  8
0
 62
9
  6
CONTINUOUS
 10
184.0932567775
 20
80.4831291734
  0
SEQEND
  0
LINE
  8
0
 62
9
  6
CONTINUOUS
 10
184.0914443499
 20
81.5576662729
 11
184.0921486409
 21
81.1030391021
  0
POLYLINE
  8
0
 62
9
  6
CONTINUOUS
 66
1
 70
0
  0
VERTEX
  8
0
 62
9
  6
CONTINUOUS
 10
184.0904445749
 20
82.2985135798
  0
VERTEX
  8
0
 62
9
  6
CONTINUOUS
 10
184.0907701289
 20
82.0438806621
  0
VERTEX
  8
0
 62
9
  6
CONTINUOUS
 10
184.0914443499
 20
81.5576662729
  0
SEQEND
  0
POLYLINE
  8
0
 62
9
  6
CONTINUOUS
 66
1
 70
0
  0
VERTEX
  8
0
 62
9
  6
CONTINUOUS
 10
184.0895182028
 20
83.1057877196
  0
VERTEX
  8
0
 62
9
  6
CONTINUOUS
 10
184.0898185065
 20
82.8295616571
  0
VERTEX
  8
0
 62
9
  6
CONTINUOUS
 10
184.0904445749
 20
82.2985135798
  0
SEQEND
  0
POLYLINE
  8
0
 62
9
  6
CONTINUOUS
 66
1
 70
0
  0
VERTEX
  8
0
 62
9
  6
CONTINUOUS
 10
184.0886708798
 20
83.9744441477
  0
VERTEX
  8
0
 62
9
  6
CONTINUOUS
 10
184.0889452775
 20
83.6784564721
  0
VERTEX
  8
0
 62
9
  6
CONTINUOUS
 10
184.0895182028
 20
83.1057877196
  0
SEQEND
  0
POLYLINE
  8
0
 62
9
  6
CONTINUOUS
 66
1
 70
0
  0
VERTEX
  8
0
 62
9
  6
CONTINUOUS
 10
184.078231003
 20
96.1202743321
  0
VERTEX
  8
0
 62
9
  6
CONTINUOUS
 10
184.0793846314
 20
94.6015278198
  0
VERTEX
  8
0
 62
9
  6
CONTINUOUS
 10
184.0807346013
 20
93.0695291957
  0
VERTEX
  8
0
 62
9
  6
CONTINUOUS
 10
184.0823428279
 20
91.5090036171
  0
VERTEX
  8
0
 62
9
  6
CONTINUOUS
 10
184.0835457792
 20
89.9666565415
  0
VERTEX
  8
0
 62
9
  6
CONTINUOUS
 10
184.0847102504
 20
88.5109809945
  0
VERTEX
  8
0
 62
9
  6
CONTINUOUS
 10
184.0860545961
 20
87.0573795356
  0
VERTEX
  8
0
 62
9
  6
CONTINUOUS
 10
184.0871664343
 20
85.5376192513
  0
VERTEX
  8
0
 62
9
  6
CONTINUOUS
 10
184.0886655907
 20
83.9744477877
  0
SEQEND
  0
POLYLINE
  8
0
 62
9
  6
CONTINUOUS
 66
1
 70
0
  0
VERTEX
  8
0
 62
9
  6
CONTINUOUS
 10
184.0604106971
 20
124.4619093549
  0
VERTEX
  8
0
 62
9
  6
CONTINUOUS
 10
184.0650347508
 20
116.826699218
  0
VERTEX
  8
0
 62
9
  6
CONTINUOUS
 10
184.0670430069
 20
112.8054054611
  0
VERTEX
  8
0
 62
9
  6
CONTINUOUS
 10
184.0693820851
 20
108.7547258265
  0
VERTEX
  8
0
 62
9
  6
CONTINUOUS
 10
184.0722294485
 20
104.6320003798
  0
VERTEX
  8
0
 62
9
  6
CONTINUOUS
 10
184.0763652162
 20
100.4164240336
  0
VERTEX
  8
0
 62
9
  6
CONTINUOUS
 10
184.078231003
 20
96.1202743321
  0
SEQEND
  0
POLYLINE
  8
0
 62
9
  6
CONTINUOUS
 66
1
 70
0
  0
VERTEX
  8
0
 62
9
  6
CONTINUOUS
 10
184.0366384578
 20
223.1899298538
  0
VERTEX
  8
0
 62
9
  6
CONTINUOUS
 10
184.0373015204
 20
221.3791051993
  0
VERTEX
  8
0
 62
9
  6
CONTINUOUS
 10
184.0372823421
 20
219.6014832305
  0
VERTEX
  8
0
 62
9
  6
CONTINUOUS
 10
184.0373278691
 20
217.8737943346
  0
VERTEX
  8
0
 62
9
  6
CONTINUOUS
 10
184.0375571318
 20
216.1423245814
  0
VERTEX
  8
0
 62
9
  6
CONTINUOUS
 10
184.0378983219
 20
214.3225834046
  0
VERTEX
  8
0
 62
9
  6
CONTINUOUS
 10
184.037878596
 20
212.526318476
  0
VERTEX
  8
0
 62
9
  6
CONTINUOUS
 10
184.0378488306
 20
210.8847476283
  0
VERTEX
  8
0
 62
9
  6
CONTINUOUS
 10
184.0381854921
 20
209.2505539208
  0
VERTEX
  8
0
 62
9
  6
CONTINUOUS
 10
184.0384482111
 20
207.5109191319
  0
VERTEX
  8
0
 62
9
  6
CONTINUOUS
 10
184.0388722439
 20
205.6976322429
  0
SEQEND
  0
POLYLINE
  8
0
 62
9
  6
CONTINUOUS
 66
1
 70
0
  0
VERTEX
  8
0
 62
9
  6
CONTINUOUS
 10
184.0449340495
 20
173.7739349644
  0
VERTEX
  8
0
 62
9
  6
CONTINUOUS
 10
184.045998264
 20
168.6586813726
  0
VERTEX
  8
0
 62
9
  6
CONTINUOUS
 10
184.0468800621
 20
165.8719492028
  0
VERTEX
  8
0
 62
9
  6
CONTINUOUS
 10
184.0478207839
 20
162.7339261283
  0
VERTEX
  8
0
 62
9
  6
CONTINUOUS
 10
184.0483674671
 20
159.501463234
  0
VERTEX
  8
0
 62
9
  6
CONTINUOUS
 10
184.0492841166
 20
156.3900217777
  0
VERTEX
  8
0
 62
9
  6
CONTINUOUS
 10
184.0503199238
 20
153.3507715407
  0
VERTEX
  8
0
 62
9
  6
CONTINUOUS
 10
184.0512664286
 20
150.414145333
  0
VERTEX
  8
0
 62
9
  6
CONTINUOUS
 10
184.0521097665
 20
147.5588413748
  0
VERTEX
  8
0
 62
9
  6
CONTINUOUS
 10
184.0520597641
 20
144.8706091655
  0
VERTEX
  8
0
 62
9
  6
CONTINUOUS
 10
184.0534727494
 20
142.0583557331
  0
VERTEX
  8
0
 62
9
  6
CONTINUOUS
 10
184.0549329752
 20
138.7810316361
  0
VERTEX
  8
0
 62
9
  6
CONTINUOUS
 10
184.0559941864
 20
135.2915446971
  0
VERTEX
  8
0
 62
9
  6
CONTINUOUS
 10
184.0577285523
 20
131.7242666591
  0
VERTEX
  8
0
 62
9
  6
CONTINUOUS
 10
184.0591764361
 20
128.0858550623
  0
VERTEX
  8
0
 62
9
  6
CONTINUOUS
 10
184.0604106971
 20
124.4619093549
  0
SEQEND
  0
POLYLINE
  8
0
 62
9
  6
CONTINUOUS
 66
1
 70
0
  0
VERTEX
  8
0
 62
9
  6
CONTINUOUS
 10
184.0388722439
 20
205.6976322429
  0
VERTEX
  8
0
 62
9
  6
CONTINUOUS
 10
184.0396816346
 20
201.8338652004
  0
VERTEX
  8
0
 62
9
  6
CONTINUOUS
 10
184.0398169387
 20
199.7298942844
  0
VERTEX
  8
0
 62
9
  6
CONTINUOUS
 10
184.0398224499
 20
197.5849983438
  0
VERTEX
  8
0
 62
9
  6
CONTINUOUS
 10
184.0400281806
 20
195.4755495203
  0
VERTEX
  8
0
 62
9
  6
CONTINUOUS
 10
184.0403167114
 20
193.3927102828
  0
VERTEX
  8
0
 62
9
  6
CONTINUOUS
 10
184.0407097912
 20
191.3865444828
  0
VERTEX
  8
0
 62
9
  6
CONTINUOUS
 10
184.0413145053
 20
189.3564160922
  0
VERTEX
  8
0
 62
9
  6
CONTINUOUS
 10
184.0419056414
 20
187.1888128904
  0
VERTEX
  8
0
 62
9
  6
CONTINUOUS
 10
184.0424061936
 20
184.9741536317
  0
VERTEX
  8
0
 62
9
  6
CONTINUOUS
 10
184.0429865106
 20
182.7680496579
  0
VERTEX
  8
0
 62
9
  6
CONTINUOUS
 10
184.0435242355
 20
180.56007824
  0
VERTEX
  8
0
 62
9
  6
CONTINUOUS
 10
184.0439471325
 20
178.3918630171
  0
VERTEX
  8
0
 62
9
  6
CONTINUOUS
 10
184.0445033068
 20
176.1625154326
  0
VERTEX
  8
0
 62
9
  6
CONTINUOUS
 10
184.0449340495
 20
173.7739349644
  0
SEQEND
  0
LINE
  8
0
 62
7
  6
CONTINUOUS
 10
184.0372568654
 20
223.9603508637
 11
184.0370832415
 21
223.1888061289
  0
LINE
  8
0
 62
7
  6
CONTINUOUS
 10
184.0375016325
 20
224.3456456476
 11
184.0372568654
 21
223.9603508637
  0
LINE
  8
0
 62
7
  6
CONTINUOUS
 10
184.0377647392
 20
224.6151916179
 11
184.0375016325
 21
224.3456456476
  0
LINE
  8
0
 62
7
  6
CONTINUOUS
 10
184.0383424685
 20
224.9780595363
 11
184.0377647392
 21
224.6151916179
  0
LINE
  8
0
 62
7
  6
CONTINUOUS
 10
184.0388208177
 20
225.1366989214
 11
184.0383424685
 21
224.9780595363
  0
LINE
  8
0
 62
7
  6
CONTINUOUS
 10
184.5113612166
 20
225.2040405521
 11
184.5112497141
 21
225.2017619076
  0
POLYLINE
  8
0
 62
7
  6
CONTINUOUS
 66
1
 70
0
  0
VERTEX
  8
0
 62
7
  6
CONTINUOUS
 10
184.0394224516
 20
225.2040395279
  0
VERTEX
  8
0
 62
7
  6
CONTINUOUS
 10
184.0393282545
 20
225.2024008351
  0
VERTEX
  8
0
 62
7
  6
CONTINUOUS
 10
184.0392255881
 20
225.1969144421
  0
VERTEX
  8
0
 62
7
  6
CONTINUOUS
 10
184.0391233575
 20
225.1875791561
  0
VERTEX
  8
0
 62
7
  6
CONTINUOUS
 10
184.0388208177
 20
225.1366989214
  0
SEQEND
  0
LINE
  8
0
 62
9
  6
CONTINUOUS
 10
313.5756333911
 20
225.2607502866
 11
313.5017178205
 21
225.2267695615
  0
POLYLINE
  8
0
 62
7
  6
CONTINUOUS
 66
1
 70
0
  0
VERTEX
  8
0
 62
7
  6
CONTINUOUS
 10
-19.4049485439
 20
225.0850813388
  0
VERTEX
  8
0
 62
7
  6
CONTINUOUS
 10
-19.4570773114
 20
225.0964722115
  0
VERTEX
  8
0
 62
7
  6
CONTINUOUS
 10
-19.5432045917
 20
225.1113845995
  0
VERTEX
  8
0
 62
7
  6
CONTINUOUS
 10
-19.629888948
 20
225.1225182933
  0
VERTEX
  8
0
 62
7
  6
CONTINUOUS
 10
-19.7168851524
 20
225.1298486917
  0
VERTEX
  8
0
 62
7
  6
CONTINUOUS
 10
-19.8038641402
 20
225.1333708004
  0
VERTEX
  8
0
 62
7
  6
CONTINUOUS
 10
-19.8908225015
 20
225.1331070861
  0
VERTEX
  8
0
 62
7
  6
CONTINUOUS
 10
-19.9777090616
 20
225.1290622534
  0
VERTEX
  8
0
 62
7
  6
CONTINUOUS
 10
-20.0643450845
 20
225.1212427106
  0
VERTEX
  8
0
 62
7
  6
CONTINUOUS
 10
-20.1506166911
 20
225.1096544377
  0
VERTEX
  8
0
 62
7
  6
CONTINUOUS
 10
-20.2362793071
 20
225.0943280101
  0
VERTEX
  8
0
 62
7
  6
CONTINUOUS
 10
-20.3210638898
 20
225.0753220156
  0
VERTEX
  8
0
 62
7
  6
CONTINUOUS
 10
-20.404946034
 20
225.052650679
  0
VERTEX
  8
0
 62
7
  6
CONTINUOUS
 10
-20.4879334507
 20
225.0262996413
  0
VERTEX
  8
0
 62
7
  6
CONTINUOUS
 10
-20.5696519875
 20
224.9963786701
  0
VERTEX
  8
0
 62
7
  6
CONTINUOUS
 10
-20.6086595762
 20
224.9806510114
  0
SEQEND
  0
POLYLINE
  8
0
 62
9
  6
CONTINUOUS
 66
1
 70
0
  0
VERTEX
  8
0
 62
9
  6
CONTINUOUS
 10
-14.386925976
 20
221.1858384992
  0
VERTEX
  8
0
 62
9
  6
CONTINUOUS
 10
-14.3969079691
 20
221.1871213249
  0
VERTEX
  8
0
 62
9
  6
CONTINUOUS
 10
-14.4060159564
 20
221.1884104237
  0
VERTEX
  8
0
 62
9
  6
CONTINUOUS
 10
-14.4142606464
 20
221.1896956687
  0
VERTEX
  8
0
 62
9
  6
CONTINUOUS
 10
-14.4216647002
 20
221.1909794976
  0
VERTEX
  8
0
 62
9
  6
CONTINUOUS
 10
-14.4282464571
 20
221.1922619862
  0
VERTEX
  8
0
 62
9
  6
CONTINUOUS
 10
-14.4340252572
 20
221.1935423042
  0
VERTEX
  8
0
 62
9
  6
CONTINUOUS
 10
-14.4390185291
 20
221.1948211763
  0
VERTEX
  8
0
 62
9
  6
CONTINUOUS
 10
-14.443242888
 20
221.196097818
  0
VERTEX
  8
0
 62
9
  6
CONTINUOUS
 10
-14.4467138015
 20
221.1973738047
  0
VERTEX
  8
0
 62
9
  6
CONTINUOUS
 10
-14.4494417329
 20
221.19864809
  0
VERTEX
  8
0
 62
9
  6
CONTINUOUS
 10
-14.4514375925
 20
221.1999217516
  0
VERTEX
  8
0
 62
9
  6
CONTINUOUS
 10
-14.4527084426
 20
221.2011935957
  0
VERTEX
  8
0
 62
9
  6
CONTINUOUS
 10
-14.4528078583
 20
221.2013387837
  0
SEQEND
  0
POLYLINE
  8
0
 62
9
  6
CONTINUOUS
 66
1
 70
0
  0
VERTEX
  8
0
 62
9
  6
CONTINUOUS
 10
390.2649171007
 20
222.874310307
  0
VERTEX
  8
0
 62
9
  6
CONTINUOUS
 10
390.2056141691
 20
222.8693725966
  0
VERTEX
  8
0
 62
9
  6
CONTINUOUS
 10
390.1321213325
 20
222.8646325631
  0
VERTEX
  8
0
 62
9
  6
CONTINUOUS
 10
390.0412478234
 20
222.8602740693
  0
VERTEX
  8
0
 62
9
  6
CONTINUOUS
 10
389.9379612133
 20
222.8571797178
  0
VERTEX
  8
0
 62
9
  6
CONTINUOUS
 10
389.8308801943
 20
222.8549180511
  0
VERTEX
  8
0
 62
9
  6
CONTINUOUS
 10
389.7193678919
 20
222.8534081384
  0
VERTEX
  8
0
 62
9
  6
CONTINUOUS
 10
389.6047609746
 20
222.8526768754
  0
VERTEX
  8
0
 62
9
  6
CONTINUOUS
 10
389.4880216444
 20
222.8525099778
  0
VERTEX
  8
0
 62
9
  6
CONTINUOUS
 10
389.3696423532
 20
222.8529263023
  0
VERTEX
  8
0
 62
9
  6
CONTINUOUS
 10
389.2506557411
 20
222.8537869411
  0
VERTEX
  8
0
 62
9
  6
CONTINUOUS
 10
389.1316803372
 20
222.8550691129
  0
VERTEX
  8
0
 62
9
  6
CONTINUOUS
 10
389.0137297242
 20
222.8566679216
  0
VERTEX
  8
0
 62
9
  6
CONTINUOUS
 10
388.8978771161
 20
222.8585388991
  0
VERTEX
  8
0
 62
9
  6
CONTINUOUS
 10
388.7842119927
 20
222.8605870387
  0
VERTEX
  8
0
 62
9
  6
CONTINUOUS
 10
388.6726472861
 20
222.8628097269
  0
VERTEX
  8
0
 62
9
  6
CONTINUOUS
 10
388.5640057364
 20
222.8651282908
  0
VERTEX
  8
0
 62
9
  6
CONTINUOUS
 10
388.4597920352
 20
222.8675075962
  0
VERTEX
  8
0
 62
9
  6
CONTINUOUS
 10
388.3575965785
 20
222.8699005886
  0
VERTEX
  8
0
 62
9
  6
CONTINUOUS
 10
388.1519792839
 20
222.8750362778
  0
SEQEND
  0
POLYLINE
  8
0
 62
7
  6
CONTINUOUS
 66
1
 70
0
  0
VERTEX
  8
0
 62
7
  6
CONTINUOUS
 10
388.0960322125
 20
225.0920505028
  0
VERTEX
  8
0
 62
7
  6
CONTINUOUS
 10
388.0949719016
 20
225.0919689876
  0
VERTEX
  8
0
 62
7
  6
CONTINUOUS
 10
388.0892526921
 20
225.0915647826
  0
VERTEX
  8
0
 62
7
  6
CONTINUOUS
 10
388.0798064531
 20
225.0909716095
  0
VERTEX
  8
0
 62
7
  6
CONTINUOUS
 10
388.0668399321
 20
225.0902512943
  0
VERTEX
  8
0
 62
7
  6
CONTINUOUS
 10
388.0504106245
 20
225.0894475697
  0
VERTEX
  8
0
 62
7
  6
CONTINUOUS
 10
388.030645816
 20
225.0886012003
  0
VERTEX
  8
0
 62
7
  6
CONTINUOUS
 10
388.0075398627
 20
225.0877421125
  0
VERTEX
  8
0
 62
7
  6
CONTINUOUS
 10
387.9811196767
 20
225.0868984254
  0
VERTEX
  8
0
 62
7
  6
CONTINUOUS
 10
387.9513041349
 20
225.0860919867
  0
VERTEX
  8
0
 62
7
  6
CONTINUOUS
 10
387.9180366418
 20
225.0853438703
  0
VERTEX
  8
0
 62
7
  6
CONTINUOUS
 10
387.8812558366
 20
225.0846735315
  0
VERTEX
  8
0
 62
7
  6
CONTINUOUS
 10
387.8409164225
 20
225.0840997725
  0
VERTEX
  8
0
 62
7
  6
CONTINUOUS
 10
387.796908905
 20
225.0836398066
  0
VERTEX
  8
0
 62
7
  6
CONTINUOUS
 10
387.7491540608
 20
225.0833107015
  0
VERTEX
  8
0
 62
7
  6
CONTINUOUS
 10
387.6974980625
 20
225.0831286954
  0
SEQEND
  0
POLYLINE
  8
0
 62
9
  6
CONTINUOUS
 66
1
 70
0
  0
VERTEX
  8
0
 62
9
  6
CONTINUOUS
 10
50.6864208969
 20
225.3834117814
  0
VERTEX
  8
0
 62
9
  6
CONTINUOUS
 10
50.6850378957
 20
225.3835639909
  0
VERTEX
  8
0
 62
9
  6
CONTINUOUS
 10
50.6726676494
 20
225.383741223
  0
SEQEND
  0
POLYLINE
  8
0
 62
9
  6
CONTINUOUS
 66
1
 70
0
  0
VERTEX
  8
0
 62
9
  6
CONTINUOUS
 10
-21.7434349093
 20
222.8743114732
  0
VERTEX
  8
0
 62
9
  6
CONTINUOUS
 10
-21.7733500308
 20
222.8777363571
  0
VERTEX
  8
0
 62
9
  6
CONTINUOUS
 10
-21.7967200312
 20
222.8812297864
  0
VERTEX
  8
0
 62
9
  6
CONTINUOUS
 10
-21.814259429
 20
222.8846784265
  0
VERTEX
  8
0
 62
9
  6
CONTINUOUS
 10
-21.8268012844
 20
222.8880856241
  0
VERTEX
  8
0
 62
9
  6
CONTINUOUS
 10
-21.8350243177
 20
222.8914565914
  0
VERTEX
  8
0
 62
9
  6
CONTINUOUS
 10
-21.8394137925
 20
222.8947505245
  0
VERTEX
  8
0
 62
9
  6
CONTINUOUS
 10
-21.8405012865
 20
222.8970981523
  0
SEQEND
  0
LINE
  8
0
 62
9
  6
CONTINUOUS
 10
379.4524918914
 20
225.3054521549
 11
379.6054967069
 21
225.3082631531
  0
POLYLINE
  8
0
 62
9
  6
CONTINUOUS
 66
1
 70
0
  0
VERTEX
  8
0
 62
9
  6
CONTINUOUS
 10
-9.9848177785
 20
223.0989043464
  0
VERTEX
  8
0
 62
9
  6
CONTINUOUS
 10
-10.1358029059
 20
223.0969479183
  0
VERTEX
  8
0
 62
9
  6
CONTINUOUS
 10
-10.2871484044
 20
223.0949443279
  0
VERTEX
  8
0
 62
9
  6
CONTINUOUS
 10
-10.4386391086
 20
223.0928921393
  0
VERTEX
  8
0
 62
9
  6
CONTINUOUS
 10
-10.5900713591
 20
223.0907957382
  0
VERTEX
  8
0
 62
9
  6
CONTINUOUS
 10
-10.7412186849
 20
223.0886543187
  0
VERTEX
  8
0
 62
9
  6
CONTINUOUS
 10
-10.8919657899
 20
223.0864706389
  0
VERTEX
  8
0
 62
9
  6
CONTINUOUS
 10
-11.0421428147
 20
223.0842442476
  0
VERTEX
  8
0
 62
9
  6
CONTINUOUS
 10
-11.1917083181
 20
223.0819762405
  0
VERTEX
  8
0
 62
9
  6
CONTINUOUS
 10
-11.3405875816
 20
223.0796661912
  0
VERTEX
  8
0
 62
9
  6
CONTINUOUS
 10
-11.4887179283
 20
223.0773155544
  0
VERTEX
  8
0
 62
9
  6
CONTINUOUS
 10
-11.6360037838
 20
223.074924796
  0
VERTEX
  8
0
 62
9
  6
CONTINUOUS
 10
-11.7824792207
 20
223.0724928004
  0
VERTEX
  8
0
 62
9
  6
CONTINUOUS
 10
-11.9280825877
 20
223.0700209789
  0
VERTEX
  8
0
 62
9
  6
CONTINUOUS
 10
-12.0730032899
 20
223.0675030118
  0
VERTEX
  8
0
 62
9
  6
CONTINUOUS
 10
-12.2173593134
 20
223.0649384968
  0
VERTEX
  8
0
 62
9
  6
CONTINUOUS
 10
-12.3612760252
 20
223.0623209558
  0
VERTEX
  8
0
 62
9
  6
CONTINUOUS
 10
-12.5048754977
 20
223.0596495604
  0
VERTEX
  8
0
 62
9
  6
CONTINUOUS
 10
-12.6482565269
 20
223.0569174864
  0
VERTEX
  8
0
 62
9
  6
CONTINUOUS
 10
-12.7915809561
 20
223.0541149646
  0
VERTEX
  8
0
 62
9
  6
CONTINUOUS
 10
-12.9347536681
 20
223.0512601571
  0
SEQEND
  0
LINE
  8
0
 62
9
  6
CONTINUOUS
 10
-9.6848086325
 20
223.1026644723
 11
-9.9848177785
 21
223.0989043464
  0
LINE
  8
0
 62
9
  6
CONTINUOUS
 10
-9.3881478034
 20
223.1062236754
 11
-9.6848086325
 21
223.1026644723
  0
LINE
  8
0
 62
9
  6
CONTINUOUS
 10
-9.094192112
 20
223.1096003783
 11
-9.3881478034
 21
223.1062236754
  0
LINE
  8
0
 62
9
  6
CONTINUOUS
 10
-8.8020050603
 20
223.1128141475
 11
-9.094192112
 21
223.1096003783
  0
LINE
  8
0
 62
9
  6
CONTINUOUS
 10
-8.5105745179
 20
223.1158827395
 11
-8.8020050603
 21
223.1128141475
  0
LINE
  8
0
 62
9
  6
CONTINUOUS
 10
-8.2188129466
 20
223.1188234193
 11
-8.5105745179
 21
223.1158827395
  0
LINE
  8
0
 62
9
  6
CONTINUOUS
 10
-7.9255566134
 20
223.1216521783
 11
-8.2188129466
 21
223.1188234193
  0
LINE
  8
0
 62
9
  6
CONTINUOUS
 10
-7.3317626202
 20
223.1270682729
 11
-7.3503094785
 21
223.1269007742
  0
POLYLINE
  8
0
 62
9
  6
CONTINUOUS
 66
1
 70
0
  0
VERTEX
  8
0
 62
9
  6
CONTINUOUS
 10
-6.3330974555
 20
223.1360377085
  0
VERTEX
  8
0
 62
9
  6
CONTINUOUS
 10
-6.3751483526
 20
223.1356630972
  0
VERTEX
  8
0
 62
9
  6
CONTINUOUS
 10
-6.4160050305
 20
223.1352974172
  0
VERTEX
  8
0
 62
9
  6
CONTINUOUS
 10
-6.4552577418
 20
223.1349466555
  0
VERTEX
  8
0
 62
9
  6
CONTINUOUS
 10
-6.4918459125
 20
223.1346194202
  0
VERTEX
  8
0
 62
9
  6
CONTINUOUS
 10
-6.5265191754
 20
223.1343087232
  0
VERTEX
  8
0
 62
9
  6
CONTINUOUS
 10
-6.5596413354
 20
223.1340122966
  0
VERTEX
  8
0
 62
9
  6
CONTINUOUS
 10
-6.591297835
 20
223.1337287402
  0
VERTEX
  8
0
 62
9
  6
CONTINUOUS
 10
-6.6216653913
 20
223.1334569635
  0
VERTEX
  8
0
 62
9
  6
CONTINUOUS
 10
-6.6508283107
 20
223.1331958246
  0
VERTEX
  8
0
 62
9
  6
CONTINUOUS
 10
-6.6789091902
 20
223.1329445243
  0
VERTEX
  8
0
 62
9
  6
CONTINUOUS
 10
-6.7059662065
 20
223.1327022738
  0
VERTEX
  8
0
 62
9
  6
CONTINUOUS
 10
-6.7320871404
 20
223.1324684657
  0
SEQEND
  0
POLYLINE
  8
0
 62
9
  6
CONTINUOUS
 66
1
 70
0
  0
VERTEX
  8
0
 62
9
  6
CONTINUOUS
 10
-6.7320871404
 20
223.1324684657
  0
VERTEX
  8
0
 62
9
  6
CONTINUOUS
 10
-6.781648879
 20
223.1320245929
  0
VERTEX
  8
0
 62
9
  6
CONTINUOUS
 10
-6.8052019542
 20
223.1318134532
  0
VERTEX
  8
0
 62
9
  6
CONTINUOUS
 10
-6.8280229855
 20
223.1316087944
  0
VERTEX
  8
0
 62
9
  6
CONTINUOUS
 10
-6.850197678
 20
223.1314096894
  0
VERTEX
  8
0
 62
9
  6
CONTINUOUS
 10
-6.8718240004
 20
223.1312153795
  0
VERTEX
  8
0
 62
9
  6
CONTINUOUS
 10
-6.892923723
 20
223.1310256071
  0
VERTEX
  8
0
 62
9
  6
CONTINUOUS
 10
-6.9135548183
 20
223.1308399442
  0
VERTEX
  8
0
 62
9
  6
CONTINUOUS
 10
-6.9337057058
 20
223.130658484
  0
VERTEX
  8
0
 62
9
  6
CONTINUOUS
 10
-6.9533836031
 20
223.1304812075
  0
VERTEX
  8
0
 62
9
  6
CONTINUOUS
 10
-6.9725898519
 20
223.1303081093
  0
VERTEX
  8
0
 62
9
  6
CONTINUOUS
 10
-6.9913082852
 20
223.13013939
  0
VERTEX
  8
0
 62
9
  6
CONTINUOUS
 10
-7.0095984693
 20
223.1299744757
  0
VERTEX
  8
0
 62
9
  6
CONTINUOUS
 10
-7.0274981506
 20
223.129813128
  0
VERTEX
  8
0
 62
9
  6
CONTINUOUS
 10
-7.0450558326
 20
223.1296548269
  0
VERTEX
  8
0
 62
9
  6
CONTINUOUS
 10
-7.0623271376
 20
223.1294991371
  0
VERTEX
  8
0
 62
9
  6
CONTINUOUS
 10
-7.0793276502
 20
223.1293458586
  0
VERTEX
  8
0
 62
9
  6
CONTINUOUS
 10
-7.0960999108
 20
223.1291946234
  0
VERTEX
  8
0
 62
9
  6
CONTINUOUS
 10
-7.1126182348
 20
223.1290456601
  0
VERTEX
  8
0
 62
9
  6
CONTINUOUS
 10
-7.1288729097
 20
223.1288990429
  0
VERTEX
  8
0
 62
9
  6
CONTINUOUS
 10
-7.1448586567
 20
223.1287548328
  0
VERTEX
  8
0
 62
9
  6
CONTINUOUS
 10
-7.1605594461
 20
223.1286131762
  0
VERTEX
  8
0
 62
9
  6
CONTINUOUS
 10
-7.175997872
 20
223.1284738703
  0
VERTEX
  8
0
 62
9
  6
CONTINUOUS
 10
-7.1911568452
 20
223.1283371168
  0
VERTEX
  8
0
 62
9
  6
CONTINUOUS
 10
-7.206139162
 20
223.12820193
  0
VERTEX
  8
0
 62
9
  6
CONTINUOUS
 10
-7.2210002594
 20
223.1280679393
  0
VERTEX
  8
0
 62
9
  6
CONTINUOUS
 10
-7.2358640965
 20
223.1279338738
  0
VERTEX
  8
0
 62
9
  6
CONTINUOUS
 10
-7.250829627
 20
223.1277989638
  0
VERTEX
  8
0
 62
9
  6
CONTINUOUS
 10
-7.2660258332
 20
223.1276618672
  0
VERTEX
  8
0
 62
9
  6
CONTINUOUS
 10
-7.2975944279
 20
223.1273769512
  0
SEQEND
  0
POLYLINE
  8
0
 62
9
  6
CONTINUOUS
 66
1
 70
0
  0
VERTEX
  8
0
 62
9
  6
CONTINUOUS
 10
-7.4628582686
 20
223.1258842462
  0
VERTEX
  8
0
 62
9
  6
CONTINUOUS
 10
-7.5186496397
 20
223.12538047
  0
VERTEX
  8
0
 62
9
  6
CONTINUOUS
 10
-7.9255566134
 20
223.1216521783
  0
SEQEND
  0
POLYLINE
  8
0
 62
9
  6
CONTINUOUS
 66
1
 70
0
  0
VERTEX
  8
0
 62
9
  6
CONTINUOUS
 10
-7.3503094785
 20
223.1269007742
  0
VERTEX
  8
0
 62
9
  6
CONTINUOUS
 10
-7.3911428745
 20
223.1265320669
  0
VERTEX
  8
0
 62
9
  6
CONTINUOUS
 10
-7.4628582686
 20
223.1258842462
  0
SEQEND
  0
LINE
  8
0
 62
9
  6
CONTINUOUS
 10
-7.2975944279
 20
223.1273769512
 11
-7.3317626202
 21
223.1270682729
  0
LINE
  8
0
 62
9
  6
CONTINUOUS
 10
-6.1343278062
 20
223.1378041417
 11
-6.3330974555
 21
223.1360377085
  0
LINE
  8
0
 62
9
  6
CONTINUOUS
 10
-5.0729960235
 20
223.1470184255
 11
-6.1343278062
 21
223.1378041417
  0
LINE
  8
0
 62
9
  6
CONTINUOUS
 10
-4.1830194637
 20
223.1544265669
 11
-5.0729960235
 21
223.1470184255
  0
LINE
  8
0
 62
9
  6
CONTINUOUS
 10
-3.3848644376
 20
223.1607748848
 11
-4.1830194637
 21
223.1544265669
  0
LINE
  8
0
 62
9
  6
CONTINUOUS
 10
-2.4965063775
 20
223.1674803263
 11
-2.7330188858
 21
223.1657296831
  0
LINE
  8
0
 62
9
  6
CONTINUOUS
 10
-2.7330188858
 20
223.1657296831
 11
-3.3848644376
 21
223.1607748848
  0
LINE
  8
0
 62
9
  6
CONTINUOUS
 10
-1.9049598542
 20
223.1717467761
 11
-2.4965063775
 21
223.1674803263
  0
LINE
  8
0
 62
9
  6
CONTINUOUS
 10
-1.2201182082
 20
223.1764700563
 11
-1.9049598542
 21
223.1717467761
  0
POLYLINE
  8
0
 62
9
  6
CONTINUOUS
 66
1
 70
0
  0
VERTEX
  8
0
 62
9
  6
CONTINUOUS
 10
-0.1995599094
 20
223.1830972267
  0
VERTEX
  8
0
 62
9
  6
CONTINUOUS
 10
-0.2962489731
 20
223.1824930031
  0
VERTEX
  8
0
 62
9
  6
CONTINUOUS
 10
-0.3873001696
 20
223.1819176094
  0
VERTEX
  8
0
 62
9
  6
CONTINUOUS
 10
-0.4731423521
 20
223.181372336
  0
VERTEX
  8
0
 62
9
  6
CONTINUOUS
 10
-1.2201182082
 20
223.1764700563
  0
SEQEND
  0
LINE
  8
0
 62
9
  6
CONTINUOUS
 10
0.0001500901
 20
223.1843380348
 11
-0.1995599094
 21
223.1830972267
  0
POLYLINE
  8
0
 62
9
  6
CONTINUOUS
 66
1
 70
0
  0
VERTEX
  8
0
 62
9
  6
CONTINUOUS
 10
0.4441430137
 20
223.1870387051
  0
VERTEX
  8
0
 62
9
  6
CONTINUOUS
 10
0.3631629257
 20
223.1865552406
  0
VERTEX
  8
0
 62
9
  6
CONTINUOUS
 10
0.0001500901
 20
223.1843380348
  0
SEQEND
  0
LINE
  8
0
 62
9
  6
CONTINUOUS
 10
0.6872684392
 20
223.1884771417
 11
0.4441430137
 21
223.1870387051
  0
LINE
  8
0
 62
9
  6
CONTINUOUS
 10
1.5101718956
 20
223.1931676585
 11
0.6872684392
 21
223.1884771417
  0
LINE
  8
0
 62
9
  6
CONTINUOUS
 10
2.4761204056
 20
223.1983253198
 11
1.5101718956
 21
223.1931676585
  0
LINE
  8
0
 62
9
  6
CONTINUOUS
 10
3.5113028365
 20
223.2034637158
 11
2.4761204056
 21
223.1983253198
  0
LINE
  8
0
 62
7
  6
CONTINUOUS
 10
184.511360832
 20
225.2040396168
 11
184.2753920407
 21
225.202900494
  0
POLYLINE
  8
0
 62
7
  6
CONTINUOUS
 66
1
 70
0
  0
VERTEX
  8
0
 62
7
  6
CONTINUOUS
 10
184.0394220195
 20
225.2040404632
  0
VERTEX
  8
0
 62
7
  6
CONTINUOUS
 10
177.295118756
 20
225.1714613066
  0
VERTEX
  8
0
 62
7
  6
CONTINUOUS
 10
170.6077122923
 20
225.1855767878
  0
VERTEX
  8
0
 62
7
  6
CONTINUOUS
 10
161.687348577
 20
225.2569604703
  0
VERTEX
  8
0
 62
7
  6
CONTINUOUS
 10
153.9791398288
 20
225.3099061303
  0
VERTEX
  8
0
 62
7
  6
CONTINUOUS
 10
147.0826851763
 20
225.3339367059
  0
VERTEX
  8
0
 62
7
  6
CONTINUOUS
 10
140.8328588057
 20
225.339284694
  0
VERTEX
  8
0
 62
7
  6
CONTINUOUS
 10
134.8701736866
 20
225.3369084274
  0
VERTEX
  8
0
 62
7
  6
CONTINUOUS
 10
128.8644954518
 20
225.3354705749
  0
VERTEX
  8
0
 62
7
  6
CONTINUOUS
 10
122.475604076
 20
225.3414803384
  0
VERTEX
  8
0
 62
7
  6
CONTINUOUS
 10
115.9638912631
 20
225.3521648753
  0
VERTEX
  8
0
 62
7
  6
CONTINUOUS
 10
110.2932426592
 20
225.3525665203
  0
VERTEX
  8
0
 62
7
  6
CONTINUOUS
 10
104.5948366196
 20
225.3454442929
  0
VERTEX
  8
0
 62
7
  6
CONTINUOUS
 10
98.9361077449
 20
225.3373390098
  0
VERTEX
  8
0
 62
7
  6
CONTINUOUS
 10
93.3642071153
 20
225.3325530102
  0
VERTEX
  8
0
 62
7
  6
CONTINUOUS
 10
88.0598744149
 20
225.3329386496
  0
VERTEX
  8
0
 62
7
  6
CONTINUOUS
 10
82.9080603548
 20
225.3379879178
  0
VERTEX
  8
0
 62
7
  6
CONTINUOUS
 10
77.9329254489
 20
225.3461839066
  0
VERTEX
  8
0
 62
7
  6
CONTINUOUS
 10
73.0336490098
 20
225.355775201
  0
VERTEX
  8
0
 62
7
  6
CONTINUOUS
 10
68.140689684
 20
225.3650971461
  0
VERTEX
  8
0
 62
7
  6
CONTINUOUS
 10
63.2776243868
 20
225.3726447674
  0
VERTEX
  8
0
 62
7
  6
CONTINUOUS
 10
58.6959175114
 20
225.3773077081
  0
VERTEX
  8
0
 62
7
  6
CONTINUOUS
 10
54.6170181747
 20
225.379214318
  0
SEQEND
  0
POLYLINE
  8
0
 62
9
  6
CONTINUOUS
 66
1
 70
0
  0
VERTEX
  8
0
 62
9
  6
CONTINUOUS
 10
4.2797646809
 20
223.2070206476
  0
VERTEX
  8
0
 62
9
  6
CONTINUOUS
 10
4.0708217041
 20
223.2060795069
  0
VERTEX
  8
0
 62
9
  6
CONTINUOUS
 10
3.5113028365
 20
223.2034637158
  0
SEQEND
  0
LINE
  8
0
 62
9
  6
CONTINUOUS
 10
5.142481402
 20
223.210811472
 11
4.2797646809
 21
223.2070206476
  0
LINE
  8
0
 62
9
  6
CONTINUOUS
 10
5.7937631485
 20
223.213513482
 11
5.142481402
 21
223.210811472
  0
LINE
  8
0
 62
9
  6
CONTINUOUS
 10
6.4496156713
 20
223.2161108733
 11
5.7937631485
 21
223.213513482
  0
LINE
  8
0
 62
9
  6
CONTINUOUS
 10
7.5296037589
 20
223.2201375499
 11
6.4496156713
 21
223.2161108733
  0
LINE
  8
0
 62
9
  6
CONTINUOUS
 10
8.1927171728
 20
223.2224587297
 11
7.5296037589
 21
223.2201375499
  0
POLYLINE
  8
0
 62
9
  6
CONTINUOUS
 66
1
 70
0
  0
VERTEX
  8
0
 62
9
  6
CONTINUOUS
 10
192.4718965409
 20
223.2077280376
  0
VERTEX
  8
0
 62
9
  6
CONTINUOUS
 10
191.7530499661
 20
223.2053854133
  0
VERTEX
  8
0
 62
9
  6
CONTINUOUS
 10
191.0230630787
 20
223.2031435232
  0
VERTEX
  8
0
 62
9
  6
CONTINUOUS
 10
190.2863516719
 20
223.2011225074
  0
VERTEX
  8
0
 62
9
  6
CONTINUOUS
 10
189.5283587669
 20
223.1992436031
  0
VERTEX
  8
0
 62
9
  6
CONTINUOUS
 10
188.7395637855
 20
223.1974769535
  0
VERTEX
  8
0
 62
9
  6
CONTINUOUS
 10
187.9092794655
 20
223.1957860552
  0
VERTEX
  8
0
 62
9
  6
CONTINUOUS
 10
187.022619288
 20
223.1941376328
  0
VERTEX
  8
0
 62
9
  6
CONTINUOUS
 10
186.0826075353
 20
223.192575453
  0
VERTEX
  8
0
 62
9
  6
CONTINUOUS
 10
185.087066128
 20
223.1911330799
  0
VERTEX
  8
0
 62
9
  6
CONTINUOUS
 10
184.0366384578
 20
223.1899298538
  0
SEQEND
  0
LINE
  8
0
 62
9
  6
CONTINUOUS
 10
9.0910372954
 20
223.2254419203
 11
8.1927171728
 21
223.2224587297
  0
LINE
  8
0
 62
9
  6
CONTINUOUS
 10
9.9952132894
 20
223.2282663321
 11
9.0910372954
 21
223.2254419203
  0
LINE
  8
0
 62
9
  6
CONTINUOUS
 10
10.6804906769
 20
223.2302861443
 11
9.9952132894
 21
223.2282663321
  0
LINE
  8
0
 62
9
  6
CONTINUOUS
 10
11.6035183492
 20
223.232853626
 11
10.6804906769
 21
223.2302861443
  0
LINE
  8
0
 62
9
  6
CONTINUOUS
 10
12.5363671674
 20
223.2352796767
 11
11.6035183492
 21
223.232853626
  0
LINE
  8
0
 62
9
  6
CONTINUOUS
 10
13.4786504493
 20
223.2375608338
 11
12.5363671674
 21
223.2352796767
  0
LINE
  8
0
 62
9
  6
CONTINUOUS
 10
14.191819957
 20
223.2391756666
 11
13.4786504493
 21
223.2375608338
  0
LINE
  8
0
 62
9
  6
CONTINUOUS
 10
318.8845133601
 20
223.2349238751
 11
318.8199902615
 21
223.2348000781
  0
POLYLINE
  8
0
 62
9
  6
CONTINUOUS
 66
1
 70
0
  0
VERTEX
  8
0
 62
9
  6
CONTINUOUS
 10
149.2960261166
 20
223.2183106934
  0
VERTEX
  8
0
 62
9
  6
CONTINUOUS
 10
147.2382069451
 20
223.2144427151
  0
VERTEX
  8
0
 62
9
  6
CONTINUOUS
 10
146.2180260116
 20
223.2125823145
  0
VERTEX
  8
0
 62
9
  6
CONTINUOUS
 10
145.2149946898
 20
223.2107907403
  0
VERTEX
  8
0
 62
9
  6
CONTINUOUS
 10
144.2273394182
 20
223.2090891901
  0
VERTEX
  8
0
 62
9
  6
CONTINUOUS
 10
143.2599947115
 20
223.2075045018
  0
VERTEX
  8
0
 62
9
  6
CONTINUOUS
 10
142.3020560821
 20
223.2059997777
  0
VERTEX
  8
0
 62
9
  6
CONTINUOUS
 10
141.3517627655
 20
223.2046272447
  0
VERTEX
  8
0
 62
9
  6
CONTINUOUS
 10
140.3867167939
 20
223.2032998548
  0
VERTEX
  8
0
 62
9
  6
CONTINUOUS
 10
139.3896940397
 20
223.2020849714
  0
VERTEX
  8
0
 62
9
  6
CONTINUOUS
 10
138.3436366776
 20
223.2009208654
  0
VERTEX
  8
0
 62
9
  6
CONTINUOUS
 10
137.2222284303
 20
223.1998583706
  0
VERTEX
  8
0
 62
9
  6
CONTINUOUS
 10
136.0362301594
 20
223.1989533033
  0
VERTEX
  8
0
 62
9
  6
CONTINUOUS
 10
134.7782142926
 20
223.1982048551
  0
VERTEX
  8
0
 62
9
  6
CONTINUOUS
 10
133.4763649135
 20
223.197732605
  0
VERTEX
  8
0
 62
9
  6
CONTINUOUS
 10
132.1516911132
 20
223.197480686
  0
VERTEX
  8
0
 62
9
  6
CONTINUOUS
 10
130.817970024
 20
223.1974763163
  0
VERTEX
  8
0
 62
9
  6
CONTINUOUS
 10
129.4948181757
 20
223.1976448528
  0
VERTEX
  8
0
 62
9
  6
CONTINUOUS
 10
128.1855232276
 20
223.1979198927
  0
VERTEX
  8
0
 62
9
  6
CONTINUOUS
 10
126.8980325567
 20
223.1983213398
  0
VERTEX
  8
0
 62
9
  6
CONTINUOUS
 10
125.6381897442
 20
223.1988362418
  0
VERTEX
  8
0
 62
9
  6
CONTINUOUS
 10
124.4123783052
 20
223.1994493849
  0
VERTEX
  8
0
 62
9
  6
CONTINUOUS
 10
123.2268712643
 20
223.2001027988
  0
VERTEX
  8
0
 62
9
  6
CONTINUOUS
 10
122.0909048931
 20
223.200718182
  0
VERTEX
  8
0
 62
9
  6
CONTINUOUS
 10
121.0019042972
 20
223.2012347071
  0
VERTEX
  8
0
 62
9
  6
CONTINUOUS
 10
119.9645926375
 20
223.201657716
  0
VERTEX
  8
0
 62
9
  6
CONTINUOUS
 10
118.966474287
 20
223.2019627483
  0
VERTEX
  8
0
 62
9
  6
CONTINUOUS
 10
117.9940966078
 20
223.2021494279
  0
VERTEX
  8
0
 62
9
  6
CONTINUOUS
 10
117.0550929032
 20
223.2022116409
  0
VERTEX
  8
0
 62
9
  6
CONTINUOUS
 10
116.154422638
 20
223.2021007709
  0
VERTEX
  8
0
 62
9
  6
CONTINUOUS
 10
115.2865620355
 20
223.2017999103
  0
VERTEX
  8
0
 62
9
  6
CONTINUOUS
 10
114.4584397129
 20
223.2012770862
  0
VERTEX
  8
0
 62
9
  6
CONTINUOUS
 10
113.637635465
 20
223.2004939118
  0
VERTEX
  8
0
 62
9
  6
CONTINUOUS
 10
112.800109424
 20
223.1995768527
  0
VERTEX
  8
0
 62
9
  6
CONTINUOUS
 10
111.9278997076
 20
223.1983888221
  0
VERTEX
  8
0
 62
9
  6
CONTINUOUS
 10
110.994636202
 20
223.1970319029
  0
VERTEX
  8
0
 62
9
  6
CONTINUOUS
 10
110.0018519936
 20
223.1954564718
  0
VERTEX
  8
0
 62
9
  6
CONTINUOUS
 10
108.9433244031
 20
223.1937128775
  0
VERTEX
  8
0
 62
9
  6
CONTINUOUS
 10
106.612069575
 20
223.1897550116
  0
SEQEND
  0
POLYLINE
  8
0
 62
9
  6
CONTINUOUS
 66
1
 70
0
  0
VERTEX
  8
0
 62
9
  6
CONTINUOUS
 10
15.3934900472
 20
223.2416848148
  0
VERTEX
  8
0
 62
9
  6
CONTINUOUS
 10
15.151814508
 20
223.2412009934
  0
VERTEX
  8
0
 62
9
  6
CONTINUOUS
 10
14.191819957
 20
223.2391756666
  0
SEQEND
  0
POLYLINE
  8
0
 62
7
  6
CONTINUOUS
 66
1
 70
0
  0
VERTEX
  8
0
 62
7
  6
CONTINUOUS
 10
317.8795267581
 20
225.3842472393
  0
VERTEX
  8
0
 62
7
  6
CONTINUOUS
 10
317.3834677806
 20
225.3832628602
  0
VERTEX
  8
0
 62
7
  6
CONTINUOUS
 10
316.5135070103
 20
225.3818002716
  0
VERTEX
  8
0
 62
7
  6
CONTINUOUS
 10
315.7011677367
 20
225.3807362841
  0
VERTEX
  8
0
 62
7
  6
CONTINUOUS
 10
314.883938911
 20
225.3799541961
  0
VERTEX
  8
0
 62
7
  6
CONTINUOUS
 10
314.1074716751
 20
225.3794744092
  0
VERTEX
  8
0
 62
7
  6
CONTINUOUS
 10
313.5211431439
 20
225.3792785908
  0
SEQEND
  0
POLYLINE
  8
0
 62
9
  6
CONTINUOUS
 66
1
 70
0
  0
VERTEX
  8
0
 62
9
  6
CONTINUOUS
 10
318.8199902615
 20
223.2348000781
  0
VERTEX
  8
0
 62
9
  6
CONTINUOUS
 10
318.692650446
 20
223.2345613717
  0
VERTEX
  8
0
 62
9
  6
CONTINUOUS
 10
318.6298061208
 20
223.2344460605
  0
VERTEX
  8
0
 62
9
  6
CONTINUOUS
 10
318.5674693376
 20
223.2343333359
  0
VERTEX
  8
0
 62
9
  6
CONTINUOUS
 10
318.5056156674
 20
223.234223079
  0
VERTEX
  8
0
 62
9
  6
CONTINUOUS
 10
318.4442186525
 20
223.2341152109
  0
VERTEX
  8
0
 62
9
  6
CONTINUOUS
 10
318.3832553853
 20
223.2340096267
  0
SEQEND
  0
LINE
  8
0
 62
9
  6
CONTINUOUS
 10
16.3668345625
 20
223.2435301208
 11
15.3934900472
 21
223.2416848148
  0
POLYLINE
  8
0
 62
9
  6
CONTINUOUS
 66
1
 70
0
  0
VERTEX
  8
0
 62
9
  6
CONTINUOUS
 10
318.3832553853
 20
223.2340096267
  0
VERTEX
  8
0
 62
9
  6
CONTINUOUS
 10
318.2625348526
 20
223.2338050114
  0
VERTEX
  8
0
 62
9
  6
CONTINUOUS
 10
318.20273279
 20
223.2337058283
  0
VERTEX
  8
0
 62
9
  6
CONTINUOUS
 10
318.1432745921
 20
223.2336086276
  0
VERTEX
  8
0
 62
9
  6
CONTINUOUS
 10
318.0841366904
 20
223.2335133558
  0
VERTEX
  8
0
 62
9
  6
CONTINUOUS
 10
318.0253049266
 20
223.2334199524
  0
VERTEX
  8
0
 62
9
  6
CONTINUOUS
 10
317.9667606487
 20
223.2333283775
  0
SEQEND
  0
POLYLINE
  8
0
 62
9
  6
CONTINUOUS
 66
1
 70
0
  0
VERTEX
  8
0
 62
9
  6
CONTINUOUS
 10
106.612069575
 20
223.1897550116
  0
VERTEX
  8
0
 62
9
  6
CONTINUOUS
 10
105.3403735716
 20
223.187671133
  0
VERTEX
  8
0
 62
9
  6
CONTINUOUS
 10
104.0057911759
 20
223.1855663842
  0
VERTEX
  8
0
 62
9
  6
CONTINUOUS
 10
102.6129868619
 20
223.1835412113
  0
VERTEX
  8
0
 62
9
  6
CONTINUOUS
 10
101.1672694314
 20
223.1816183233
  0
VERTEX
  8
0
 62
9
  6
CONTINUOUS
 10
99.6713747391
 20
223.1798418367
  0
VERTEX
  8
0
 62
9
  6
CONTINUOUS
 10
98.1281740956
 20
223.1782028739
  0
VERTEX
  8
0
 62
9
  6
CONTINUOUS
 10
96.5424672183
 20
223.1767234
  0
VERTEX
  8
0
 62
9
  6
CONTINUOUS
 10
94.9100535783
 20
223.1754723339
  0
VERTEX
  8
0
 62
9
  6
CONTINUOUS
 10
93.2610597195
 20
223.1746956242
  0
VERTEX
  8
0
 62
9
  6
CONTINUOUS
 10
91.6134049028
 20
223.1743304075
  0
VERTEX
  8
0
 62
9
  6
CONTINUOUS
 10
89.9990087126
 20
223.1745920714
  0
VERTEX
  8
0
 62
9
  6
CONTINUOUS
 10
88.4600853603
 20
223.1752683429
  0
VERTEX
  8
0
 62
9
  6
CONTINUOUS
 10
86.9828791928
 20
223.1763496391
  0
VERTEX
  8
0
 62
9
  6
CONTINUOUS
 10
85.5763479766
 20
223.1777972456
  0
VERTEX
  8
0
 62
9
  6
CONTINUOUS
 10
84.2145428309
 20
223.1794507936
  0
VERTEX
  8
0
 62
9
  6
CONTINUOUS
 10
82.8773092861
 20
223.1814176292
  0
VERTEX
  8
0
 62
9
  6
CONTINUOUS
 10
81.5566559347
 20
223.1835306729
  0
VERTEX
  8
0
 62
9
  6
CONTINUOUS
 10
80.2356145259
 20
223.1858370814
  0
VERTEX
  8
0
 62
9
  6
CONTINUOUS
 10
78.9212715549
 20
223.1882840981
  0
VERTEX
  8
0
 62
9
  6
CONTINUOUS
 10
77.6135934701
 20
223.1908366332
  0
VERTEX
  8
0
 62
9
  6
CONTINUOUS
 10
76.3169733964
 20
223.1934907744
  0
VERTEX
  8
0
 62
9
  6
CONTINUOUS
 10
75.0363146759
 20
223.1961785568
  0
VERTEX
  8
0
 62
9
  6
CONTINUOUS
 10
73.7699462089
 20
223.1988908677
  0
VERTEX
  8
0
 62
9
  6
CONTINUOUS
 10
72.5202820399
 20
223.2016052851
  0
VERTEX
  8
0
 62
9
  6
CONTINUOUS
 10
71.2799562583
 20
223.2042722833
  0
VERTEX
  8
0
 62
9
  6
CONTINUOUS
 10
70.0445391304
 20
223.2069366369
  0
VERTEX
  8
0
 62
9
  6
CONTINUOUS
 10
68.8077840423
 20
223.2095229034
  0
VERTEX
  8
0
 62
9
  6
CONTINUOUS
 10
67.56704985
 20
223.2121246455
  0
VERTEX
  8
0
 62
9
  6
CONTINUOUS
 10
66.3072911834
 20
223.2145917447
  0
VERTEX
  8
0
 62
9
  6
CONTINUOUS
 10
65.023334542
 20
223.2171729251
  0
VERTEX
  8
0
 62
9
  6
CONTINUOUS
 10
63.683392463
 20
223.2194947906
  0
VERTEX
  8
0
 62
9
  6
CONTINUOUS
 10
62.2533316967
 20
223.221976171
  0
VERTEX
  8
0
 62
9
  6
CONTINUOUS
 10
60.7361191577
 20
223.2242039356
  0
VERTEX
  8
0
 62
9
  6
CONTINUOUS
 10
59.1258514304
 20
223.2263636542
  0
VERTEX
  8
0
 62
9
  6
CONTINUOUS
 10
57.4156256537
 20
223.2280409347
  0
VERTEX
  8
0
 62
9
  6
CONTINUOUS
 10
55.5953069494
 20
223.2285976
  0
VERTEX
  8
0
 62
9
  6
CONTINUOUS
 10
53.6695273462
 20
223.2301953939
  0
SEQEND
  0
LINE
  8
0
 62
9
  6
CONTINUOUS
 10
17.3505607577
 20
223.2452256901
 11
16.3668345625
 21
223.2435301208
  0
POLYLINE
  8
0
 62
9
  6
CONTINUOUS
 66
1
 70
0
  0
VERTEX
  8
0
 62
9
  6
CONTINUOUS
 10
317.9667606487
 20
223.2333283775
  0
VERTEX
  8
0
 62
9
  6
CONTINUOUS
 10
317.8504914073
 20
223.2331505164
  0
VERTEX
  8
0
 62
9
  6
CONTINUOUS
 10
317.7927429032
 20
223.2330641467
  0
VERTEX
  8
0
 62
9
  6
CONTINUOUS
 10
317.7352341731
 20
223.2329794314
  0
VERTEX
  8
0
 62
9
  6
CONTINUOUS
 10
317.6779622237
 20
223.2328963448
  0
VERTEX
  8
0
 62
9
  6
CONTINUOUS
 10
317.6209187374
 20
223.2328148598
  0
VERTEX
  8
0
 62
9
  6
CONTINUOUS
 10
317.5641056291
 20
223.2327349674
  0
VERTEX
  8
0
 62
9
  6
CONTINUOUS
 10
317.5075219795
 20
223.232656654
  0
SEQEND
  0
LINE
  8
0
 62
9
  6
CONTINUOUS
 10
18.3453130802
 20
223.2467671466
 11
17.3505607577
 21
223.2452256901
  0
POLYLINE
  8
0
 62
9
  6
CONTINUOUS
 66
1
 70
0
  0
VERTEX
  8
0
 62
9
  6
CONTINUOUS
 10
317.5075219795
 20
223.232656654
  0
VERTEX
  8
0
 62
9
  6
CONTINUOUS
 10
317.395041323
 20
223.2325047375
  0
VERTEX
  8
0
 62
9
  6
CONTINUOUS
 10
317.3391485001
 20
223.232431113
  0
VERTEX
  8
0
 62
9
  6
CONTINUOUS
 10
317.283492146
 20
223.232359022
  0
VERTEX
  8
0
 62
9
  6
CONTINUOUS
 10
317.2280814453
 20
223.2322884511
  0
VERTEX
  8
0
 62
9
  6
CONTINUOUS
 10
317.1729234729
 20
223.2322193766
  0
VERTEX
  8
0
 62
9
  6
CONTINUOUS
 10
317.1180272158
 20
223.2321517929
  0
VERTEX
  8
0
 62
9
  6
CONTINUOUS
 10
317.0634010569
 20
223.2320856794
  0
SEQEND
  0
POLYLINE
  8
0
 62
9
  6
CONTINUOUS
 66
1
 70
0
  0
VERTEX
  8
0
 62
9
  6
CONTINUOUS
 10
326.6900093905
 20
223.2424904684
  0
VERTEX
  8
0
 62
9
  6
CONTINUOUS
 10
326.3600358327
 20
223.2421003281
  0
VERTEX
  8
0
 62
9
  6
CONTINUOUS
 10
326.0288736534
 20
223.241707776
  0
VERTEX
  8
0
 62
9
  6
CONTINUOUS
 10
325.6969092052
 20
223.2413131253
  0
VERTEX
  8
0
 62
9
  6
CONTINUOUS
 10
325.3635514692
 20
223.2409140294
  0
VERTEX
  8
0
 62
9
  6
CONTINUOUS
 10
325.0276990246
 20
223.2405089953
  0
VERTEX
  8
0
 62
9
  6
CONTINUOUS
 10
324.6912418166
 20
223.2401057903
  0
VERTEX
  8
0
 62
9
  6
CONTINUOUS
 10
324.353173953
 20
223.2396876829
  0
VERTEX
  8
0
 62
9
  6
CONTINUOUS
 10
324.0211710341
 20
223.239294215
  0
VERTEX
  8
0
 62
9
  6
CONTINUOUS
 10
323.7021911596
 20
223.238902162
  0
VERTEX
  8
0
 62
9
  6
CONTINUOUS
 10
323.3977924186
 20
223.2385338655
  0
VERTEX
  8
0
 62
9
  6
CONTINUOUS
 10
323.1125004121
 20
223.2381859991
  0
VERTEX
  8
0
 62
9
  6
CONTINUOUS
 10
322.8445287969
 20
223.2378550102
  0
VERTEX
  8
0
 62
9
  6
CONTINUOUS
 10
322.5944750372
 20
223.2375505145
  0
VERTEX
  8
0
 62
9
  6
CONTINUOUS
 10
322.3596372559
 20
223.2372572634
  0
VERTEX
  8
0
 62
9
  6
CONTINUOUS
 10
322.1376644932
 20
223.2369846038
  0
VERTEX
  8
0
 62
9
  6
CONTINUOUS
 10
321.927950985
 20
223.2367229363
  0
VERTEX
  8
0
 62
9
  6
CONTINUOUS
 10
321.7292441729
 20
223.2364774778
  0
VERTEX
  8
0
 62
9
  6
CONTINUOUS
 10
321.5410527155
 20
223.2362424164
  0
VERTEX
  8
0
 62
9
  6
CONTINUOUS
 10
321.3625938771
 20
223.2360212591
  0
VERTEX
  8
0
 62
9
  6
CONTINUOUS
 10
321.1934380734
 20
223.2358098371
  0
VERTEX
  8
0
 62
9
  6
CONTINUOUS
 10
321.0330942243
 20
223.2356109037
  0
VERTEX
  8
0
 62
9
  6
CONTINUOUS
 10
320.880927422
 20
223.2354204957
  0
VERTEX
  8
0
 62
9
  6
CONTINUOUS
 10
320.7362762867
 20
223.2352405591
  0
VERTEX
  8
0
 62
9
  6
CONTINUOUS
 10
320.5986957868
 20
223.2350682202
  0
VERTEX
  8
0
 62
9
  6
CONTINUOUS
 10
320.4675004091
 20
223.2349046957
  0
VERTEX
  8
0
 62
9
  6
CONTINUOUS
 10
320.3427253568
 20
223.234748677
  0
VERTEX
  8
0
 62
9
  6
CONTINUOUS
 10
320.2243266947
 20
223.2346013247
  0
VERTEX
  8
0
 62
9
  6
CONTINUOUS
 10
320.1118446922
 20
223.2344606667
  0
VERTEX
  8
0
 62
9
  6
CONTINUOUS
 10
320.0049273743
 20
223.2343275408
  0
VERTEX
  8
0
 62
9
  6
CONTINUOUS
 10
319.9031922268
 20
223.2342002318
  0
VERTEX
  8
0
 62
9
  6
CONTINUOUS
 10
319.8061957938
 20
223.2340792651
  0
VERTEX
  8
0
 62
9
  6
CONTINUOUS
 10
319.713755586
 20
223.233963595
  0
VERTEX
  8
0
 62
9
  6
CONTINUOUS
 10
319.6255628065
 20
223.2338536237
  0
VERTEX
  8
0
 62
9
  6
CONTINUOUS
 10
319.5415441381
 20
223.2337487185
  0
VERTEX
  8
0
 62
9
  6
CONTINUOUS
 10
319.4615864241
 20
223.2336493383
  0
VERTEX
  8
0
 62
9
  6
CONTINUOUS
 10
319.3854948657
 20
223.2335546134
  0
VERTEX
  8
0
 62
9
  6
CONTINUOUS
 10
319.3131738953
 20
223.2334648673
  0
VERTEX
  8
0
 62
9
  6
CONTINUOUS
 10
319.244207125
 20
223.2333789882
  0
VERTEX
  8
0
 62
9
  6
CONTINUOUS
 10
319.1782620296
 20
223.2332971418
  0
VERTEX
  8
0
 62
9
  6
CONTINUOUS
 10
319.1149843718
 20
223.2332183879
  0
VERTEX
  8
0
 62
9
  6
CONTINUOUS
 10
319.0539772468
 20
223.2331428465
  0
VERTEX
  8
0
 62
9
  6
CONTINUOUS
 10
318.9950300308
 20
223.2330697156
  0
VERTEX
  8
0
 62
9
  6
CONTINUOUS
 10
318.9377539954
 20
223.2329992032
  0
VERTEX
  8
0
 62
9
  6
CONTINUOUS
 10
318.8822824864
 20
223.232929873
  0
SEQEND
  0
LINE
  8
0
 62
9
  6
CONTINUOUS
 10
19.3516380307
 20
223.2481533184
 11
18.3453130802
 21
223.2467671466
  0
POLYLINE
  8
0
 62
9
  6
CONTINUOUS
 66
1
 70
0
  0
VERTEX
  8
0
 62
9
  6
CONTINUOUS
 10
317.0634010569
 20
223.2320856794
  0
VERTEX
  8
0
 62
9
  6
CONTINUOUS
 10
316.9549963387
 20
223.2319578427
  0
VERTEX
  8
0
 62
9
  6
CONTINUOUS
 10
316.9012316804
 20
223.2318960988
  0
VERTEX
  8
0
 62
9
  6
CONTINUOUS
 10
316.8477655775
 20
223.2318357897
  0
VERTEX
  8
0
 62
9
  6
CONTINUOUS
 10
316.7946015745
 20
223.2317769097
  0
VERTEX
  8
0
 62
9
  6
CONTINUOUS
 10
316.7417406594
 20
223.2317194492
  0
VERTEX
  8
0
 62
9
  6
CONTINUOUS
 10
316.6891961608
 20
223.2316634
  0
VERTEX
  8
0
 62
9
  6
CONTINUOUS
 10
316.6369764002
 20
223.2316087431
  0
VERTEX
  8
0
 62
9
  6
CONTINUOUS
 10
316.5850974034
 20
223.2315554764
  0
SEQEND
  0
POLYLINE
  8
0
 62
9
  6
CONTINUOUS
 66
1
 70
0
  0
VERTEX
  8
0
 62
9
  6
CONTINUOUS
 10
331.7992098761
 20
223.2481892709
  0
VERTEX
  8
0
 62
9
  6
CONTINUOUS
 10
331.4888599319
 20
223.2478729103
  0
VERTEX
  8
0
 62
9
  6
CONTINUOUS
 10
331.1773259323
 20
223.2475499013
  0
VERTEX
  8
0
 62
9
  6
CONTINUOUS
 10
330.8646089128
 20
223.2472205967
  0
VERTEX
  8
0
 62
9
  6
CONTINUOUS
 10
330.5507128787
 20
223.2468852682
  0
VERTEX
  8
0
 62
9
  6
CONTINUOUS
 10
330.235642996
 20
223.2465441582
  0
VERTEX
  8
0
 62
9
  6
CONTINUOUS
 10
329.919397195
 20
223.2461975703
  0
VERTEX
  8
0
 62
9
  6
CONTINUOUS
 10
329.6019814038
 20
223.2458458006
  0
VERTEX
  8
0
 62
9
  6
CONTINUOUS
 10
329.2833768812
 20
223.2454890827
  0
VERTEX
  8
0
 62
9
  6
CONTINUOUS
 10
328.9635761028
 20
223.2451278204
  0
VERTEX
  8
0
 62
9
  6
CONTINUOUS
 10
328.6425504421
 20
223.2447621281
  0
VERTEX
  8
0
 62
9
  6
CONTINUOUS
 10
328.3202691754
 20
223.2443924287
  0
VERTEX
  8
0
 62
9
  6
CONTINUOUS
 10
327.9967293195
 20
223.2440188352
  0
VERTEX
  8
0
 62
9
  6
CONTINUOUS
 10
327.6719067113
 20
223.2436415608
  0
VERTEX
  8
0
 62
9
  6
CONTINUOUS
 10
327.3458335143
 20
223.2432609637
  0
VERTEX
  8
0
 62
9
  6
CONTINUOUS
 10
326.6900093905
 20
223.2424904684
  0
SEQEND
  0
LINE
  8
0
 62
9
  6
CONTINUOUS
 10
20.3698940745
 20
223.2493836225
 11
19.3516380307
 21
223.2481533184
  0
POLYLINE
  8
0
 62
9
  6
CONTINUOUS
 66
1
 70
0
  0
VERTEX
  8
0
 62
9
  6
CONTINUOUS
 10
316.5850974034
 20
223.2315554764
  0
VERTEX
  8
0
 62
9
  6
CONTINUOUS
 10
316.4824181234
 20
223.2314530528
  0
VERTEX
  8
0
 62
9
  6
CONTINUOUS
 10
316.4316631039
 20
223.2314038916
  0
VERTEX
  8
0
 62
9
  6
CONTINUOUS
 10
316.3813345472
 20
223.2313561123
  0
VERTEX
  8
0
 62
9
  6
CONTINUOUS
 10
316.3314571172
 20
223.2313097007
  0
VERTEX
  8
0
 62
9
  6
CONTINUOUS
 10
316.2820670132
 20
223.2312646738
  0
VERTEX
  8
0
 62
9
  6
CONTINUOUS
 10
316.2332091875
 20
223.2312210269
  0
VERTEX
  8
0
 62
9
  6
CONTINUOUS
 10
316.1848820963
 20
223.2311787292
  0
VERTEX
  8
0
 62
9
  6
CONTINUOUS
 10
316.1371130638
 20
223.23113777
  0
SEQEND
  0
POLYLINE
  8
0
 62
9
  6
CONTINUOUS
 66
1
 70
0
  0
VERTEX
  8
0
 62
9
  6
CONTINUOUS
 10
333.9392714898
 20
223.2501879934
  0
VERTEX
  8
0
 62
9
  6
CONTINUOUS
 10
333.6369839094
 20
223.2499279554
  0
VERTEX
  8
0
 62
9
  6
CONTINUOUS
 10
333.3335350337
 20
223.2496588985
  0
VERTEX
  8
0
 62
9
  6
CONTINUOUS
 10
333.0289452321
 20
223.2493811286
  0
VERTEX
  8
0
 62
9
  6
CONTINUOUS
 10
332.7232168854
 20
223.2490949046
  0
VERTEX
  8
0
 62
9
  6
CONTINUOUS
 10
332.4163507422
 20
223.2488006233
  0
VERTEX
  8
0
 62
9
  6
CONTINUOUS
 10
331.7992098761
 20
223.2481892709
  0
SEQEND
  0
LINE
  8
0
 62
9
  6
CONTINUOUS
 10
21.3999968114
 20
223.2504530257
 11
20.3698940745
 21
223.2493836225
  0
POLYLINE
  8
0
 62
9
  6
CONTINUOUS
 66
1
 70
0
  0
VERTEX
  8
0
 62
9
  6
CONTINUOUS
 10
316.1371130638
 20
223.23113777
  0
VERTEX
  8
0
 62
9
  6
CONTINUOUS
 10
316.043098931
 20
223.2310595947
  0
VERTEX
  8
0
 62
9
  6
CONTINUOUS
 10
315.9968068114
 20
223.2310222842
  0
VERTEX
  8
0
 62
9
  6
CONTINUOUS
 10
315.9509519272
 20
223.2309860995
  0
VERTEX
  8
0
 62
9
  6
CONTINUOUS
 10
315.9055402949
 20
223.2309510199
  0
VERTEX
  8
0
 62
9
  6
CONTINUOUS
 10
315.8605386604
 20
223.2309169945
  0
VERTEX
  8
0
 62
9
  6
CONTINUOUS
 10
315.816032662
 20
223.2308840919
  0
VERTEX
  8
0
 62
9
  6
CONTINUOUS
 10
315.7720706546
 20
223.2308522991
  0
VERTEX
  8
0
 62
9
  6
CONTINUOUS
 10
315.7287313168
 20
223.2308216811
  0
VERTEX
  8
0
 62
9
  6
CONTINUOUS
 10
315.6861324185
 20
223.2307922789
  0
VERTEX
  8
0
 62
9
  6
CONTINUOUS
 10
315.6442051401
 20
223.2307639952
  0
SEQEND
  0
POLYLINE
  8
0
 62
9
  6
CONTINUOUS
 66
1
 70
0
  0
VERTEX
  8
0
 62
9
  6
CONTINUOUS
 10
335.4345310546
 20
223.2513448478
  0
VERTEX
  8
0
 62
9
  6
CONTINUOUS
 10
335.1376075813
 20
223.251133284
  0
VERTEX
  8
0
 62
9
  6
CONTINUOUS
 10
334.8396245358
 20
223.2509115661
  0
VERTEX
  8
0
 62
9
  6
CONTINUOUS
 10
334.5405729821
 20
223.2506799397
  0
VERTEX
  8
0
 62
9
  6
CONTINUOUS
 10
333.9392714898
 20
223.2501879934
  0
SEQEND
  0
LINE
  8
0
 62
9
  6
CONTINUOUS
 10
22.4430148197
 20
223.2513573886
 11
21.3999968114
 21
223.2504530257
  0
POLYLINE
  8
0
 62
9
  6
CONTINUOUS
 66
1
 70
0
  0
VERTEX
  8
0
 62
9
  6
CONTINUOUS
 10
315.6442051401
 20
223.2307639952
  0
VERTEX
  8
0
 62
9
  6
CONTINUOUS
 10
315.562276707
 20
223.2307106048
  0
VERTEX
  8
0
 62
9
  6
CONTINUOUS
 10
315.5218462987
 20
223.2306851735
  0
VERTEX
  8
0
 62
9
  6
CONTINUOUS
 10
315.4815312138
 20
223.2306603532
  0
VERTEX
  8
0
 62
9
  6
CONTINUOUS
 10
315.4410240434
 20
223.230636006
  0
VERTEX
  8
0
 62
9
  6
CONTINUOUS
 10
315.4005251071
 20
223.2306122622
  0
VERTEX
  8
0
 62
9
  6
CONTINUOUS
 10
315.3599409485
 20
223.2305889904
  0
VERTEX
  8
0
 62
9
  6
CONTINUOUS
 10
315.3198455929
 20
223.2305666701
  0
VERTEX
  8
0
 62
9
  6
CONTINUOUS
 10
315.2807178881
 20
223.2305453687
  0
VERTEX
  8
0
 62
9
  6
CONTINUOUS
 10
315.242750484
 20
223.2305252867
  0
VERTEX
  8
0
 62
9
  6
CONTINUOUS
 10
315.2064969769
 20
223.2305066243
  0
VERTEX
  8
0
 62
9
  6
CONTINUOUS
 10
315.1713536982
 20
223.2304889392
  0
SEQEND
  0
LINE
  8
0
 62
9
  6
CONTINUOUS
 10
314.5171632631
 20
223.2302279624
 11
312.5434855563
 21
223.2286075378
  0
POLYLINE
  8
0
 62
9
  6
CONTINUOUS
 66
1
 70
0
  0
VERTEX
  8
0
 62
9
  6
CONTINUOUS
 10
240.4037149527
 20
223.1996756073
  0
VERTEX
  8
0
 62
9
  6
CONTINUOUS
 10
237.9646352606
 20
223.1981013976
  0
VERTEX
  8
0
 62
9
  6
CONTINUOUS
 10
236.7096119987
 20
223.1975272772
  0
VERTEX
  8
0
 62
9
  6
CONTINUOUS
 10
235.4451335559
 20
223.1972492405
  0
VERTEX
  8
0
 62
9
  6
CONTINUOUS
 10
234.1777947064
 20
223.1973908714
  0
VERTEX
  8
0
 62
9
  6
CONTINUOUS
 10
232.9304896664
 20
223.1979219278
  0
VERTEX
  8
0
 62
9
  6
CONTINUOUS
 10
231.7257670215
 20
223.1987107159
  0
VERTEX
  8
0
 62
9
  6
CONTINUOUS
 10
230.5715288972
 20
223.1997586463
  0
VERTEX
  8
0
 62
9
  6
CONTINUOUS
 10
229.4911094603
 20
223.2009296208
  0
VERTEX
  8
0
 62
9
  6
CONTINUOUS
 10
228.4609628649
 20
223.2021862945
  0
VERTEX
  8
0
 62
9
  6
CONTINUOUS
 10
227.471422941
 20
223.2035370437
  0
VERTEX
  8
0
 62
9
  6
CONTINUOUS
 10
226.5040542995
 20
223.2049144377
  0
VERTEX
  8
0
 62
9
  6
CONTINUOUS
 10
225.5396873121
 20
223.2063801217
  0
VERTEX
  8
0
 62
9
  6
CONTINUOUS
 10
224.570654931
 20
223.2078763914
  0
VERTEX
  8
0
 62
9
  6
CONTINUOUS
 10
223.5798764575
 20
223.2094442855
  0
VERTEX
  8
0
 62
9
  6
CONTINUOUS
 10
222.5762769833
 20
223.2110798837
  0
VERTEX
  8
0
 62
9
  6
CONTINUOUS
 10
221.5613967268
 20
223.2127670521
  0
VERTEX
  8
0
 62
9
  6
CONTINUOUS
 10
220.540346961
 20
223.2145244025
  0
VERTEX
  8
0
 62
9
  6
CONTINUOUS
 10
219.5173702635
 20
223.2163216627
  0
VERTEX
  8
0
 62
9
  6
CONTINUOUS
 10
218.4966829415
 20
223.2181788609
  0
VERTEX
  8
0
 62
9
  6
CONTINUOUS
 10
217.483120153
 20
223.2200600631
  0
VERTEX
  8
0
 62
9
  6
CONTINUOUS
 10
216.4791457015
 20
223.221980149
  0
VERTEX
  8
0
 62
9
  6
CONTINUOUS
 10
215.4890850831
 20
223.2238910924
  0
VERTEX
  8
0
 62
9
  6
CONTINUOUS
 10
214.5123089945
 20
223.2257553622
  0
VERTEX
  8
0
 62
9
  6
CONTINUOUS
 10
213.5495898134
 20
223.2275213094
  0
VERTEX
  8
0
 62
9
  6
CONTINUOUS
 10
212.6010682072
 20
223.2291513473
  0
VERTEX
  8
0
 62
9
  6
CONTINUOUS
 10
211.6670409272
 20
223.2306057719
  0
VERTEX
  8
0
 62
9
  6
CONTINUOUS
 10
210.7478020566
 20
223.2318551349
  0
VERTEX
  8
0
 62
9
  6
CONTINUOUS
 10
209.8437871042
 20
223.2328632049
  0
VERTEX
  8
0
 62
9
  6
CONTINUOUS
 10
208.9548596647
 20
223.2336246642
  0
VERTEX
  8
0
 62
9
  6
CONTINUOUS
 10
208.0816950319
 20
223.2340855222
  0
VERTEX
  8
0
 62
9
  6
CONTINUOUS
 10
207.2223453391
 20
223.2342739558
  0
VERTEX
  8
0
 62
9
  6
CONTINUOUS
 10
206.3756944452
 20
223.2342097303
  0
VERTEX
  8
0
 62
9
  6
CONTINUOUS
 10
205.5398927241
 20
223.233911016
  0
VERTEX
  8
0
 62
9
  6
CONTINUOUS
 10
204.7125154366
 20
223.2334169379
  0
VERTEX
  8
0
 62
9
  6
CONTINUOUS
 10
203.8941337589
 20
223.232744378
  0
VERTEX
  8
0
 62
9
  6
CONTINUOUS
 10
203.0829966094
 20
223.2319231189
  0
VERTEX
  8
0
 62
9
  6
CONTINUOUS
 10
202.2836264487
 20
223.2309845145
  0
VERTEX
  8
0
 62
9
  6
CONTINUOUS
 10
201.4987929824
 20
223.2299590224
  0
VERTEX
  8
0
 62
9
  6
CONTINUOUS
 10
200.7320207918
 20
223.2288518683
  0
VERTEX
  8
0
 62
9
  6
CONTINUOUS
 10
199.9881049145
 20
223.2276673584
  0
VERTEX
  8
0
 62
9
  6
CONTINUOUS
 10
199.2660339992
 20
223.2263911155
  0
VERTEX
  8
0
 62
9
  6
CONTINUOUS
 10
198.5689566924
 20
223.2250419995
  0
VERTEX
  8
0
 62
9
  6
CONTINUOUS
 10
197.8891420536
 20
223.2235972495
  0
VERTEX
  8
0
 62
9
  6
CONTINUOUS
 10
197.2218711985
 20
223.2220591348
  0
VERTEX
  8
0
 62
9
  6
CONTINUOUS
 10
196.5612315596
 20
223.2204107309
  0
VERTEX
  8
0
 62
9
  6
CONTINUOUS
 10
195.9013128524
 20
223.2186383782
  0
VERTEX
  8
0
 62
9
  6
CONTINUOUS
 10
195.2373917486
 20
223.2167305005
  0
VERTEX
  8
0
 62
9
  6
CONTINUOUS
 10
194.5625363158
 20
223.2146583273
  0
VERTEX
  8
0
 62
9
  6
CONTINUOUS
 10
193.8774769678
 20
223.2124360779
  0
VERTEX
  8
0
 62
9
  6
CONTINUOUS
 10
192.4718965409
 20
223.2077280376
  0
SEQEND
  0
POLYLINE
  8
0
 62
9
  6
CONTINUOUS
 66
1
 70
0
  0
VERTEX
  8
0
 62
9
  6
CONTINUOUS
 10
336.9037530136
 20
223.2522434678
  0
VERTEX
  8
0
 62
9
  6
CONTINUOUS
 10
336.6119137781
 20
223.2520855117
  0
VERTEX
  8
0
 62
9
  6
CONTINUOUS
 10
336.3190742293
 20
223.2519164903
  0
VERTEX
  8
0
 62
9
  6
CONTINUOUS
 10
336.025227447
 20
223.2517366327
  0
VERTEX
  8
0
 62
9
  6
CONTINUOUS
 10
335.4345310546
 20
223.2513448478
  0
SEQEND
  0
LINE
  8
0
 62
9
  6
CONTINUOUS
 10
23.4985731228
 20
223.2520910977
 11
22.4430148197
 21
223.2513573886
  0
POLYLINE
  8
0
 62
9
  6
CONTINUOUS
 66
1
 70
0
  0
VERTEX
  8
0
 62
9
  6
CONTINUOUS
 10
315.1713536982
 20
223.2304889392
  0
VERTEX
  8
0
 62
9
  6
CONTINUOUS
 10
315.1031399821
 20
223.2304560589
  0
VERTEX
  8
0
 62
9
  6
CONTINUOUS
 10
315.0690938444
 20
223.2304403312
  0
VERTEX
  8
0
 62
9
  6
CONTINUOUS
 10
315.034728236
 20
223.2304248226
  0
VERTEX
  8
0
 62
9
  6
CONTINUOUS
 10
314.9996344657
 20
223.2304094378
  0
VERTEX
  8
0
 62
9
  6
CONTINUOUS
 10
314.9639584224
 20
223.2303942171
  0
VERTEX
  8
0
 62
9
  6
CONTINUOUS
 10
314.9276881638
 20
223.2303791564
  0
VERTEX
  8
0
 62
9
  6
CONTINUOUS
 10
314.8908884938
 20
223.2303642934
  0
VERTEX
  8
0
 62
9
  6
CONTINUOUS
 10
314.8536512857
 20
223.230349643
  0
VERTEX
  8
0
 62
9
  6
CONTINUOUS
 10
314.815883441
 20
223.2303351868
  0
VERTEX
  8
0
 62
9
  6
CONTINUOUS
 10
314.7776565998
 20
223.2303209897
  0
VERTEX
  8
0
 62
9
  6
CONTINUOUS
 10
314.7385683504
 20
223.2303069249
  0
VERTEX
  8
0
 62
9
  6
CONTINUOUS
 10
314.6984090417
 20
223.2302931523
  0
SEQEND
  0
POLYLINE
  8
0
 62
9
  6
CONTINUOUS
 66
1
 70
0
  0
VERTEX
  8
0
 62
9
  6
CONTINUOUS
 10
312.5434855563
 20
223.2286075378
  0
VERTEX
  8
0
 62
9
  6
CONTINUOUS
 10
310.7277188352
 20
223.2280529623
  0
VERTEX
  8
0
 62
9
  6
CONTINUOUS
 10
309.0216240989
 20
223.2263849317
  0
VERTEX
  8
0
 62
9
  6
CONTINUOUS
 10
307.4156995018
 20
223.2242420295
  0
VERTEX
  8
0
 62
9
  6
CONTINUOUS
 10
305.903810794
 20
223.2220296935
  0
VERTEX
  8
0
 62
9
  6
CONTINUOUS
 10
304.4794482244
 20
223.2195634731
  0
VERTEX
  8
0
 62
9
  6
CONTINUOUS
 10
303.1457310412
 20
223.2172704193
  0
VERTEX
  8
0
 62
9
  6
CONTINUOUS
 10
301.8670164414
 20
223.2147009696
  0
VERTEX
  8
0
 62
9
  6
CONTINUOUS
 10
300.6095017024
 20
223.212212266
  0
VERTEX
  8
0
 62
9
  6
CONTINUOUS
 10
299.36966319
 20
223.2095804888
  0
VERTEX
  8
0
 62
9
  6
CONTINUOUS
 10
298.1333197737
 20
223.2069521838
  0
VERTEX
  8
0
 62
9
  6
CONTINUOUS
 10
296.8982097048
 20
223.2042534517
  0
VERTEX
  8
0
 62
9
  6
CONTINUOUS
 10
295.6587928322
 20
223.2015700918
  0
VERTEX
  8
0
 62
9
  6
CONTINUOUS
 10
294.4105423374
 20
223.1988546353
  0
VERTEX
  8
0
 62
9
  6
CONTINUOUS
 10
293.1463222958
 20
223.1961581598
  0
VERTEX
  8
0
 62
9
  6
CONTINUOUS
 10
291.8682768767
 20
223.1934961811
  0
VERTEX
  8
0
 62
9
  6
CONTINUOUS
 10
290.575101005
 20
223.1908800514
  0
VERTEX
  8
0
 62
9
  6
CONTINUOUS
 10
289.2700151952
 20
223.1883596135
  0
VERTEX
  8
0
 62
9
  6
CONTINUOUS
 10
287.9556532496
 20
223.1859385048
  0
VERTEX
  8
0
 62
9
  6
CONTINUOUS
 10
286.6325428286
 20
223.1836522811
  0
VERTEX
  8
0
 62
9
  6
CONTINUOUS
 10
285.3069213898
 20
223.1815524404
  0
VERTEX
  8
0
 62
9
  6
CONTINUOUS
 10
283.9642973588
 20
223.179588476
  0
VERTEX
  8
0
 62
9
  6
CONTINUOUS
 10
282.5980491879
 20
223.1778949841
  0
VERTEX
  8
0
 62
9
  6
CONTINUOUS
 10
281.1905371167
 20
223.1763891521
  0
VERTEX
  8
0
 62
9
  6
CONTINUOUS
 10
279.7186542153
 20
223.1751984752
  0
VERTEX
  8
0
 62
9
  6
CONTINUOUS
 10
278.1918102224
 20
223.1744100681
  0
VERTEX
  8
0
 62
9
  6
CONTINUOUS
 10
276.5985696366
 20
223.1740317007
  0
VERTEX
  8
0
 62
9
  6
CONTINUOUS
 10
274.9784133125
 20
223.1743468619
  0
VERTEX
  8
0
 62
9
  6
CONTINUOUS
 10
273.3610856278
 20
223.1752468378
  0
VERTEX
  8
0
 62
9
  6
CONTINUOUS
 10
271.7650877155
 20
223.1767700106
  0
VERTEX
  8
0
 62
9
  6
CONTINUOUS
 10
270.2200643009
 20
223.178755875
  0
VERTEX
  8
0
 62
9
  6
CONTINUOUS
 10
268.7228143107
 20
223.1809275588
  0
VERTEX
  8
0
 62
9
  6
CONTINUOUS
 10
267.2793167746
 20
223.1830823615
  0
VERTEX
  8
0
 62
9
  6
CONTINUOUS
 10
265.8914567174
 20
223.1851830591
  0
VERTEX
  8
0
 62
9
  6
CONTINUOUS
 10
264.5621653531
 20
223.1870850098
  0
VERTEX
  8
0
 62
9
  6
CONTINUOUS
 10
263.29435721
 20
223.1887910019
  0
VERTEX
  8
0
 62
9
  6
CONTINUOUS
 10
262.0912380099
 20
223.1902039634
  0
VERTEX
  8
0
 62
9
  6
CONTINUOUS
 10
260.9549448081
 20
223.1913536337
  0
VERTEX
  8
0
 62
9
  6
CONTINUOUS
 10
259.8914740356
 20
223.1921926263
  0
VERTEX
  8
0
 62
9
  6
CONTINUOUS
 10
258.8924971083
 20
223.1927861659
  0
VERTEX
  8
0
 62
9
  6
CONTINUOUS
 10
257.9558403533
 20
223.1932414495
  0
VERTEX
  8
0
 62
9
  6
CONTINUOUS
 10
257.0689249869
 20
223.1935592857
  0
VERTEX
  8
0
 62
9
  6
CONTINUOUS
 10
256.2218000422
 20
223.1938902379
  0
VERTEX
  8
0
 62
9
  6
CONTINUOUS
 10
255.404218616
 20
223.1941913329
  0
VERTEX
  8
0
 62
9
  6
CONTINUOUS
 10
254.6057835389
 20
223.1945710061
  0
VERTEX
  8
0
 62
9
  6
CONTINUOUS
 10
253.8168228313
 20
223.1949963696
  0
VERTEX
  8
0
 62
9
  6
CONTINUOUS
 10
253.0258159872
 20
223.1955561181
  0
VERTEX
  8
0
 62
9
  6
CONTINUOUS
 10
252.2277693293
 20
223.1962178643
  0
VERTEX
  8
0
 62
9
  6
CONTINUOUS
 10
251.4152403323
 20
223.1969892081
  0
VERTEX
  8
0
 62
9
  6
CONTINUOUS
 10
250.5840732133
 20
223.1978102252
  0
VERTEX
  8
0
 62
9
  6
CONTINUOUS
 10
249.7292730554
 20
223.1986696135
  0
VERTEX
  8
0
 62
9
  6
CONTINUOUS
 10
248.8458690559
 20
223.1995010919
  0
VERTEX
  8
0
 62
9
  6
CONTINUOUS
 10
247.9284536897
 20
223.2002737036
  0
VERTEX
  8
0
 62
9
  6
CONTINUOUS
 10
246.9733192104
 20
223.2009064094
  0
VERTEX
  8
0
 62
9
  6
CONTINUOUS
 10
245.9736938619
 20
223.2013197008
  0
VERTEX
  8
0
 62
9
  6
CONTINUOUS
 10
244.9333666174
 20
223.2014709814
  0
VERTEX
  8
0
 62
9
  6
CONTINUOUS
 10
243.8524407426
 20
223.2013312105
  0
VERTEX
  8
0
 62
9
  6
CONTINUOUS
 10
242.7350838095
 20
223.2009659114
  0
VERTEX
  8
0
 62
9
  6
CONTINUOUS
 10
241.5844515504
 20
223.2003838627
  0
VERTEX
  8
0
 62
9
  6
CONTINUOUS
 10
240.4037149527
 20
223.1996756073
  0
SEQEND
  0
POLYLINE
  8
0
 62
9
  6
CONTINUOUS
 66
1
 70
0
  0
VERTEX
  8
0
 62
9
  6
CONTINUOUS
 10
338.3471888414
 20
223.2528653288
  0
VERTEX
  8
0
 62
9
  6
CONTINUOUS
 10
338.060560446
 20
223.252763648
  0
VERTEX
  8
0
 62
9
  6
CONTINUOUS
 10
337.7729257192
 20
223.25265053
  0
VERTEX
  8
0
 62
9
  6
CONTINUOUS
 10
337.4842626448
 20
223.2525261495
  0
VERTEX
  8
0
 62
9
  6
CONTINUOUS
 10
336.9037530136
 20
223.2522434678
  0
SEQEND
  0
LINE
  8
0
 62
9
  6
CONTINUOUS
 10
24.567447793
 20
223.2526493645
 11
23.4985731228
 21
223.2520910977
  0
POLYLINE
  8
0
 62
7
  6
CONTINUOUS
 66
1
 70
0
  0
VERTEX
  8
0
 62
7
  6
CONTINUOUS
 10
313.5211566133
 20
225.379214244
  0
VERTEX
  8
0
 62
7
  6
CONTINUOUS
 10
309.4363323557
 20
225.3773067095
  0
VERTEX
  8
0
 62
7
  6
CONTINUOUS
 10
304.8481780388
 20
225.3726423361
  0
VERTEX
  8
0
 62
7
  6
CONTINUOUS
 10
299.9774485526
 20
225.3650889305
  0
VERTEX
  8
0
 62
7
  6
CONTINUOUS
 10
295.0775056653
 20
225.3557570118
  0
VERTEX
  8
0
 62
7
  6
CONTINUOUS
 10
290.1741152557
 20
225.3461710152
  0
VERTEX
  8
0
 62
7
  6
CONTINUOUS
 10
285.1952012409
 20
225.337977092
  0
VERTEX
  8
0
 62
7
  6
CONTINUOUS
 10
280.0367057757
 20
225.3329213274
  0
VERTEX
  8
0
 62
7
  6
CONTINUOUS
 10
274.7324146726
 20
225.332558433
  0
VERTEX
  8
0
 62
7
  6
CONTINUOUS
 10
269.1834396139
 20
225.3373069815
  0
VERTEX
  8
0
 62
7
  6
CONTINUOUS
 10
263.5573478517
 20
225.3453613455
  0
VERTEX
  8
0
 62
7
  6
CONTINUOUS
 10
257.9058925424
 20
225.352477621
  0
VERTEX
  8
0
 62
7
  6
CONTINUOUS
 10
252.1946038533
 20
225.3522416911
  0
VERTEX
  8
0
 62
7
  6
CONTINUOUS
 10
245.5916950264
 20
225.341445411
  0
VERTEX
  8
0
 62
7
  6
CONTINUOUS
 10
239.2124310548
 20
225.3354787676
  0
VERTEX
  8
0
 62
7
  6
CONTINUOUS
 10
233.2048981607
 20
225.336912578
  0
VERTEX
  8
0
 62
7
  6
CONTINUOUS
 10
227.2336952853
 20
225.3392856598
  0
VERTEX
  8
0
 62
7
  6
CONTINUOUS
 10
220.9752094239
 20
225.3338929238
  0
VERTEX
  8
0
 62
7
  6
CONTINUOUS
 10
214.0688900833
 20
225.3097383934
  0
VERTEX
  8
0
 62
7
  6
CONTINUOUS
 10
206.3504496954
 20
225.2565994925
  0
VERTEX
  8
0
 62
7
  6
CONTINUOUS
 10
197.5954084569
 20
225.186333037
  0
VERTEX
  8
0
 62
7
  6
CONTINUOUS
 10
190.7931621505
 20
225.1714364151
  0
VERTEX
  8
0
 62
7
  6
CONTINUOUS
 10
184.0394232582
 20
225.2040396168
  0
SEQEND
  0
LINE
  8
0
 62
9
  6
CONTINUOUS
 10
314.6984090417
 20
223.2302931523
 11
314.5171632631
 21
223.2302279624
  0
POLYLINE
  8
0
 62
9
  6
CONTINUOUS
 66
1
 70
0
  0
VERTEX
  8
0
 62
9
  6
CONTINUOUS
 10
339.4840728489
 20
223.2531580069
  0
VERTEX
  8
0
 62
9
  6
CONTINUOUS
 10
339.2012521412
 20
223.2531020161
  0
VERTEX
  8
0
 62
9
  6
CONTINUOUS
 10
338.9175094637
 20
223.2530345317
  0
VERTEX
  8
0
 62
9
  6
CONTINUOUS
 10
338.3471888414
 20
223.2528653288
  0
SEQEND
  0
LINE
  8
0
 62
9
  6
CONTINUOUS
 10
25.6502535684
 20
223.253030066
 11
24.567447793
 21
223.2526493645
  0
POLYLINE
  8
0
 62
9
  6
CONTINUOUS
 66
1
 70
0
  0
VERTEX
  8
0
 62
9
  6
CONTINUOUS
 10
340.884818588
 20
223.2532672098
  0
VERTEX
  8
0
 62
9
  6
CONTINUOUS
 10
340.6064215553
 20
223.2532680459
  0
VERTEX
  8
0
 62
9
  6
CONTINUOUS
 10
340.3271584658
 20
223.2532575852
  0
VERTEX
  8
0
 62
9
  6
CONTINUOUS
 10
340.0470162869
 20
223.253235778
  0
VERTEX
  8
0
 62
9
  6
CONTINUOUS
 10
339.4840728489
 20
223.2531580069
  0
SEQEND
  0
POLYLINE
  8
0
 62
9
  6
CONTINUOUS
 66
1
 70
0
  0
VERTEX
  8
0
 62
9
  6
CONTINUOUS
 10
27.0234203532
 20
223.2532550038
  0
VERTEX
  8
0
 62
9
  6
CONTINUOUS
 10
26.7470187607
 20
223.2532323908
  0
VERTEX
  8
0
 62
9
  6
CONTINUOUS
 10
25.6502535684
 20
223.253030066
  0
SEQEND
  0
POLYLINE
  8
0
 62
9
  6
CONTINUOUS
 66
1
 70
0
  0
VERTEX
  8
0
 62
9
  6
CONTINUOUS
 10
374.3242853406
 20
225.3856834825
  0
VERTEX
  8
0
 62
9
  6
CONTINUOUS
 10
374.2925872871
 20
225.385684475
  0
VERTEX
  8
0
 62
9
  6
CONTINUOUS
 10
374.2611919373
 20
225.3839853447
  0
SEQEND
  0
LINE
  8
0
 62
7
  6
CONTINUOUS
 10
355.4721116518
 20
225.4606039837
 11
354.1167236021
 21
225.4605950278
  0
LINE
  8
0
 62
9
  6
CONTINUOUS
 10
28.138284858
 20
223.2532325733
 11
27.0234203532
 21
223.2532550038
  0
POLYLINE
  8
0
 62
9
  6
CONTINUOUS
 66
1
 70
0
  0
VERTEX
  8
0
 62
9
  6
CONTINUOUS
 10
341.9895036315
 20
223.2531524515
  0
VERTEX
  8
0
 62
9
  6
CONTINUOUS
 10
341.7146676772
 20
223.2531978271
  0
VERTEX
  8
0
 62
9
  6
CONTINUOUS
 10
341.4389449867
 20
223.2532320789
  0
VERTEX
  8
0
 62
9
  6
CONTINUOUS
 10
340.884818588
 20
223.2532672098
  0
SEQEND
  0
POLYLINE
  8
0
 62
7
  6
CONTINUOUS
 66
1
 70
0
  0
VERTEX
  8
0
 62
7
  6
CONTINUOUS
 10
93.4035597233
 20
225.3325868123
  0
VERTEX
  8
0
 62
7
  6
CONTINUOUS
 10
88.5140783104
 20
225.3329213274
  0
VERTEX
  8
0
 62
7
  6
CONTINUOUS
 10
83.3555828448
 20
225.337977092
  0
VERTEX
  8
0
 62
7
  6
CONTINUOUS
 10
78.3766688296
 20
225.3461710152
  0
VERTEX
  8
0
 62
7
  6
CONTINUOUS
 10
73.4732784198
 20
225.3557570118
  0
VERTEX
  8
0
 62
7
  6
CONTINUOUS
 10
68.5733355321
 20
225.3650889305
  0
VERTEX
  8
0
 62
7
  6
CONTINUOUS
 10
63.7026060456
 20
225.3726423361
  0
VERTEX
  8
0
 62
7
  6
CONTINUOUS
 10
59.1144517284
 20
225.3773067095
  0
SEQEND
  0
POLYLINE
  8
0
 62
9
  6
CONTINUOUS
 66
1
 70
0
  0
VERTEX
  8
0
 62
9
  6
CONTINUOUS
 10
29.5528240157
 20
223.2529484807
  0
VERTEX
  8
0
 62
9
  6
CONTINUOUS
 10
29.2680356938
 20
223.2530281666
  0
VERTEX
  8
0
 62
9
  6
CONTINUOUS
 10
28.138284858
 20
223.2532325733
  0
SEQEND
  0
POLYLINE
  8
0
 62
9
  6
CONTINUOUS
 66
1
 70
0
  0
VERTEX
  8
0
 62
9
  6
CONTINUOUS
 10
343.0800154796
 20
223.2528594618
  0
VERTEX
  8
0
 62
9
  6
CONTINUOUS
 10
342.8087091086
 20
223.2529494058
  0
VERTEX
  8
0
 62
9
  6
CONTINUOUS
 10
342.5365216366
 20
223.2530282424
  0
VERTEX
  8
0
 62
9
  6
CONTINUOUS
 10
341.9895036315
 20
223.2531524515
  0
SEQEND
  0
POLYLINE
  8
0
 62
7
  6
CONTINUOUS
 66
1
 70
0
  0
VERTEX
  8
0
 62
7
  6
CONTINUOUS
 10
54.6170705357
 20
225.3792783109
  0
VERTEX
  8
0
 62
7
  6
CONTINUOUS
 10
54.0306876867
 20
225.3794744457
  0
VERTEX
  8
0
 62
7
  6
CONTINUOUS
 10
53.2577063538
 20
225.3799528328
  0
VERTEX
  8
0
 62
7
  6
CONTINUOUS
 10
52.4551924573
 20
225.3807183742
  0
VERTEX
  8
0
 62
7
  6
CONTINUOUS
 10
51.6569326401
 20
225.3817578251
  0
VERTEX
  8
0
 62
7
  6
CONTINUOUS
 10
50.8001175443
 20
225.3831867771
  0
VERTEX
  8
0
 62
7
  6
CONTINUOUS
 10
50.2643964669
 20
225.384246963
  0
SEQEND
  0
LINE
  8
0
 62
7
  6
CONTINUOUS
 10
55.0296409403
 20
225.3792785908
 11
54.4433125526
 21
225.3794744091
  0
LINE
  8
0
 62
7
  6
CONTINUOUS
 10
54.6170269525
 20
225.379278324
 11
54.6170705357
 21
225.3792783109
  0
LINE
  8
0
 62
7
  6
CONTINUOUS
 10
55.0296409403
 20
225.3792785908
 11
55.0295903246
 21
225.379278605
  0
POLYLINE
  8
0
 62
7
  6
CONTINUOUS
 66
1
 70
0
  0
VERTEX
  8
0
 62
7
  6
CONTINUOUS
 10
239.3020311057
 20
225.3355625721
  0
VERTEX
  8
0
 62
7
  6
CONTINUOUS
 10
233.6806103915
 20
225.3369084274
  0
VERTEX
  8
0
 62
7
  6
CONTINUOUS
 10
227.7179252717
 20
225.339284694
  0
VERTEX
  8
0
 62
7
  6
CONTINUOUS
 10
227.565125116
 20
225.3391539426
  0
SEQEND
  0
LINE
  8
0
 62
9
  6
CONTINUOUS
 10
30.7018348407
 20
223.2525163581
 11
29.5528240157
 21
223.2529484807
  0
POLYLINE
  8
0
 62
9
  6
CONTINUOUS
 66
1
 70
0
  0
VERTEX
  8
0
 62
9
  6
CONTINUOUS
 10
344.1567240531
 20
223.2523891286
  0
VERTEX
  8
0
 62
9
  6
CONTINUOUS
 10
343.8888002404
 20
223.2525231934
  0
VERTEX
  8
0
 62
9
  6
CONTINUOUS
 10
343.6200510386
 20
223.2526463037
  0
VERTEX
  8
0
 62
9
  6
CONTINUOUS
 10
343.0800154796
 20
223.2528594618
  0
SEQEND
  0
LINE
  8
0
 62
7
  6
CONTINUOUS
 10
59.1144517284
 20
225.3773067095
 11
55.0296274705
 21
225.379214244
  0
LINE
  8
0
 62
9
  6
CONTINUOUS
 10
53.6695273462
 20
223.2301953939
 11
53.2224478249
 21
223.2303725525
  0
LINE
  8
0
 62
9
  6
CONTINUOUS
 10
53.2224478249
 20
223.2303725525
 11
52.7090141221
 21
223.2306271619
  0
POLYLINE
  8
0
 62
9
  6
CONTINUOUS
 66
1
 70
0
  0
VERTEX
  8
0
 62
9
  6
CONTINUOUS
 10
32.160449511
 20
223.2517252395
  0
VERTEX
  8
0
 62
9
  6
CONTINUOUS
 10
31.8667426834
 20
223.2519053307
  0
VERTEX
  8
0
 62
9
  6
CONTINUOUS
 10
30.7018348407
 20
223.2525163581
  0
SEQEND
  0
POLYLINE
  8
0
 62
9
  6
CONTINUOUS
 66
1
 70
0
  0
VERTEX
  8
0
 62
9
  6
CONTINUOUS
 10
345.2198528057
 20
223.2517439332
  0
VERTEX
  8
0
 62
9
  6
CONTINUOUS
 10
344.9553356833
 20
223.2519215475
  0
VERTEX
  8
0
 62
9
  6
CONTINUOUS
 10
344.6899901689
 20
223.2520883456
  0
VERTEX
  8
0
 62
9
  6
CONTINUOUS
 10
344.1567240531
 20
223.2523891286
  0
SEQEND
  0
POLYLINE
  8
0
 62
7
  6
CONTINUOUS
 66
1
 70
0
  0
VERTEX
  8
0
 62
7
  6
CONTINUOUS
 10
54.4433125526
 20
225.3794744091
  0
VERTEX
  8
0
 62
7
  6
CONTINUOUS
 10
53.6668450327
 20
225.3799541962
  0
VERTEX
  8
0
 62
7
  6
CONTINUOUS
 10
52.8496160194
 20
225.3807362845
  0
VERTEX
  8
0
 62
7
  6
CONTINUOUS
 10
52.037276675
 20
225.3818002722
  0
VERTEX
  8
0
 62
7
  6
CONTINUOUS
 10
51.1673156541
 20
225.3832628614
  0
SEQEND
  0
POLYLINE
  8
0
 62
9
  6
CONTINUOUS
 66
1
 70
0
  0
VERTEX
  8
0
 62
9
  6
CONTINUOUS
 10
34.2459514058
 20
223.2501708388
  0
VERTEX
  8
0
 62
9
  6
CONTINUOUS
 10
33.9448389369
 20
223.250422998
  0
VERTEX
  8
0
 62
9
  6
CONTINUOUS
 10
33.6448137475
 20
223.2506654377
  0
VERTEX
  8
0
 62
9
  6
CONTINUOUS
 10
33.3458170655
 20
223.2508980382
  0
VERTEX
  8
0
 62
9
  6
CONTINUOUS
 10
32.160449511
 20
223.2517252395
  0
SEQEND
  0
LINE
  8
0
 62
9
  6
CONTINUOUS
 10
52.7090141221
 20
223.2306271619
 11
52.2249805253
 21
223.2309550421
  0
POLYLINE
  8
0
 62
9
  6
CONTINUOUS
 66
1
 70
0
  0
VERTEX
  8
0
 62
9
  6
CONTINUOUS
 10
346.2698428958
 20
223.2509259739
  0
VERTEX
  8
0
 62
9
  6
CONTINUOUS
 10
346.0085435254
 20
223.2511463752
  0
VERTEX
  8
0
 62
9
  6
CONTINUOUS
 10
345.7464462044
 20
223.2513562699
  0
VERTEX
  8
0
 62
9
  6
CONTINUOUS
 10
345.2198528057
 20
223.2517439332
  0
SEQEND
  0
POLYLINE
  8
0
 62
7
  6
CONTINUOUS
 66
1
 70
0
  0
VERTEX
  8
0
 62
7
  6
CONTINUOUS
 10
275.1472243606
 20
225.3325868123
  0
VERTEX
  8
0
 62
7
  6
CONTINUOUS
 10
269.614676336
 20
225.3373390098
  0
VERTEX
  8
0
 62
7
  6
CONTINUOUS
 10
263.9559474609
 20
225.3454442929
  0
VERTEX
  8
0
 62
7
  6
CONTINUOUS
 10
258.2575414211
 20
225.3525665203
  0
VERTEX
  8
0
 62
7
  6
CONTINUOUS
 10
255.7380784132
 20
225.3523880699
  0
SEQEND
  0
POLYLINE
  8
0
 62
9
  6
CONTINUOUS
 66
1
 70
0
  0
VERTEX
  8
0
 62
9
  6
CONTINUOUS
 10
36.6963430161
 20
223.2478463068
  0
VERTEX
  8
0
 62
9
  6
CONTINUOUS
 10
36.3859890838
 20
223.248163575
  0
VERTEX
  8
0
 62
9
  6
CONTINUOUS
 10
36.0768031647
 20
223.2484738381
  0
VERTEX
  8
0
 62
9
  6
CONTINUOUS
 10
35.7687770369
 20
223.2487768748
  0
VERTEX
  8
0
 62
9
  6
CONTINUOUS
 10
35.4619040128
 20
223.2490722826
  0
VERTEX
  8
0
 62
9
  6
CONTINUOUS
 10
34.2459514058
 20
223.2501708388
  0
SEQEND
  0
LINE
  8
0
 62
9
  6
CONTINUOUS
 10
52.2249805253
 20
223.2309550421
 11
51.7714286871
 21
223.2313407032
  0
POLYLINE
  8
0
 62
9
  6
CONTINUOUS
 66
1
 70
0
  0
VERTEX
  8
0
 62
9
  6
CONTINUOUS
 10
347.3075444432
 20
223.24994039
  0
VERTEX
  8
0
 62
9
  6
CONTINUOUS
 10
347.0492851049
 20
223.2502020464
  0
VERTEX
  8
0
 62
9
  6
CONTINUOUS
 10
346.7902158025
 20
223.2504535692
  0
VERTEX
  8
0
 62
9
  6
CONTINUOUS
 10
346.2698428958
 20
223.2509259739
  0
SEQEND
  0
POLYLINE
  8
0
 62
7
  6
CONTINUOUS
 66
1
 70
0
  0
VERTEX
  8
0
 62
7
  6
CONTINUOUS
 10
129.248752979
 20
225.3355625721
  0
VERTEX
  8
0
 62
7
  6
CONTINUOUS
 10
122.9590890622
 20
225.341445411
  0
VERTEX
  8
0
 62
7
  6
CONTINUOUS
 10
116.3561802347
 20
225.3522416911
  0
VERTEX
  8
0
 62
7
  6
CONTINUOUS
 10
112.8127056753
 20
225.3523880699
  0
SEQEND
  0
LINE
  8
0
 62
7
  6
CONTINUOUS
 10
387.6994144619
 20
225.0831354477
 11
387.6417967246
 21
225.0831102165
  0
POLYLINE
  8
0
 62
9
  6
CONTINUOUS
 66
1
 70
0
  0
VERTEX
  8
0
 62
9
  6
CONTINUOUS
 10
49.2575701742
 20
223.2329298627
  0
VERTEX
  8
0
 62
9
  6
CONTINUOUS
 10
49.1925995534
 20
223.2330114703
  0
VERTEX
  8
0
 62
9
  6
CONTINUOUS
 10
49.0596630123
 20
223.2331764327
  0
SEQEND
  0
POLYLINE
  8
0
 62
9
  6
CONTINUOUS
 66
1
 70
0
  0
VERTEX
  8
0
 62
9
  6
CONTINUOUS
 10
48.8495572324
 20
223.2334368252
  0
VERTEX
  8
0
 62
9
  6
CONTINUOUS
 10
48.6988756955
 20
223.2336245498
  0
VERTEX
  8
0
 62
9
  6
CONTINUOUS
 10
48.6197651494
 20
223.2337234649
  0
VERTEX
  8
0
 62
9
  6
CONTINUOUS
 10
48.537773322
 20
223.2338257492
  0
VERTEX
  8
0
 62
9
  6
CONTINUOUS
 10
48.4527519482
 20
223.2339322158
  0
VERTEX
  8
0
 62
9
  6
CONTINUOUS
 10
48.3640478405
 20
223.2340427107
  0
VERTEX
  8
0
 62
9
  6
CONTINUOUS
 10
48.2711408453
 20
223.2341590289
  0
VERTEX
  8
0
 62
9
  6
CONTINUOUS
 10
48.1734959694
 20
223.2342806169
  0
VERTEX
  8
0
 62
9
  6
CONTINUOUS
 10
48.0704574031
 20
223.2344096685
  0
VERTEX
  8
0
 62
9
  6
CONTINUOUS
 10
47.9618824539
 20
223.2345451714
  0
VERTEX
  8
0
 62
9
  6
CONTINUOUS
 10
47.8476623176
 20
223.2346885769
  0
VERTEX
  8
0
 62
9
  6
CONTINUOUS
 10
47.7270512323
 20
223.2348389291
  0
VERTEX
  8
0
 62
9
  6
CONTINUOUS
 10
47.5994698569
 20
223.2349989751
  0
VERTEX
  8
0
 62
9
  6
CONTINUOUS
 10
47.4643325503
 20
223.2351671765
  0
VERTEX
  8
0
 62
9
  6
CONTINUOUS
 10
47.3208406169
 20
223.2353468493
  0
VERTEX
  8
0
 62
9
  6
CONTINUOUS
 10
47.1690810771
 20
223.2355360241
  0
VERTEX
  8
0
 62
9
  6
CONTINUOUS
 10
47.0090506816
 20
223.2357364941
  0
VERTEX
  8
0
 62
9
  6
CONTINUOUS
 10
46.8402385277
 20
223.2359464361
  0
VERTEX
  8
0
 62
9
  6
CONTINUOUS
 10
46.662497664
 20
223.2361690363
  0
VERTEX
  8
0
 62
9
  6
CONTINUOUS
 10
46.4747615108
 20
223.2364013874
  0
VERTEX
  8
0
 62
9
  6
CONTINUOUS
 10
46.2762962371
 20
223.2366497009
  0
VERTEX
  8
0
 62
9
  6
CONTINUOUS
 10
46.0660098105
 20
223.2369090552
  0
VERTEX
  8
0
 62
9
  6
CONTINUOUS
 10
45.8430866197
 20
223.237187896
  0
VERTEX
  8
0
 62
9
  6
CONTINUOUS
 10
45.6060365677
 20
223.2374787608
  0
VERTEX
  8
0
 62
9
  6
CONTINUOUS
 10
45.3536225595
 20
223.2377934552
  0
VERTEX
  8
0
 62
9
  6
CONTINUOUS
 10
45.0843778168
 20
223.2381216644
  0
VERTEX
  8
0
 62
9
  6
CONTINUOUS
 10
44.7954076235
 20
223.2384752162
  0
VERTEX
  8
0
 62
9
  6
CONTINUOUS
 10
44.4898991875
 20
223.2388503541
  0
VERTEX
  8
0
 62
9
  6
CONTINUOUS
 10
44.1680880586
 20
223.2392360916
  0
VERTEX
  8
0
 62
9
  6
CONTINUOUS
 10
43.8358819482
 20
223.2396469212
  0
VERTEX
  8
0
 62
9
  6
CONTINUOUS
 10
43.4977877757
 20
223.2400490313
  0
VERTEX
  8
0
 62
9
  6
CONTINUOUS
 10
43.1579401178
 20
223.2404665198
  0
VERTEX
  8
0
 62
9
  6
CONTINUOUS
 10
42.8228419971
 20
223.2408704602
  0
VERTEX
  8
0
 62
9
  6
CONTINUOUS
 10
42.4895707234
 20
223.2412687086
  0
VERTEX
  8
0
 62
9
  6
CONTINUOUS
 10
42.1573241952
 20
223.2416653318
  0
VERTEX
  8
0
 62
9
  6
CONTINUOUS
 10
41.8262877751
 20
223.2420587394
  0
VERTEX
  8
0
 62
9
  6
CONTINUOUS
 10
41.4963326018
 20
223.2424492481
  0
VERTEX
  8
0
 62
9
  6
CONTINUOUS
 10
41.1676042995
 20
223.2428370332
  0
VERTEX
  8
0
 62
9
  6
CONTINUOUS
 10
40.8402396512
 20
223.2432216246
  0
VERTEX
  8
0
 62
9
  6
CONTINUOUS
 10
40.5141298307
 20
223.2436029266
  0
VERTEX
  8
0
 62
9
  6
CONTINUOUS
 10
40.1891858199
 20
223.2439810903
  0
VERTEX
  8
0
 62
9
  6
CONTINUOUS
 10
39.8654875528
 20
223.2443558368
  0
VERTEX
  8
0
 62
9
  6
CONTINUOUS
 10
39.543101465
 20
223.2447266538
  0
VERTEX
  8
0
 62
9
  6
CONTINUOUS
 10
39.2219759259
 20
223.2450932667
  0
VERTEX
  8
0
 62
9
  6
CONTINUOUS
 10
38.9020910192
 20
223.2454555589
  0
VERTEX
  8
0
 62
9
  6
CONTINUOUS
 10
38.5834196463
 20
223.2458131261
  0
VERTEX
  8
0
 62
9
  6
CONTINUOUS
 10
38.2659235888
 20
223.2461658571
  0
VERTEX
  8
0
 62
9
  6
CONTINUOUS
 10
36.6963430161
 20
223.2478463068
  0
SEQEND
  0
POLYLINE
  8
0
 62
9
  6
CONTINUOUS
 66
1
 70
0
  0
VERTEX
  8
0
 62
9
  6
CONTINUOUS
 10
49.0596630123
 20
223.2331764327
  0
VERTEX
  8
0
 62
9
  6
CONTINUOUS
 10
48.9913917613
 20
223.2332608373
  0
VERTEX
  8
0
 62
9
  6
CONTINUOUS
 10
48.9214432391
 20
223.2333476761
  0
VERTEX
  8
0
 62
9
  6
CONTINUOUS
 10
48.8495572324
 20
223.2334368252
  0
SEQEND
  0
LINE
  8
0
 62
9
  6
CONTINUOUS
 10
51.7714286871
 20
223.2313407032
 11
51.2865586018
 21
223.2318403665
  0
POLYLINE
  8
0
 62
9
  6
CONTINUOUS
 66
1
 70
0
  0
VERTEX
  8
0
 62
9
  6
CONTINUOUS
 10
184.0375342349
 20
223.1899298537
  0
VERTEX
  8
0
 62
9
  6
CONTINUOUS
 10
182.8848373036
 20
223.1912590831
  0
VERTEX
  8
0
 62
9
  6
CONTINUOUS
 10
181.7936958959
 20
223.1928843437
  0
VERTEX
  8
0
 62
9
  6
CONTINUOUS
 10
180.7662689147
 20
223.1946453214
  0
VERTEX
  8
0
 62
9
  6
CONTINUOUS
 10
179.795758779
 20
223.1965229509
  0
VERTEX
  8
0
 62
9
  6
CONTINUOUS
 10
178.8779483394
 20
223.1985154688
  0
VERTEX
  8
0
 62
9
  6
CONTINUOUS
 10
178.0073560328
 20
223.2005678286
  0
VERTEX
  8
0
 62
9
  6
CONTINUOUS
 10
177.1755496163
 20
223.2026919703
  0
VERTEX
  8
0
 62
9
  6
CONTINUOUS
 10
176.3872553438
 20
223.2048272715
  0
VERTEX
  8
0
 62
9
  6
CONTINUOUS
 10
175.6447451017
 20
223.2069508202
  0
VERTEX
  8
0
 62
9
  6
CONTINUOUS
 10
174.9469882564
 20
223.2090217051
  0
VERTEX
  8
0
 62
9
  6
CONTINUOUS
 10
174.2976765508
 20
223.2110027609
  0
SEQEND
  0
POLYLINE
  8
0
 62
9
  6
CONTINUOUS
 66
1
 70
0
  0
VERTEX
  8
0
 62
9
  6
CONTINUOUS
 10
348.58700805
 20
223.2484820402
  0
VERTEX
  8
0
 62
9
  6
CONTINUOUS
 10
348.3326414784
 20
223.2487937229
  0
VERTEX
  8
0
 62
9
  6
CONTINUOUS
 10
348.0775312674
 20
223.2490953621
  0
VERTEX
  8
0
 62
9
  6
CONTINUOUS
 10
347.8216589918
 20
223.2493870742
  0
VERTEX
  8
0
 62
9
  6
CONTINUOUS
 10
347.3075444432
 20
223.24994039
  0
SEQEND
  0
LINE
  8
0
 62
9
  6
CONTINUOUS
 10
51.2865586018
 20
223.2318403665
 11
50.8384003615
 21
223.2323804784
  0
POLYLINE
  8
0
 62
9
  6
CONTINUOUS
 66
1
 70
0
  0
VERTEX
  8
0
 62
9
  6
CONTINUOUS
 10
349.5973867992
 20
223.2471365949
  0
VERTEX
  8
0
 62
9
  6
CONTINUOUS
 10
349.3458251987
 20
223.247487677
  0
VERTEX
  8
0
 62
9
  6
CONTINUOUS
 10
349.093582105
 20
223.2478289702
  0
VERTEX
  8
0
 62
9
  6
CONTINUOUS
 10
348.58700805
 20
223.2484820402
  0
SEQEND
  0
LINE
  8
0
 62
9
  6
CONTINUOUS
 10
50.8384003615
 20
223.2323804784
 11
50.3696299657
 21
223.2330283584
  0
POLYLINE
  8
0
 62
9
  6
CONTINUOUS
 66
1
 70
0
  0
VERTEX
  8
0
 62
9
  6
CONTINUOUS
 10
350.5966815731
 20
223.245636821
  0
VERTEX
  8
0
 62
9
  6
CONTINUOUS
 10
350.347960832
 20
223.2460259692
  0
VERTEX
  8
0
 62
9
  6
CONTINUOUS
 10
350.0985077945
 20
223.2464056171
  0
VERTEX
  8
0
 62
9
  6
CONTINUOUS
 10
349.5973867992
 20
223.2471365949
  0
SEQEND
  0
POLYLINE
  8
0
 62
9
  6
CONTINUOUS
 66
1
 70
0
  0
VERTEX
  8
0
 62
9
  6
CONTINUOUS
 10
351.5844091978
 20
223.2439850688
  0
VERTEX
  8
0
 62
9
  6
CONTINUOUS
 10
351.3385241046
 20
223.2444123046
  0
VERTEX
  8
0
 62
9
  6
CONTINUOUS
 10
351.0919437169
 20
223.2448300152
  0
VERTEX
  8
0
 62
9
  6
CONTINUOUS
 10
350.5966815731
 20
223.245636821
  0
SEQEND
  0
POLYLINE
  8
0
 62
9
  6
CONTINUOUS
 66
1
 70
0
  0
VERTEX
  8
0
 62
9
  6
CONTINUOUS
 10
50.3696299657
 20
223.2330283584
  0
VERTEX
  8
0
 62
9
  6
CONTINUOUS
 10
49.5126059874
 20
223.2344414223
  0
VERTEX
  8
0
 62
9
  6
CONTINUOUS
 10
49.4489590631
 20
223.2345582686
  0
VERTEX
  8
0
 62
9
  6
CONTINUOUS
 10
49.3848784428
 20
223.234677586
  0
VERTEX
  8
0
 62
9
  6
CONTINUOUS
 10
49.320329842
 20
223.2347993916
  0
VERTEX
  8
0
 62
9
  6
CONTINUOUS
 10
49.2553248838
 20
223.2349239828
  0
SEQEND
  0
POLYLINE
  8
0
 62
9
  6
CONTINUOUS
 66
1
 70
0
  0
VERTEX
  8
0
 62
9
  6
CONTINUOUS
 10
352.561241589
 20
223.2421816719
  0
VERTEX
  8
0
 62
9
  6
CONTINUOUS
 10
352.3179899669
 20
223.2426466583
  0
VERTEX
  8
0
 62
9
  6
CONTINUOUS
 10
352.0741085222
 20
223.2431022296
  0
VERTEX
  8
0
 62
9
  6
CONTINUOUS
 10
351.5844091978
 20
223.2439850688
  0
SEQEND
  0
POLYLINE
  8
0
 62
9
  6
CONTINUOUS
 66
1
 70
0
  0
VERTEX
  8
0
 62
9
  6
CONTINUOUS
 10
353.5280535513
 20
223.2402301572
  0
VERTEX
  8
0
 62
9
  6
CONTINUOUS
 10
353.2872919609
 20
223.2407315384
  0
VERTEX
  8
0
 62
9
  6
CONTINUOUS
 10
353.0459010298
 20
223.2412239843
  0
VERTEX
  8
0
 62
9
  6
CONTINUOUS
 10
352.561241589
 20
223.2421816719
  0
SEQEND
  0
LINE
  8
0
 62
7
  6
CONTINUOUS
 10
51.1673156541
 20
225.3832628614
 11
50.6712573242
 21
225.3842472393
  0
POLYLINE
  8
0
 62
9
  6
CONTINUOUS
 66
1
 70
0
  0
VERTEX
  8
0
 62
9
  6
CONTINUOUS
 10
354.4847781023
 20
223.2381360204
  0
VERTEX
  8
0
 62
9
  6
CONTINUOUS
 10
354.2465472002
 20
223.2386729284
  0
VERTEX
  8
0
 62
9
  6
CONTINUOUS
 10
354.0076784519
 20
223.2392009194
  0
VERTEX
  8
0
 62
9
  6
CONTINUOUS
 10
353.5280535513
 20
223.2402301572
  0
SEQEND
  0
POLYLINE
  8
0
 62
7
  6
CONTINUOUS
 66
1
 70
0
  0
VERTEX
  8
0
 62
7
  6
CONTINUOUS
 10
50.267462866
 20
225.3837373208
  0
VERTEX
  8
0
 62
7
  6
CONTINUOUS
 10
46.7785131966
 20
225.3915173772
  0
VERTEX
  8
0
 62
7
  6
CONTINUOUS
 10
43.3963528198
 20
225.4004717732
  0
VERTEX
  8
0
 62
7
  6
CONTINUOUS
 10
40.4715048308
 20
225.4089147728
  0
VERTEX
  8
0
 62
7
  6
CONTINUOUS
 10
37.7354218023
 20
225.4170486492
  0
VERTEX
  8
0
 62
7
  6
CONTINUOUS
 10
34.9368252706
 20
225.4252763199
  0
VERTEX
  8
0
 62
7
  6
CONTINUOUS
 10
32.1999518742
 20
225.4329465382
  0
VERTEX
  8
0
 62
7
  6
CONTINUOUS
 10
29.5628423156
 20
225.4397641162
  0
VERTEX
  8
0
 62
7
  6
CONTINUOUS
 10
27.0065379646
 20
225.4456680026
  0
VERTEX
  8
0
 62
7
  6
CONTINUOUS
 10
24.5282065837
 20
225.450605489
  0
VERTEX
  8
0
 62
7
  6
CONTINUOUS
 10
22.119717107
 20
225.4545653592
  0
VERTEX
  8
0
 62
7
  6
CONTINUOUS
 10
19.7741598751
 20
225.4575501391
  0
VERTEX
  8
0
 62
7
  6
CONTINUOUS
 10
17.4880033537
 20
225.4595617391
  0
VERTEX
  8
0
 62
7
  6
CONTINUOUS
 10
15.2595114403
 20
225.4605895735
  0
VERTEX
  8
0
 62
7
  6
CONTINUOUS
 10
13.0786724308
 20
225.4606039837
  0
VERTEX
  8
0
 62
7
  6
CONTINUOUS
 10
10.9431442966
 20
225.4595387335
  0
VERTEX
  8
0
 62
7
  6
CONTINUOUS
 10
8.853436757
 20
225.4572954201
  0
VERTEX
  8
0
 62
7
  6
CONTINUOUS
 10
6.7287269885
 20
225.4535754038
  0
VERTEX
  8
0
 62
7
  6
CONTINUOUS
 10
4.9246934741
 20
225.4490636761
  0
VERTEX
  8
0
 62
7
  6
CONTINUOUS
 10
3.8806471575
 20
225.4457962251
  0
VERTEX
  8
0
 62
7
  6
CONTINUOUS
 10
2.9316026284
 20
225.4423602537
  0
VERTEX
  8
0
 62
7
  6
CONTINUOUS
 10
1.9947273645
 20
225.4384971343
  0
VERTEX
  8
0
 62
7
  6
CONTINUOUS
 10
0.0432115743
 20
225.4287983591
  0
VERTEX
  8
0
 62
7
  6
CONTINUOUS
 10
-3.6508980147
 20
225.4037209922
  0
VERTEX
  8
0
 62
7
  6
CONTINUOUS
 10
-5.7738344765
 20
225.3856801485
  0
SEQEND
  0
POLYLINE
  8
0
 62
7
  6
CONTINUOUS
 66
1
 70
0
  0
VERTEX
  8
0
 62
7
  6
CONTINUOUS
 10
50.6726676494
 20
225.383741223
  0
VERTEX
  8
0
 62
7
  6
CONTINUOUS
 10
47.3425813226
 20
225.3911194937
  0
VERTEX
  8
0
 62
7
  6
CONTINUOUS
 10
44.0371126945
 20
225.3997920019
  0
VERTEX
  8
0
 62
7
  6
CONTINUOUS
 10
40.9221776713
 20
225.4087424583
  0
VERTEX
  8
0
 62
7
  6
CONTINUOUS
 10
37.9611203276
 20
225.417528428
  0
VERTEX
  8
0
 62
7
  6
CONTINUOUS
 10
35.1272133758
 20
225.4258282241
  0
VERTEX
  8
0
 62
7
  6
CONTINUOUS
 10
32.3962822932
 20
225.4334312724
  0
VERTEX
  8
0
 62
7
  6
CONTINUOUS
 10
29.7415402136
 20
225.4402316608
  0
VERTEX
  8
0
 62
7
  6
CONTINUOUS
 10
27.1577459278
 20
225.4461270513
  0
VERTEX
  8
0
 62
7
  6
CONTINUOUS
 10
24.6256951265
 20
225.4510753343
  0
VERTEX
  8
0
 62
7
  6
CONTINUOUS
 10
22.1664020036
 20
225.4550052666
  0
VERTEX
  8
0
 62
7
  6
CONTINUOUS
 10
19.7997443224
 20
225.4578893428
  0
VERTEX
  8
0
 62
7
  6
CONTINUOUS
 10
17.5011519841
 20
225.4597726109
  0
VERTEX
  8
0
 62
7
  6
CONTINUOUS
 10
15.2598157587
 20
225.4606577972
  0
VERTEX
  8
0
 62
7
  6
CONTINUOUS
 10
14.3409721563
 20
225.4605956429
  0
SEQEND
  0
POLYLINE
  8
0
 62
7
  6
CONTINUOUS
 66
1
 70
0
  0
VERTEX
  8
0
 62
7
  6
CONTINUOUS
 10
177.4358437381
 20
225.1721410954
  0
VERTEX
  8
0
 62
7
  6
CONTINUOUS
 10
170.9553756367
 20
225.186333037
  0
VERTEX
  8
0
 62
7
  6
CONTINUOUS
 10
162.2003343995
 20
225.2565994924
  0
VERTEX
  8
0
 62
7
  6
CONTINUOUS
 10
154.4818940091
 20
225.3097383934
  0
VERTEX
  8
0
 62
7
  6
CONTINUOUS
 10
147.5755746675
 20
225.3338929238
  0
VERTEX
  8
0
 62
7
  6
CONTINUOUS
 10
141.3170888048
 20
225.3392856598
  0
VERTEX
  8
0
 62
7
  6
CONTINUOUS
 10
140.9856589654
 20
225.3391539426
  0
SEQEND
  0
POLYLINE
  8
0
 62
9
  6
CONTINUOUS
 66
1
 70
0
  0
VERTEX
  8
0
 62
9
  6
CONTINUOUS
 10
355.4312763295
 20
223.2358983906
  0
VERTEX
  8
0
 62
9
  6
CONTINUOUS
 10
355.1956057667
 20
223.2364713604
  0
VERTEX
  8
0
 62
9
  6
CONTINUOUS
 10
354.9593007272
 20
223.237035267
  0
VERTEX
  8
0
 62
9
  6
CONTINUOUS
 10
354.4847781023
 20
223.2381360204
  0
SEQEND
  0
POLYLINE
  8
0
 62
9
  6
CONTINUOUS
 66
1
 70
0
  0
VERTEX
  8
0
 62
9
  6
CONTINUOUS
 10
356.3679356502
 20
223.2335153687
  0
VERTEX
  8
0
 62
9
  6
CONTINUOUS
 10
356.1346236062
 20
223.234124794
  0
VERTEX
  8
0
 62
9
  6
CONTINUOUS
 10
355.9007227493
 20
223.234725273
  0
VERTEX
  8
0
 62
9
  6
CONTINUOUS
 10
355.4312763295
 20
223.2358983906
  0
SEQEND
  0
POLYLINE
  8
0
 62
9
  6
CONTINUOUS
 66
1
 70
0
  0
VERTEX
  8
0
 62
9
  6
CONTINUOUS
 10
357.0640194787
 20
223.2316342724
  0
VERTEX
  8
0
 62
9
  6
CONTINUOUS
 10
356.8326744513
 20
223.2322696353
  0
VERTEX
  8
0
 62
9
  6
CONTINUOUS
 10
356.3679356502
 20
223.2335153687
  0
SEQEND
  0
POLYLINE
  8
0
 62
7
  6
CONTINUOUS
 66
1
 70
0
  0
VERTEX
  8
0
 62
7
  6
CONTINUOUS
 10
387.6417967246
 20
225.0831102165
  0
VERTEX
  8
0
 62
7
  6
CONTINUOUS
 10
387.5818634472
 20
225.083271706
  0
VERTEX
  8
0
 62
7
  6
CONTINUOUS
 10
387.5174849813
 20
225.0836301427
  0
VERTEX
  8
0
 62
7
  6
CONTINUOUS
 10
387.4485419473
 20
225.0842017898
  0
VERTEX
  8
0
 62
7
  6
CONTINUOUS
 10
387.3748432775
 20
225.0850023445
  0
VERTEX
  8
0
 62
7
  6
CONTINUOUS
 10
387.2965319766
 20
225.086042986
  0
VERTEX
  8
0
 62
7
  6
CONTINUOUS
 10
387.21371772
 20
225.0873315852
  0
VERTEX
  8
0
 62
7
  6
CONTINUOUS
 10
387.1256541458
 20
225.088888261
  0
VERTEX
  8
0
 62
7
  6
CONTINUOUS
 10
387.0319255118
 20
225.0907307029
  0
VERTEX
  8
0
 62
7
  6
CONTINUOUS
 10
386.9317693064
 20
225.0928862254
  0
VERTEX
  8
0
 62
7
  6
CONTINUOUS
 10
386.8248351769
 20
225.0953725066
  0
VERTEX
  8
0
 62
7
  6
CONTINUOUS
 10
386.7112996376
 20
225.0981901377
  0
VERTEX
  8
0
 62
7
  6
CONTINUOUS
 10
386.5914298937
 20
225.1013383694
  0
VERTEX
  8
0
 62
7
  6
CONTINUOUS
 10
386.465767869
 20
225.1048028864
  0
VERTEX
  8
0
 62
7
  6
CONTINUOUS
 10
386.3346323174
 20
225.1085676211
  0
VERTEX
  8
0
 62
7
  6
CONTINUOUS
 10
386.1989019828
 20
225.1125996574
  0
VERTEX
  8
0
 62
7
  6
CONTINUOUS
 10
386.0580271864
 20
225.1169051201
  0
VERTEX
  8
0
 62
7
  6
CONTINUOUS
 10
385.9111403531
 20
225.1214990523
  0
VERTEX
  8
0
 62
7
  6
CONTINUOUS
 10
385.7569355358
 20
225.1264136097
  0
VERTEX
  8
0
 62
7
  6
CONTINUOUS
 10
385.5941487189
 20
225.1316794122
  0
VERTEX
  8
0
 62
7
  6
CONTINUOUS
 10
385.4216420653
 20
225.1373223359
  0
SEQEND
  0
POLYLINE
  8
0
 62
9
  6
CONTINUOUS
 66
1
 70
0
  0
VERTEX
  8
0
 62
9
  6
CONTINUOUS
 10
358.2040853473
 20
223.2283426735
  0
VERTEX
  8
0
 62
9
  6
CONTINUOUS
 10
357.9822259907
 20
223.2290047671
  0
VERTEX
  8
0
 62
9
  6
CONTINUOUS
 10
357.7570138395
 20
223.2296646215
  0
VERTEX
  8
0
 62
9
  6
CONTINUOUS
 10
357.526986034
 20
223.2303244298
  0
VERTEX
  8
0
 62
9
  6
CONTINUOUS
 10
357.0640194787
 20
223.2316342724
  0
SEQEND
  0
POLYLINE
  8
0
 62
9
  6
CONTINUOUS
 66
1
 70
0
  0
VERTEX
  8
0
 62
9
  6
CONTINUOUS
 10
174.2976765508
 20
223.2110027609
  0
VERTEX
  8
0
 62
9
  6
CONTINUOUS
 10
173.1029987284
 20
223.2146978358
  0
VERTEX
  8
0
 62
9
  6
CONTINUOUS
 10
172.5372797188
 20
223.2164268448
  0
VERTEX
  8
0
 62
9
  6
CONTINUOUS
 10
171.97420334
 20
223.2180991371
  0
VERTEX
  8
0
 62
9
  6
CONTINUOUS
 10
171.4050038159
 20
223.2197396361
  0
VERTEX
  8
0
 62
9
  6
CONTINUOUS
 10
170.8176030546
 20
223.2213664891
  0
VERTEX
  8
0
 62
9
  6
CONTINUOUS
 10
170.2083298963
 20
223.2229679953
  0
VERTEX
  8
0
 62
9
  6
CONTINUOUS
 10
169.568249855
 20
223.2245583324
  0
VERTEX
  8
0
 62
9
  6
CONTINUOUS
 10
168.9010845851
 20
223.2260929594
  0
VERTEX
  8
0
 62
9
  6
CONTINUOUS
 10
168.2042720081
 20
223.2275662437
  0
VERTEX
  8
0
 62
9
  6
CONTINUOUS
 10
167.4877682488
 20
223.2289370405
  0
VERTEX
  8
0
 62
9
  6
CONTINUOUS
 10
166.7617563184
 20
223.230178668
  0
VERTEX
  8
0
 62
9
  6
CONTINUOUS
 10
166.0230273178
 20
223.2312951724
  0
VERTEX
  8
0
 62
9
  6
CONTINUOUS
 10
165.2721748028
 20
223.2322867395
  0
VERTEX
  8
0
 62
9
  6
CONTINUOUS
 10
164.5079673325
 20
223.2331272951
  0
VERTEX
  8
0
 62
9
  6
CONTINUOUS
 10
163.7294904793
 20
223.2337958432
  0
VERTEX
  8
0
 62
9
  6
CONTINUOUS
 10
162.9363801474
 20
223.2342670659
  0
VERTEX
  8
0
 62
9
  6
CONTINUOUS
 10
162.1276103123
 20
223.2345251773
  0
VERTEX
  8
0
 62
9
  6
CONTINUOUS
 10
161.3042780746
 20
223.2345606981
  0
VERTEX
  8
0
 62
9
  6
CONTINUOUS
 10
160.4668960475
 20
223.2343661953
  0
VERTEX
  8
0
 62
9
  6
CONTINUOUS
 10
159.6162134007
 20
223.2339536537
  0
VERTEX
  8
0
 62
9
  6
CONTINUOUS
 10
158.7531207838
 20
223.2333324021
  0
VERTEX
  8
0
 62
9
  6
CONTINUOUS
 10
157.8777245533
 20
223.2325313426
  0
VERTEX
  8
0
 62
9
  6
CONTINUOUS
 10
156.9911239635
 20
223.2315507242
  0
VERTEX
  8
0
 62
9
  6
CONTINUOUS
 10
156.0911677311
 20
223.2303874003
  0
VERTEX
  8
0
 62
9
  6
CONTINUOUS
 10
155.1769515414
 20
223.2290503667
  0
VERTEX
  8
0
 62
9
  6
CONTINUOUS
 10
154.245857496
 20
223.2275404047
  0
VERTEX
  8
0
 62
9
  6
CONTINUOUS
 10
153.2950174214
 20
223.2258777749
  0
VERTEX
  8
0
 62
9
  6
CONTINUOUS
 10
152.3243263039
 20
223.2240884594
  0
VERTEX
  8
0
 62
9
  6
CONTINUOUS
 10
151.3305471544
 20
223.2221942359
  0
VERTEX
  8
0
 62
9
  6
CONTINUOUS
 10
150.3202378734
 20
223.2202748914
  0
VERTEX
  8
0
 62
9
  6
CONTINUOUS
 10
149.2960261166
 20
223.2183106934
  0
SEQEND
  0
POLYLINE
  8
0
 62
9
  6
CONTINUOUS
 66
1
 70
0
  0
VERTEX
  8
0
 62
9
  6
CONTINUOUS
 10
358.8585546855
 20
223.22633249
  0
VERTEX
  8
0
 62
9
  6
CONTINUOUS
 10
358.6392149105
 20
223.2270150686
  0
VERTEX
  8
0
 62
9
  6
CONTINUOUS
 10
358.2040853473
 20
223.2283426735
  0
SEQEND
  0
POLYLINE
  8
0
 62
9
  6
CONTINUOUS
 66
1
 70
0
  0
VERTEX
  8
0
 62
9
  6
CONTINUOUS
 10
359.5340177991
 20
223.2241560276
  0
VERTEX
  8
0
 62
9
  6
CONTINUOUS
 10
359.3066082775
 20
223.224893925
  0
VERTEX
  8
0
 62
9
  6
CONTINUOUS
 10
358.8585546855
 20
223.22633249
  0
SEQEND
  0
LINE
  8
0
 62
9
  6
CONTINUOUS
 10
360.1956128895
 20
223.2219314882
 11
359.5340177991
 21
223.2241560276
  0
POLYLINE
  8
0
 62
7
  6
CONTINUOUS
 66
1
 70
0
  0
VERTEX
  8
0
 62
7
  6
CONTINUOUS
 10
-19.148630378
 20
225.0831354477
  0
VERTEX
  8
0
 62
7
  6
CONTINUOUS
 10
-19.198369977
 20
225.0833107015
  0
VERTEX
  8
0
 62
7
  6
CONTINUOUS
 10
-19.2461248212
 20
225.0836398066
  0
SEQEND
  0
POLYLINE
  8
0
 62
9
  6
CONTINUOUS
 66
1
 70
0
  0
VERTEX
  8
0
 62
9
  6
CONTINUOUS
 10
361.0265688522
 20
223.2189700379
  0
VERTEX
  8
0
 62
9
  6
CONTINUOUS
 10
360.8117844774
 20
223.2197537014
  0
VERTEX
  8
0
 62
9
  6
CONTINUOUS
 10
360.1956128895
 20
223.2219314882
  0
SEQEND
  0
POLYLINE
  8
0
 62
9
  6
CONTINUOUS
 66
1
 70
0
  0
VERTEX
  8
0
 62
9
  6
CONTINUOUS
 10
361.6895344394
 20
223.2164937772
  0
VERTEX
  8
0
 62
9
  6
CONTINUOUS
 10
361.4673112329
 20
223.2173331438
  0
VERTEX
  8
0
 62
9
  6
CONTINUOUS
 10
361.0265688522
 20
223.2189700379
  0
SEQEND
  0
LINE
  8
0
 62
7
  6
CONTINUOUS
 10
387.6849628559
 20
225.0831510088
 11
387.6324574137
 21
225.0833521067
  0
POLYLINE
  8
0
 62
9
  6
CONTINUOUS
 66
1
 70
0
  0
VERTEX
  8
0
 62
9
  6
CONTINUOUS
 10
362.3472479279
 20
223.2139158538
  0
VERTEX
  8
0
 62
9
  6
CONTINUOUS
 10
362.1282742382
 20
223.2147875783
  0
VERTEX
  8
0
 62
9
  6
CONTINUOUS
 10
361.6895344394
 20
223.2164937772
  0
SEQEND
  0
POLYLINE
  8
0
 62
9
  6
CONTINUOUS
 66
1
 70
0
  0
VERTEX
  8
0
 62
9
  6
CONTINUOUS
 10
363.0013238345
 20
223.2112314811
  0
VERTEX
  8
0
 62
9
  6
CONTINUOUS
 10
362.78384531
 20
223.2121378201
  0
VERTEX
  8
0
 62
9
  6
CONTINUOUS
 10
362.3472479279
 20
223.2139158538
  0
SEQEND
  0
LINE
  8
0
 62
9
  6
CONTINUOUS
 10
363.4344652799
 20
223.2093838861
 11
363.0013238345
 21
223.2112314811
  0
POLYLINE
  8
0
 62
9
  6
CONTINUOUS
 66
1
 70
0
  0
VERTEX
  8
0
 62
9
  6
CONTINUOUS
 10
364.6353716548
 20
223.2039522912
  0
VERTEX
  8
0
 62
9
  6
CONTINUOUS
 10
364.4623152163
 20
223.20476679
  0
VERTEX
  8
0
 62
9
  6
CONTINUOUS
 10
363.4344652799
 20
223.2093838861
  0
SEQEND
  0
POLYLINE
  8
0
 62
9
  6
CONTINUOUS
 66
1
 70
0
  0
VERTEX
  8
0
 62
9
  6
CONTINUOUS
 10
365.0884246779
 20
223.2017806443
  0
VERTEX
  8
0
 62
9
  6
CONTINUOUS
 10
364.9470576208
 20
223.2024646214
  0
VERTEX
  8
0
 62
9
  6
CONTINUOUS
 10
364.6353716548
 20
223.2039522912
  0
SEQEND
  0
LINE
  8
0
 62
7
  6
CONTINUOUS
 10
191.1149403468
 20
225.1721410953
 11
184.5113620579
 21
225.2040404632
  0
POLYLINE
  8
0
 62
9
  6
CONTINUOUS
 66
1
 70
0
  0
VERTEX
  8
0
 62
9
  6
CONTINUOUS
 10
365.6751605884
 20
223.1988542675
  0
VERTEX
  8
0
 62
9
  6
CONTINUOUS
 10
365.5720459996
 20
223.1993784851
  0
VERTEX
  8
0
 62
9
  6
CONTINUOUS
 10
365.4623766024
 20
223.1999293551
  0
VERTEX
  8
0
 62
9
  6
CONTINUOUS
 10
365.3455135505
 20
223.2005142516
  0
VERTEX
  8
0
 62
9
  6
CONTINUOUS
 10
365.0884246779
 20
223.2017806443
  0
SEQEND
  0
POLYLINE
  8
0
 62
9
  6
CONTINUOUS
 66
1
 70
0
  0
VERTEX
  8
0
 62
9
  6
CONTINUOUS
 10
366.1116109899
 20
223.196597116
  0
VERTEX
  8
0
 62
9
  6
CONTINUOUS
 10
366.0332348002
 20
223.1970077932
  0
VERTEX
  8
0
 62
9
  6
CONTINUOUS
 10
365.950905581
 20
223.1974373146
  0
VERTEX
  8
0
 62
9
  6
CONTINUOUS
 10
365.8640357599
 20
223.1978864263
  0
VERTEX
  8
0
 62
9
  6
CONTINUOUS
 10
365.6751605884
 20
223.1988542675
  0
SEQEND
  0
POLYLINE
  8
0
 62
9
  6
CONTINUOUS
 66
1
 70
0
  0
VERTEX
  8
0
 62
9
  6
CONTINUOUS
 10
366.4936026849
 20
223.1945620127
  0
VERTEX
  8
0
 62
9
  6
CONTINUOUS
 10
366.4395053242
 20
223.1948529872
  0
VERTEX
  8
0
 62
9
  6
CONTINUOUS
 10
366.3821568378
 20
223.1951616434
  0
VERTEX
  8
0
 62
9
  6
CONTINUOUS
 10
366.3211265181
 20
223.195487495
  0
VERTEX
  8
0
 62
9
  6
CONTINUOUS
 10
366.2555762136
 20
223.195836611
  0
VERTEX
  8
0
 62
9
  6
CONTINUOUS
 10
366.1116109899
 20
223.196597116
  0
SEQEND
  0
POLYLINE
  8
0
 62
9
  6
CONTINUOUS
 66
1
 70
0
  0
VERTEX
  8
0
 62
9
  6
CONTINUOUS
 10
366.9109261786
 20
223.192272289
  0
VERTEX
  8
0
 62
9
  6
CONTINUOUS
 10
366.8524728599
 20
223.1925975776
  0
VERTEX
  8
0
 62
9
  6
CONTINUOUS
 10
366.7978466769
 20
223.1929004822
  0
VERTEX
  8
0
 62
9
  6
CONTINUOUS
 10
366.7456492566
 20
223.1931873376
  0
VERTEX
  8
0
 62
9
  6
CONTINUOUS
 10
366.6950324658
 20
223.1934657633
  0
VERTEX
  8
0
 62
9
  6
CONTINUOUS
 10
366.6452850465
 20
223.1937373642
  0
VERTEX
  8
0
 62
9
  6
CONTINUOUS
 10
366.4936026849
 20
223.1945620127
  0
SEQEND
  0
LINE
  8
0
 62
9
  6
CONTINUOUS
 10
367.101932386
 20
223.1912008627
 11
366.9109261786
 21
223.192272289
  0
POLYLINE
  8
0
 62
9
  6
CONTINUOUS
 66
1
 70
0
  0
VERTEX
  8
0
 62
9
  6
CONTINUOUS
 10
367.3983994823
 20
223.1895098808
  0
VERTEX
  8
0
 62
9
  6
CONTINUOUS
 10
367.3439178569
 20
223.1898233931
  0
VERTEX
  8
0
 62
9
  6
CONTINUOUS
 10
367.2872108484
 20
223.190148735
  0
VERTEX
  8
0
 62
9
  6
CONTINUOUS
 10
367.2281432341
 20
223.1904855366
  0
VERTEX
  8
0
 62
9
  6
CONTINUOUS
 10
367.101932386
 20
223.1912008627
  0
SEQEND
  0
POLYLINE
  8
0
 62
9
  6
CONTINUOUS
 66
1
 70
0
  0
VERTEX
  8
0
 62
9
  6
CONTINUOUS
 10
367.7793559268
 20
223.1872812328
  0
VERTEX
  8
0
 62
9
  6
CONTINUOUS
 10
367.7183558853
 20
223.1876417236
  0
VERTEX
  8
0
 62
9
  6
CONTINUOUS
 10
367.6602533625
 20
223.1879837734
  0
VERTEX
  8
0
 62
9
  6
CONTINUOUS
 10
367.6059929809
 20
223.1883028147
  0
VERTEX
  8
0
 62
9
  6
CONTINUOUS
 10
367.5538039862
 20
223.1886068508
  0
VERTEX
  8
0
 62
9
  6
CONTINUOUS
 10
367.3983994823
 20
223.1895098808
  0
SEQEND
  0
POLYLINE
  8
0
 62
9
  6
CONTINUOUS
 66
1
 70
0
  0
VERTEX
  8
0
 62
9
  6
CONTINUOUS
 10
368.2299385812
 20
223.1845656012
  0
VERTEX
  8
0
 62
9
  6
CONTINUOUS
 10
368.1683697439
 20
223.184941521
  0
VERTEX
  8
0
 62
9
  6
CONTINUOUS
 10
368.1050839416
 20
223.1853261237
  0
VERTEX
  8
0
 62
9
  6
CONTINUOUS
 10
368.0405978578
 20
223.1857167411
  0
VERTEX
  8
0
 62
9
  6
CONTINUOUS
 10
367.9749126608
 20
223.1861121938
  0
VERTEX
  8
0
 62
9
  6
CONTINUOUS
 10
367.7793559268
 20
223.1872812328
  0
SEQEND
  0
POLYLINE
  8
0
 62
9
  6
CONTINUOUS
 66
1
 70
0
  0
VERTEX
  8
0
 62
9
  6
CONTINUOUS
 10
368.6267285903
 20
223.1820996236
  0
VERTEX
  8
0
 62
9
  6
CONTINUOUS
 10
368.5771156666
 20
223.1824115912
  0
VERTEX
  8
0
 62
9
  6
CONTINUOUS
 10
368.5241213115
 20
223.1827438637
  0
VERTEX
  8
0
 62
9
  6
CONTINUOUS
 10
368.4676511128
 20
223.1830956673
  0
VERTEX
  8
0
 62
9
  6
CONTINUOUS
 10
368.409155627
 20
223.1834603949
  0
VERTEX
  8
0
 62
9
  6
CONTINUOUS
 10
368.3502104986
 20
223.1838253554
  0
VERTEX
  8
0
 62
9
  6
CONTINUOUS
 10
368.2299385812
 20
223.1845656012
  0
SEQEND
  0
POLYLINE
  8
0
 62
9
  6
CONTINUOUS
 66
1
 70
0
  0
VERTEX
  8
0
 62
9
  6
CONTINUOUS
 10
369.0257532371
 20
223.179548327
  0
VERTEX
  8
0
 62
9
  6
CONTINUOUS
 10
368.9881104342
 20
223.1797921042
  0
VERTEX
  8
0
 62
9
  6
CONTINUOUS
 10
368.9501720562
 20
223.1800371214
  0
VERTEX
  8
0
 62
9
  6
CONTINUOUS
 10
368.9118917104
 20
223.1802837614
  0
VERTEX
  8
0
 62
9
  6
CONTINUOUS
 10
368.8732834624
 20
223.1805318488
  0
VERTEX
  8
0
 62
9
  6
CONTINUOUS
 10
368.8344024822
 20
223.1807810585
  0
VERTEX
  8
0
 62
9
  6
CONTINUOUS
 10
368.795079015
 20
223.1810322398
  0
VERTEX
  8
0
 62
9
  6
CONTINUOUS
 10
368.7554692828
 20
223.1812849852
  0
VERTEX
  8
0
 62
9
  6
CONTINUOUS
 10
368.7146475157
 20
223.1815438309
  0
VERTEX
  8
0
 62
9
  6
CONTINUOUS
 10
368.6267285903
 20
223.1820996236
  0
SEQEND
  0
LINE
  8
0
 62
7
  6
CONTINUOUS
 10
387.6324574137
 20
225.0833521067
 11
387.5764268896
 21
225.083713508
  0
POLYLINE
  8
0
 62
9
  6
CONTINUOUS
 66
1
 70
0
  0
VERTEX
  8
0
 62
9
  6
CONTINUOUS
 10
369.4033375644
 20
223.177066705
  0
VERTEX
  8
0
 62
9
  6
CONTINUOUS
 10
369.361818486
 20
223.1773431526
  0
VERTEX
  8
0
 62
9
  6
CONTINUOUS
 10
369.3223981011
 20
223.1776041231
  0
VERTEX
  8
0
 62
9
  6
CONTINUOUS
 10
369.2845113347
 20
223.1778551719
  0
VERTEX
  8
0
 62
9
  6
CONTINUOUS
 10
369.2475653823
 20
223.1780986546
  0
VERTEX
  8
0
 62
9
  6
CONTINUOUS
 10
369.210790044
 20
223.1783407794
  0
VERTEX
  8
0
 62
9
  6
CONTINUOUS
 10
369.1741369432
 20
223.1785811608
  0
VERTEX
  8
0
 62
9
  6
CONTINUOUS
 10
369.1372750642
 20
223.1788223761
  0
VERTEX
  8
0
 62
9
  6
CONTINUOUS
 10
369.1002764298
 20
223.1790638105
  0
VERTEX
  8
0
 62
9
  6
CONTINUOUS
 10
369.0257532371
 20
223.179548327
  0
SEQEND
  0
POLYLINE
  8
0
 62
9
  6
CONTINUOUS
 66
1
 70
0
  0
VERTEX
  8
0
 62
9
  6
CONTINUOUS
 10
369.7770852726
 20
223.1745453353
  0
VERTEX
  8
0
 62
9
  6
CONTINUOUS
 10
369.7145208496
 20
223.1749715636
  0
VERTEX
  8
0
 62
9
  6
CONTINUOUS
 10
369.6550321186
 20
223.1753758163
  0
VERTEX
  8
0
 62
9
  6
CONTINUOUS
 10
369.5986343128
 20
223.1757572759
  0
VERTEX
  8
0
 62
9
  6
CONTINUOUS
 10
369.5452699687
 20
223.1761171156
  0
VERTEX
  8
0
 62
9
  6
CONTINUOUS
 10
369.4949416506
 20
223.1764549498
  0
VERTEX
  8
0
 62
9
  6
CONTINUOUS
 10
369.4033375644
 20
223.177066705
  0
SEQEND
  0
POLYLINE
  8
0
 62
9
  6
CONTINUOUS
 66
1
 70
0
  0
VERTEX
  8
0
 62
9
  6
CONTINUOUS
 10
370.1437679863
 20
223.1720078762
  0
VERTEX
  8
0
 62
9
  6
CONTINUOUS
 10
370.0621823361
 20
223.1725787735
  0
VERTEX
  8
0
 62
9
  6
CONTINUOUS
 10
369.9850782571
 20
223.1731139581
  0
VERTEX
  8
0
 62
9
  6
CONTINUOUS
 10
369.9121119871
 20
223.1736189633
  0
VERTEX
  8
0
 62
9
  6
CONTINUOUS
 10
369.7770852726
 20
223.1745453353
  0
SEQEND
  0
POLYLINE
  8
0
 62
9
  6
CONTINUOUS
 66
1
 70
0
  0
VERTEX
  8
0
 62
9
  6
CONTINUOUS
 10
370.4189473261
 20
223.1700628987
  0
VERTEX
  8
0
 62
9
  6
CONTINUOUS
 10
370.321733708
 20
223.1707533619
  0
VERTEX
  8
0
 62
9
  6
CONTINUOUS
 10
370.1437679863
 20
223.1720078762
  0
SEQEND
  0
LINE
  8
0
 62
9
  6
CONTINUOUS
 10
370.7464299501
 20
223.1677004944
 11
370.4189473261
 21
223.1700628987
  0
POLYLINE
  8
0
 62
9
  6
CONTINUOUS
 66
1
 70
0
  0
VERTEX
  8
0
 62
9
  6
CONTINUOUS
 10
371.1522932472
 20
223.1647020634
  0
VERTEX
  8
0
 62
9
  6
CONTINUOUS
 10
371.0611192108
 20
223.165383891
  0
VERTEX
  8
0
 62
9
  6
CONTINUOUS
 10
370.7464299501
 20
223.1677004944
  0
SEQEND
  0
POLYLINE
  8
0
 62
9
  6
CONTINUOUS
 66
1
 70
0
  0
VERTEX
  8
0
 62
9
  6
CONTINUOUS
 10
371.5969120869
 20
223.1613297792
  0
VERTEX
  8
0
 62
9
  6
CONTINUOUS
 10
371.5328226092
 20
223.1618219092
  0
VERTEX
  8
0
 62
9
  6
CONTINUOUS
 10
371.4650243631
 20
223.1623397666
  0
VERTEX
  8
0
 62
9
  6
CONTINUOUS
 10
371.3934912829
 20
223.1628846718
  0
VERTEX
  8
0
 62
9
  6
CONTINUOUS
 10
371.3177637404
 20
223.1634576527
  0
VERTEX
  8
0
 62
9
  6
CONTINUOUS
 10
371.1522932472
 20
223.1647020634
  0
SEQEND
  0
POLYLINE
  8
0
 62
9
  6
CONTINUOUS
 66
1
 70
0
  0
VERTEX
  8
0
 62
9
  6
CONTINUOUS
 10
371.9537862186
 20
223.1585554669
  0
VERTEX
  8
0
 62
9
  6
CONTINUOUS
 10
371.9085787395
 20
223.1589102605
  0
VERTEX
  8
0
 62
9
  6
CONTINUOUS
 10
371.8634181968
 20
223.1592645043
  0
VERTEX
  8
0
 62
9
  6
CONTINUOUS
 10
371.8167043542
 20
223.159628198
  0
VERTEX
  8
0
 62
9
  6
CONTINUOUS
 10
371.7672017025
 20
223.1600140903
  0
VERTEX
  8
0
 62
9
  6
CONTINUOUS
 10
371.7144897874
 20
223.1604223455
  0
VERTEX
  8
0
 62
9
  6
CONTINUOUS
 10
371.5969120869
 20
223.1613297792
  0
SEQEND
  0
LINE
  8
0
 62
9
  6
CONTINUOUS
 10
372.0848983925
 20
223.1575212559
 11
371.9537862186
 21
223.1585554669
  0
POLYLINE
  8
0
 62
9
  6
CONTINUOUS
 66
1
 70
0
  0
VERTEX
  8
0
 62
9
  6
CONTINUOUS
 10
372.1963212668
 20
223.1566367508
  0
VERTEX
  8
0
 62
9
  6
CONTINUOUS
 10
372.1244724412
 20
223.1572076875
  0
VERTEX
  8
0
 62
9
  6
CONTINUOUS
 10
372.0848983925
 20
223.1575212559
  0
SEQEND
  0
POLYLINE
  8
0
 62
9
  6
CONTINUOUS
 66
1
 70
0
  0
VERTEX
  8
0
 62
9
  6
CONTINUOUS
 10
372.2616375172
 20
223.1561151677
  0
VERTEX
  8
0
 62
9
  6
CONTINUOUS
 10
372.2293612242
 20
223.1563728466
  0
VERTEX
  8
0
 62
9
  6
CONTINUOUS
 10
372.1963212668
 20
223.1566367508
  0
SEQEND
  0
POLYLINE
  8
0
 62
9
  6
CONTINUOUS
 66
1
 70
0
  0
VERTEX
  8
0
 62
9
  6
CONTINUOUS
 10
372.3889764313
 20
223.1550932348
  0
VERTEX
  8
0
 62
9
  6
CONTINUOUS
 10
372.3566255996
 20
223.1553533375
  0
VERTEX
  8
0
 62
9
  6
CONTINUOUS
 10
372.32489952
 20
223.1556083596
  0
VERTEX
  8
0
 62
9
  6
CONTINUOUS
 10
372.2616375172
 20
223.1561151677
  0
SEQEND
  0
POLYLINE
  8
0
 62
9
  6
CONTINUOUS
 66
1
 70
0
  0
VERTEX
  8
0
 62
9
  6
CONTINUOUS
 10
372.7994575414
 20
223.1517515055
  0
VERTEX
  8
0
 62
9
  6
CONTINUOUS
 10
372.7642714188
 20
223.1520406236
  0
VERTEX
  8
0
 62
9
  6
CONTINUOUS
 10
372.730424692
 20
223.1523185653
  0
VERTEX
  8
0
 62
9
  6
CONTINUOUS
 10
372.6973624164
 20
223.1525890252
  0
VERTEX
  8
0
 62
9
  6
CONTINUOUS
 10
372.6647105018
 20
223.1528562906
  0
VERTEX
  8
0
 62
9
  6
CONTINUOUS
 10
372.6318547823
 20
223.1531241375
  0
VERTEX
  8
0
 62
9
  6
CONTINUOUS
 10
372.5979479412
 20
223.153400476
  0
VERTEX
  8
0
 62
9
  6
CONTINUOUS
 10
372.563300982
 20
223.1536823987
  0
VERTEX
  8
0
 62
9
  6
CONTINUOUS
 10
372.527661691
 20
223.1539715344
  0
VERTEX
  8
0
 62
9
  6
CONTINUOUS
 10
372.4918727368
 20
223.1542620646
  0
VERTEX
  8
0
 62
9
  6
CONTINUOUS
 10
372.4566357091
 20
223.1545470174
  0
VERTEX
  8
0
 62
9
  6
CONTINUOUS
 10
372.3889764313
 20
223.1550932348
  0
SEQEND
  0
POLYLINE
  8
0
 62
9
  6
CONTINUOUS
 66
1
 70
0
  0
VERTEX
  8
0
 62
9
  6
CONTINUOUS
 10
373.2760562491
 20
223.1477840271
  0
VERTEX
  8
0
 62
9
  6
CONTINUOUS
 10
373.2411347372
 20
223.1480779119
  0
VERTEX
  8
0
 62
9
  6
CONTINUOUS
 10
373.206866462
 20
223.1483652803
  0
VERTEX
  8
0
 62
9
  6
CONTINUOUS
 10
373.1728704775
 20
223.1486504033
  0
VERTEX
  8
0
 62
9
  6
CONTINUOUS
 10
373.1387177003
 20
223.1489358642
  0
VERTEX
  8
0
 62
9
  6
CONTINUOUS
 10
373.1039172286
 20
223.1492267654
  0
VERTEX
  8
0
 62
9
  6
CONTINUOUS
 10
373.0682620827
 20
223.1495239866
  0
VERTEX
  8
0
 62
9
  6
CONTINUOUS
 10
373.0313070732
 20
223.1498317571
  0
VERTEX
  8
0
 62
9
  6
CONTINUOUS
 10
372.9932677266
 20
223.1501481048
  0
VERTEX
  8
0
 62
9
  6
CONTINUOUS
 10
372.9538981172
 20
223.1504745166
  0
VERTEX
  8
0
 62
9
  6
CONTINUOUS
 10
372.9141383622
 20
223.1508045006
  0
VERTEX
  8
0
 62
9
  6
CONTINUOUS
 10
372.874631922
 20
223.1511308976
  0
VERTEX
  8
0
 62
9
  6
CONTINUOUS
 10
372.7994575414
 20
223.1517515055
  0
SEQEND
  0
POLYLINE
  8
0
 62
9
  6
CONTINUOUS
 66
1
 70
0
  0
VERTEX
  8
0
 62
9
  6
CONTINUOUS
 10
373.6983176418
 20
223.1441969103
  0
VERTEX
  8
0
 62
9
  6
CONTINUOUS
 10
373.6543381231
 20
223.1445729818
  0
VERTEX
  8
0
 62
9
  6
CONTINUOUS
 10
373.6085874737
 20
223.1449647593
  0
VERTEX
  8
0
 62
9
  6
CONTINUOUS
 10
373.5616942848
 20
223.1453635851
  0
VERTEX
  8
0
 62
9
  6
CONTINUOUS
 10
373.5151881648
 20
223.1457604959
  0
VERTEX
  8
0
 62
9
  6
CONTINUOUS
 10
373.4710072809
 20
223.1461357655
  0
VERTEX
  8
0
 62
9
  6
CONTINUOUS
 10
373.4286033117
 20
223.1464953396
  0
VERTEX
  8
0
 62
9
  6
CONTINUOUS
 10
373.3881846034
 20
223.1468378236
  0
VERTEX
  8
0
 62
9
  6
CONTINUOUS
 10
373.3494196155
 20
223.1471654047
  0
VERTEX
  8
0
 62
9
  6
CONTINUOUS
 10
373.2760562491
 20
223.1477840271
  0
SEQEND
  0
LINE
  8
0
 62
9
  6
CONTINUOUS
 10
373.8133795516
 20
223.1432085336
 11
373.6983176418
 21
223.1441969103
  0
POLYLINE
  8
0
 62
9
  6
CONTINUOUS
 66
1
 70
0
  0
VERTEX
  8
0
 62
9
  6
CONTINUOUS
 10
374.2921206665
 20
223.1390520084
  0
VERTEX
  8
0
 62
9
  6
CONTINUOUS
 10
374.253348524
 20
223.1393911727
  0
VERTEX
  8
0
 62
9
  6
CONTINUOUS
 10
374.2128171726
 20
223.1397455857
  0
VERTEX
  8
0
 62
9
  6
CONTINUOUS
 10
374.1704096568
 20
223.1401144328
  0
VERTEX
  8
0
 62
9
  6
CONTINUOUS
 10
374.1277956365
 20
223.1404864401
  0
VERTEX
  8
0
 62
9
  6
CONTINUOUS
 10
374.0865151439
 20
223.1408450022
  0
VERTEX
  8
0
 62
9
  6
CONTINUOUS
 10
374.0468831926
 20
223.141189673
  0
VERTEX
  8
0
 62
9
  6
CONTINUOUS
 10
374.0099335179
 20
223.1415105297
  0
VERTEX
  8
0
 62
9
  6
CONTINUOUS
 10
373.9750688945
 20
223.1418125393
  0
VERTEX
  8
0
 62
9
  6
CONTINUOUS
 10
373.9424336836
 20
223.1420955521
  0
VERTEX
  8
0
 62
9
  6
CONTINUOUS
 10
373.9108281086
 20
223.1423681699
  0
VERTEX
  8
0
 62
9
  6
CONTINUOUS
 10
373.8793639526
 20
223.1426402081
  0
VERTEX
  8
0
 62
9
  6
CONTINUOUS
 10
373.8472265508
 20
223.1429167045
  0
VERTEX
  8
0
 62
9
  6
CONTINUOUS
 10
373.8133795516
 20
223.1432085336
  0
SEQEND
  0
LINE
  8
0
 62
9
  6
CONTINUOUS
 10
374.3952447336
 20
223.138147742
 11
374.2921206665
 21
223.1390520084
  0
LINE
  8
0
 62
9
  6
CONTINUOUS
 10
375.9129487528
 20
223.1246189197
 11
375.8992863948
 21
223.1247409514
  0
POLYLINE
  8
0
 62
9
  6
CONTINUOUS
 66
1
 70
0
  0
VERTEX
  8
0
 62
9
  6
CONTINUOUS
 10
375.2115581117
 20
223.1309047015
  0
VERTEX
  8
0
 62
9
  6
CONTINUOUS
 10
375.1938786808
 20
223.1310627047
  0
VERTEX
  8
0
 62
9
  6
CONTINUOUS
 10
375.1765444258
 20
223.1312177192
  0
VERTEX
  8
0
 62
9
  6
CONTINUOUS
 10
375.1590667593
 20
223.1313737065
  0
VERTEX
  8
0
 62
9
  6
CONTINUOUS
 10
375.1410963392
 20
223.131534352
  0
VERTEX
  8
0
 62
9
  6
CONTINUOUS
 10
375.1222082149
 20
223.1317028526
  0
VERTEX
  8
0
 62
9
  6
CONTINUOUS
 10
375.1017843437
 20
223.1318852585
  0
VERTEX
  8
0
 62
9
  6
CONTINUOUS
 10
375.0800473782
 20
223.1320793375
  0
VERTEX
  8
0
 62
9
  6
CONTINUOUS
 10
375.0568419463
 20
223.1322863891
  0
VERTEX
  8
0
 62
9
  6
CONTINUOUS
 10
375.0326832387
 20
223.132502173
  0
VERTEX
  8
0
 62
9
  6
CONTINUOUS
 10
375.008143826
 20
223.1327211328
  0
VERTEX
  8
0
 62
9
  6
CONTINUOUS
 10
374.9829028845
 20
223.1329460914
  0
VERTEX
  8
0
 62
9
  6
CONTINUOUS
 10
374.9570163708
 20
223.1331768734
  0
VERTEX
  8
0
 62
9
  6
CONTINUOUS
 10
374.9299240936
 20
223.1334177959
  0
VERTEX
  8
0
 62
9
  6
CONTINUOUS
 10
374.9010860642
 20
223.1336745642
  0
VERTEX
  8
0
 62
9
  6
CONTINUOUS
 10
374.8704871981
 20
223.1339466211
  0
VERTEX
  8
0
 62
9
  6
CONTINUOUS
 10
374.8374928376
 20
223.1342394616
  0
VERTEX
  8
0
 62
9
  6
CONTINUOUS
 10
374.8034160348
 20
223.1345426947
  0
VERTEX
  8
0
 62
9
  6
CONTINUOUS
 10
374.7692307669
 20
223.1348455643
  0
VERTEX
  8
0
 62
9
  6
CONTINUOUS
 10
374.7353428429
 20
223.1351462318
  0
VERTEX
  8
0
 62
9
  6
CONTINUOUS
 10
374.7027736966
 20
223.1354349503
  0
VERTEX
  8
0
 62
9
  6
CONTINUOUS
 10
374.6706664207
 20
223.1357188895
  0
VERTEX
  8
0
 62
9
  6
CONTINUOUS
 10
374.6383682753
 20
223.136004495
  0
VERTEX
  8
0
 62
9
  6
CONTINUOUS
 10
374.6062770167
 20
223.1362882445
  0
VERTEX
  8
0
 62
9
  6
CONTINUOUS
 10
374.5744898089
 20
223.1365689182
  0
VERTEX
  8
0
 62
9
  6
CONTINUOUS
 10
374.5432593855
 20
223.136844713
  0
VERTEX
  8
0
 62
9
  6
CONTINUOUS
 10
374.5129550292
 20
223.137112059
  0
VERTEX
  8
0
 62
9
  6
CONTINUOUS
 10
374.4833297564
 20
223.1373730413
  0
VERTEX
  8
0
 62
9
  6
CONTINUOUS
 10
374.4547053422
 20
223.1376254866
  0
VERTEX
  8
0
 62
9
  6
CONTINUOUS
 10
374.4257420224
 20
223.1378796046
  0
VERTEX
  8
0
 62
9
  6
CONTINUOUS
 10
374.3952447336
 20
223.138147742
  0
SEQEND
  0
LINE
  8
0
 62
9
  6
CONTINUOUS
 10
375.2671668506
 20
223.1304071168
 11
375.2115581117
 21
223.1309047015
  0
LINE
  8
0
 62
9
  6
CONTINUOUS
 10
375.3600444219
 20
223.1295756972
 11
375.2863257667
 21
223.1302355378
  0
POLYLINE
  8
0
 62
9
  6
CONTINUOUS
 66
1
 70
0
  0
VERTEX
  8
0
 62
9
  6
CONTINUOUS
 10
375.3948638539
 20
223.1292639096
  0
VERTEX
  8
0
 62
9
  6
CONTINUOUS
 10
375.3775689587
 20
223.1294187557
  0
VERTEX
  8
0
 62
9
  6
CONTINUOUS
 10
375.3600444219
 20
223.1295756972
  0
SEQEND
  0
LINE
  8
0
 62
9
  6
CONTINUOUS
 10
375.2863257667
 20
223.1302355378
 11
375.2671668506
 21
223.1304071168
  0
LINE
  8
0
 62
9
  6
CONTINUOUS
 10
375.9395853186
 20
223.1243804808
 11
375.9129487528
 21
223.1246189197
  0
POLYLINE
  8
0
 62
9
  6
CONTINUOUS
 66
1
 70
0
  0
VERTEX
  8
0
 62
9
  6
CONTINUOUS
 10
375.595102198
 20
223.1274690967
  0
VERTEX
  8
0
 62
9
  6
CONTINUOUS
 10
375.5462036451
 20
223.1279073831
  0
VERTEX
  8
0
 62
9
  6
CONTINUOUS
 10
375.5296554888
 20
223.1280557305
  0
VERTEX
  8
0
 62
9
  6
CONTINUOUS
 10
375.5130245971
 20
223.128204853
  0
VERTEX
  8
0
 62
9
  6
CONTINUOUS
 10
375.4796026435
 20
223.1285045741
  0
SEQEND
  0
POLYLINE
  8
0
 62
9
  6
CONTINUOUS
 66
1
 70
0
  0
VERTEX
  8
0
 62
9
  6
CONTINUOUS
 10
375.8992863948
 20
223.1247409514
  0
VERTEX
  8
0
 62
9
  6
CONTINUOUS
 10
375.8719369296
 20
223.1249858123
  0
VERTEX
  8
0
 62
9
  6
CONTINUOUS
 10
375.8584217138
 20
223.1251071034
  0
VERTEX
  8
0
 62
9
  6
CONTINUOUS
 10
375.8451470639
 20
223.1252261739
  0
VERTEX
  8
0
 62
9
  6
CONTINUOUS
 10
375.8319053689
 20
223.125344907
  0
VERTEX
  8
0
 62
9
  6
CONTINUOUS
 10
375.8184418529
 20
223.1254657174
  0
VERTEX
  8
0
 62
9
  6
CONTINUOUS
 10
375.8050281993
 20
223.1255861858
  0
SEQEND
  0
POLYLINE
  8
0
 62
9
  6
CONTINUOUS
 66
1
 70
0
  0
VERTEX
  8
0
 62
9
  6
CONTINUOUS
 10
375.4796026435
 20
223.1285045741
  0
VERTEX
  8
0
 62
9
  6
CONTINUOUS
 10
375.4628032859
 20
223.1286551922
  0
VERTEX
  8
0
 62
9
  6
CONTINUOUS
 10
375.4459375192
 20
223.1288063658
  0
VERTEX
  8
0
 62
9
  6
CONTINUOUS
 10
375.4290077245
 20
223.1289580712
  0
VERTEX
  8
0
 62
9
  6
CONTINUOUS
 10
375.3948638539
 20
223.1292639096
  0
SEQEND
  0
POLYLINE
  8
0
 62
9
  6
CONTINUOUS
 66
1
 70
0
  0
VERTEX
  8
0
 62
9
  6
CONTINUOUS
 10
375.8050281993
 20
223.1255861858
  0
VERTEX
  8
0
 62
9
  6
CONTINUOUS
 10
375.7789124853
 20
223.125820625
  0
VERTEX
  8
0
 62
9
  6
CONTINUOUS
 10
375.7663982587
 20
223.1259328932
  0
VERTEX
  8
0
 62
9
  6
CONTINUOUS
 10
375.7541417959
 20
223.1260427645
  0
VERTEX
  8
0
 62
9
  6
CONTINUOUS
 10
375.7421696616
 20
223.1261501502
  0
VERTEX
  8
0
 62
9
  6
CONTINUOUS
 10
375.7300872387
 20
223.1262583749
  0
VERTEX
  8
0
 62
9
  6
CONTINUOUS
 10
375.7175983883
 20
223.1263704199
  0
VERTEX
  8
0
 62
9
  6
CONTINUOUS
 10
375.7044309692
 20
223.126488413
  0
VERTEX
  8
0
 62
9
  6
CONTINUOUS
 10
375.6900604908
 20
223.1266172607
  0
VERTEX
  8
0
 62
9
  6
CONTINUOUS
 10
375.674944222
 20
223.1267529282
  0
VERTEX
  8
0
 62
9
  6
CONTINUOUS
 10
375.6593013493
 20
223.1268932179
  0
VERTEX
  8
0
 62
9
  6
CONTINUOUS
 10
375.6433241149
 20
223.1270366242
  0
VERTEX
  8
0
 62
9
  6
CONTINUOUS
 10
375.6272810719
 20
223.1271805081
  0
VERTEX
  8
0
 62
9
  6
CONTINUOUS
 10
375.6111652749
 20
223.1273250571
  0
VERTEX
  8
0
 62
9
  6
CONTINUOUS
 10
375.595102198
 20
223.1274690967
  0
SEQEND
  0
LINE
  8
0
 62
9
  6
CONTINUOUS
 10
376.2541848489
 20
223.1214967837
 11
375.9395853186
 21
223.1243804808
  0
LINE
  8
0
 62
9
  6
CONTINUOUS
 10
376.5664835163
 20
223.1184938613
 11
376.2541848489
 21
223.1214967837
  0
LINE
  8
0
 62
9
  6
CONTINUOUS
 10
376.877708373
 20
223.1153593206
 11
376.5664835163
 21
223.1184938613
  0
POLYLINE
  8
0
 62
7
  6
CONTINUOUS
 66
1
 70
0
  0
VERTEX
  8
0
 62
7
  6
CONTINUOUS
 10
-19.2461248212
 20
225.0836398066
  0
VERTEX
  8
0
 62
7
  6
CONTINUOUS
 10
-19.2901323387
 20
225.0840997725
  0
VERTEX
  8
0
 62
7
  6
CONTINUOUS
 10
-19.3304717528
 20
225.0846735315
  0
VERTEX
  8
0
 62
7
  6
CONTINUOUS
 10
-19.367252558
 20
225.0853438703
  0
SEQEND
  0
LINE
  8
0
 62
9
  6
CONTINUOUS
 10
377.1889790498
 20
223.1120760118
 11
376.877708373
 21
223.1153593206
  0
POLYLINE
  8
0
 62
9
  6
CONTINUOUS
 66
1
 70
0
  0
VERTEX
  8
0
 62
9
  6
CONTINUOUS
 10
377.6582232238
 20
223.1068330591
  0
VERTEX
  8
0
 62
9
  6
CONTINUOUS
 10
377.5013347448
 20
223.108625869
  0
VERTEX
  8
0
 62
9
  6
CONTINUOUS
 10
377.1889790498
 20
223.1120760118
  0
SEQEND
  0
LINE
  8
0
 62
9
  6
CONTINUOUS
 10
55.0432496923
 20
225.3790150836
 11
55.0296409403
 21
225.3792785908
  0
LINE
  8
0
 62
7
  6
CONTINUOUS
 10
-19.367252558
 20
225.0853438703
 11
-19.4005200511
 21
225.0860919867
  0
LINE
  8
0
 62
7
  6
CONTINUOUS
 10
-19.4005200511
 20
225.0860919867
 11
-19.4108525935
 21
225.0863714571
  0
POLYLINE
  8
0
 62
9
  6
CONTINUOUS
 66
1
 70
0
  0
VERTEX
  8
0
 62
9
  6
CONTINUOUS
 10
-14.2013102321
 20
221.2323951609
  0
VERTEX
  8
0
 62
9
  6
CONTINUOUS
 10
-14.2186484785
 20
221.2312998303
  0
VERTEX
  8
0
 62
9
  6
CONTINUOUS
 10
-14.2353240813
 20
221.2301923948
  0
VERTEX
  8
0
 62
9
  6
CONTINUOUS
 10
-14.2513448112
 20
221.2290733548
  0
VERTEX
  8
0
 62
9
  6
CONTINUOUS
 10
-14.2667088113
 20
221.2279431439
  0
VERTEX
  8
0
 62
9
  6
CONTINUOUS
 10
-14.2814172545
 20
221.226802283
  0
VERTEX
  8
0
 62
9
  6
CONTINUOUS
 10
-14.2954679633
 20
221.2256514471
  0
VERTEX
  8
0
 62
9
  6
CONTINUOUS
 10
-14.3088594028
 20
221.2244912324
  0
VERTEX
  8
0
 62
9
  6
CONTINUOUS
 10
-14.3215913057
 20
221.2233221478
  0
VERTEX
  8
0
 62
9
  6
CONTINUOUS
 10
-14.3336635461
 20
221.2221446649
  0
VERTEX
  8
0
 62
9
  6
CONTINUOUS
 10
-14.3450741027
 20
221.2209595244
  0
VERTEX
  8
0
 62
9
  6
CONTINUOUS
 10
-14.3558204489
 20
221.219767454
  0
VERTEX
  8
0
 62
9
  6
CONTINUOUS
 10
-14.3659049275
 20
221.2185684775
  0
VERTEX
  8
0
 62
9
  6
CONTINUOUS
 10
-14.3753273711
 20
221.2173633781
  0
VERTEX
  8
0
 62
9
  6
CONTINUOUS
 10
-14.3840909041
 20
221.2161515638
  0
VERTEX
  8
0
 62
9
  6
CONTINUOUS
 10
-14.3921971816
 20
221.2149336188
  0
VERTEX
  8
0
 62
9
  6
CONTINUOUS
 10
-14.3996457263
 20
221.2137092049
  0
VERTEX
  8
0
 62
9
  6
CONTINUOUS
 10
-14.4040228095
 20
221.2129161269
  0
SEQEND
  0
POLYLINE
  8
0
 62
7
  6
CONTINUOUS
 66
1
 70
0
  0
VERTEX
  8
0
 62
7
  6
CONTINUOUS
 10
-16.7461776727
 20
225.1456221209
  0
VERTEX
  8
0
 62
7
  6
CONTINUOUS
 10
-17.0835701426
 20
225.1343062185
  0
VERTEX
  8
0
 62
7
  6
CONTINUOUS
 10
-17.238966678
 20
225.1291519925
  0
VERTEX
  8
0
 62
7
  6
CONTINUOUS
 10
-17.3860949234
 20
225.1243275955
  0
VERTEX
  8
0
 62
7
  6
CONTINUOUS
 10
-17.5257560059
 20
225.1198142739
  0
VERTEX
  8
0
 62
7
  6
CONTINUOUS
 10
-17.6587420256
 20
225.1155951666
  0
VERTEX
  8
0
 62
7
  6
CONTINUOUS
 10
-17.785571425
 20
225.1116614671
  0
VERTEX
  8
0
 62
7
  6
CONTINUOUS
 10
-17.9069879284
 20
225.1079953314
  0
VERTEX
  8
0
 62
7
  6
CONTINUOUS
 10
-18.0231498128
 20
225.1045946217
  0
VERTEX
  8
0
 62
7
  6
CONTINUOUS
 10
-18.1345230749
 20
225.1014501069
  0
VERTEX
  8
0
 62
7
  6
CONTINUOUS
 10
-18.2404878997
 20
225.0985834035
  0
VERTEX
  8
0
 62
7
  6
CONTINUOUS
 10
-18.3409381306
 20
225.0959962124
  0
VERTEX
  8
0
 62
7
  6
CONTINUOUS
 10
-18.4359250398
 20
225.0936821446
  0
VERTEX
  8
0
 62
7
  6
CONTINUOUS
 10
-18.5253746612
 20
225.0916385448
  0
VERTEX
  8
0
 62
7
  6
CONTINUOUS
 10
-18.6095176782
 20
225.0898544716
  0
VERTEX
  8
0
 62
7
  6
CONTINUOUS
 10
-18.6888267891
 20
225.088310994
  0
VERTEX
  8
0
 62
7
  6
CONTINUOUS
 10
-18.7639918892
 20
225.08698732
  0
VERTEX
  8
0
 62
7
  6
CONTINUOUS
 10
-18.8350645833
 20
225.0858760032
  0
VERTEX
  8
0
 62
7
  6
CONTINUOUS
 10
-18.9023833317
 20
225.0849651205
  0
VERTEX
  8
0
 62
7
  6
CONTINUOUS
 10
-18.9659476232
 20
225.0842470938
  0
VERTEX
  8
0
 62
7
  6
CONTINUOUS
 10
-19.0256428058
 20
225.083713508
  0
VERTEX
  8
0
 62
7
  6
CONTINUOUS
 10
-19.0816733298
 20
225.0833521067
  0
VERTEX
  8
0
 62
7
  6
CONTINUOUS
 10
-19.134178772
 20
225.0831510088
  0
VERTEX
  8
0
 62
7
  6
CONTINUOUS
 10
-19.1832864934
 20
225.083098131
  0
VERTEX
  8
0
 62
7
  6
CONTINUOUS
 10
-19.2291266264
 20
225.0831816094
  0
VERTEX
  8
0
 62
7
  6
CONTINUOUS
 10
-19.2718031779
 20
225.0833896819
  0
VERTEX
  8
0
 62
7
  6
CONTINUOUS
 10
-19.3114272498
 20
225.0837106251
  0
VERTEX
  8
0
 62
7
  6
CONTINUOUS
 10
-19.3480512355
 20
225.0841321327
  0
VERTEX
  8
0
 62
7
  6
CONTINUOUS
 10
-19.3817545622
 20
225.0846417536
  0
VERTEX
  8
0
 62
7
  6
CONTINUOUS
 10
-19.4125553365
 20
225.085225507
  0
VERTEX
  8
0
 62
7
  6
CONTINUOUS
 10
-19.4404915419
 20
225.0858688338
  0
VERTEX
  8
0
 62
7
  6
CONTINUOUS
 10
-19.4655755587
 20
225.0865557091
  0
VERTEX
  8
0
 62
7
  6
CONTINUOUS
 10
-19.4878321153
 20
225.0872689456
  0
VERTEX
  8
0
 62
7
  6
CONTINUOUS
 10
-19.5072587221
 20
225.0879886956
  0
VERTEX
  8
0
 62
7
  6
CONTINUOUS
 10
-19.5238826327
 20
225.0886940823
  0
VERTEX
  8
0
 62
7
  6
CONTINUOUS
 10
-19.5376294829
 20
225.0893571513
  0
VERTEX
  8
0
 62
7
  6
CONTINUOUS
 10
-19.5484611221
 20
225.0899477276
  0
VERTEX
  8
0
 62
7
  6
CONTINUOUS
 10
-19.5562088301
 20
225.090423059
  0
VERTEX
  8
0
 62
7
  6
CONTINUOUS
 10
-19.5582953545
 20
225.0905621103
  0
SEQEND
  0
LINE
  8
0
 62
9
  6
CONTINUOUS
 10
-18.1319962338
 20
222.9209914175
 11
-18.8212253491
 21
222.9002892275
  0
POLYLINE
  8
0
 62
9
  6
CONTINUOUS
 66
1
 70
0
  0
VERTEX
  8
0
 62
9
  6
CONTINUOUS
 10
-18.8212253491
 20
222.9002892275
  0
VERTEX
  8
0
 62
9
  6
CONTINUOUS
 10
-19.006384605
 20
222.8948313079
  0
VERTEX
  8
0
 62
9
  6
CONTINUOUS
 10
-19.1741870386
 20
222.8898870858
  0
VERTEX
  8
0
 62
9
  6
CONTINUOUS
 10
-19.3277871086
 20
222.8854911672
  0
VERTEX
  8
0
 62
9
  6
CONTINUOUS
 10
-19.4679273095
 20
222.8815407406
  0
VERTEX
  8
0
 62
9
  6
CONTINUOUS
 10
-19.5958741384
 20
222.8780407123
  0
VERTEX
  8
0
 62
9
  6
CONTINUOUS
 10
-19.7125187507
 20
222.8749178777
  0
VERTEX
  8
0
 62
9
  6
CONTINUOUS
 10
-19.9153569645
 20
222.8697399517
  0
SEQEND
  0
POLYLINE
  8
0
 62
9
  6
CONTINUOUS
 66
1
 70
0
  0
VERTEX
  8
0
 62
9
  6
CONTINUOUS
 10
-11.0549178887
 20
225.3082585728
  0
VERTEX
  8
0
 62
9
  6
CONTINUOUS
 10
-11.0721874271
 20
225.3077930438
  0
VERTEX
  8
0
 62
9
  6
CONTINUOUS
 10
-11.2421678737
 20
225.2947139055
  0
VERTEX
  8
0
 62
9
  6
CONTINUOUS
 10
-11.4103692423
 20
225.2663147089
  0
VERTEX
  8
0
 62
9
  6
CONTINUOUS
 10
-11.5754838714
 20
225.2228148276
  0
VERTEX
  8
0
 62
9
  6
CONTINUOUS
 10
-11.7362382876
 20
225.1645497161
  0
VERTEX
  8
0
 62
9
  6
CONTINUOUS
 10
-11.8913926199
 20
225.0919686464
  0
VERTEX
  8
0
 62
9
  6
CONTINUOUS
 10
-12.0397504753
 20
225.0056310488
  0
VERTEX
  8
0
 62
9
  6
CONTINUOUS
 10
-12.180166536
 20
224.9062032327
  0
VERTEX
  8
0
 62
9
  6
CONTINUOUS
 10
-12.3115570065
 20
224.7944526848
  0
VERTEX
  8
0
 62
9
  6
CONTINUOUS
 10
-12.4329085872
 20
224.671241385
  0
VERTEX
  8
0
 62
9
  6
CONTINUOUS
 10
-12.5432851814
 20
224.5375199066
  0
VERTEX
  8
0
 62
9
  6
CONTINUOUS
 10
-12.6418355033
 20
224.3943196965
  0
VERTEX
  8
0
 62
9
  6
CONTINUOUS
 10
-12.7277994681
 20
224.2427452556
  0
VERTEX
  8
0
 62
9
  6
CONTINUOUS
 10
-12.8005138868
 20
224.0839659677
  0
VERTEX
  8
0
 62
9
  6
CONTINUOUS
 10
-12.8594178516
 20
223.9192067334
  0
VERTEX
  8
0
 62
9
  6
CONTINUOUS
 10
-12.9040570065
 20
223.7497385815
  0
VERTEX
  8
0
 62
9
  6
CONTINUOUS
 10
-12.9340870595
 20
223.5768688297
  0
VERTEX
  8
0
 62
9
  6
CONTINUOUS
 10
-12.9492764136
 20
223.4019311733
  0
VERTEX
  8
0
 62
9
  6
CONTINUOUS
 10
-12.9495079797
 20
223.2262752788
  0
VERTEX
  8
0
 62
9
  6
CONTINUOUS
 10
-12.9347802034
 20
223.0512560918
  0
SEQEND
  0
POLYLINE
  8
0
 62
9
  6
CONTINUOUS
 66
1
 70
0
  0
VERTEX
  8
0
 62
9
  6
CONTINUOUS
 10
-19.9153569645
 20
222.8697399517
  0
VERTEX
  8
0
 62
9
  6
CONTINUOUS
 10
-20.015179629
 20
222.8673546213
  0
VERTEX
  8
0
 62
9
  6
CONTINUOUS
 10
-20.1165792721
 20
222.8649883686
  0
VERTEX
  8
0
 62
9
  6
CONTINUOUS
 10
-20.2221372288
 20
222.8626871764
  0
VERTEX
  8
0
 62
9
  6
CONTINUOUS
 10
-20.3303649028
 20
222.8604827848
  0
VERTEX
  8
0
 62
9
  6
CONTINUOUS
 10
-20.440517142
 20
222.8584533809
  0
VERTEX
  8
0
 62
9
  6
CONTINUOUS
 10
-20.5526371701
 20
222.8566014825
  0
VERTEX
  8
0
 62
9
  6
CONTINUOUS
 10
-20.6666278537
 20
222.8550205759
  0
VERTEX
  8
0
 62
9
  6
CONTINUOUS
 10
-20.7813929814
 20
222.8537564652
  0
VERTEX
  8
0
 62
9
  6
CONTINUOUS
 10
-20.8958984108
 20
222.8529114773
  0
VERTEX
  8
0
 62
9
  6
CONTINUOUS
 10
-21.009546096
 20
222.8525075627
  0
VERTEX
  8
0
 62
9
  6
CONTINUOUS
 10
-21.1213290301
 20
222.852681383
  0
VERTEX
  8
0
 62
9
  6
CONTINUOUS
 10
-21.2307209828
 20
222.8534150952
  0
VERTEX
  8
0
 62
9
  6
CONTINUOUS
 10
-21.3367191351
 20
222.8549204723
  0
VERTEX
  8
0
 62
9
  6
CONTINUOUS
 10
-21.4380763685
 20
222.8571655061
  0
VERTEX
  8
0
 62
9
  6
CONTINUOUS
 10
-21.5352253856
 20
222.860246712
  0
VERTEX
  8
0
 62
9
  6
CONTINUOUS
 10
-21.6202739206
 20
222.8645665742
  0
VERTEX
  8
0
 62
9
  6
CONTINUOUS
 10
-21.6887492808
 20
222.8692920971
  0
VERTEX
  8
0
 62
9
  6
CONTINUOUS
 10
-21.7433735696
 20
222.8743174177
  0
SEQEND
  0
POLYLINE
  8
0
 62
7
  6
CONTINUOUS
 66
1
 70
0
  0
VERTEX
  8
0
 62
7
  6
CONTINUOUS
 10
-11.054705407
 20
225.3082904579
  0
VERTEX
  8
0
 62
7
  6
CONTINUOUS
 10
-11.4410832106
 20
225.2995588951
  0
VERTEX
  8
0
 62
7
  6
CONTINUOUS
 10
-11.8499622588
 20
225.2899839513
  0
VERTEX
  8
0
 62
7
  6
CONTINUOUS
 10
-12.2401695009
 20
225.2805058292
  0
VERTEX
  8
0
 62
7
  6
CONTINUOUS
 10
-12.6128580638
 20
225.2711304656
  0
VERTEX
  8
0
 62
7
  6
CONTINUOUS
 10
-12.9689807987
 20
225.2618677669
  0
VERTEX
  8
0
 62
7
  6
CONTINUOUS
 10
-13.3092212462
 20
225.2527337517
  0
VERTEX
  8
0
 62
7
  6
CONTINUOUS
 10
-13.6342209229
 20
225.243742732
  0
VERTEX
  8
0
 62
7
  6
CONTINUOUS
 10
-13.944582595
 20
225.2349094593
  0
VERTEX
  8
0
 62
7
  6
CONTINUOUS
 10
-14.2410173711
 20
225.2262481473
  0
VERTEX
  8
0
 62
7
  6
CONTINUOUS
 10
-14.5241252821
 20
225.2177739692
  0
VERTEX
  8
0
 62
7
  6
CONTINUOUS
 10
-14.7945407064
 20
225.2094984778
  0
VERTEX
  8
0
 62
7
  6
CONTINUOUS
 10
-15.0527504405
 20
225.2014359839
  0
VERTEX
  8
0
 62
7
  6
CONTINUOUS
 10
-15.2994390678
 20
225.1935939543
  0
VERTEX
  8
0
 62
7
  6
CONTINUOUS
 10
-15.5351892563
 20
225.1859816731
  0
VERTEX
  8
0
 62
7
  6
CONTINUOUS
 10
-15.760380712
 20
225.1786128231
  0
VERTEX
  8
0
 62
7
  6
CONTINUOUS
 10
-15.9753278066
 20
225.1715017037
  0
VERTEX
  8
0
 62
7
  6
CONTINUOUS
 10
-16.1802565172
 20
225.1646639121
  0
VERTEX
  8
0
 62
7
  6
CONTINUOUS
 10
-16.7461776727
 20
225.1456221209
  0
SEQEND
  0
POLYLINE
  8
0
 62
9
  6
CONTINUOUS
 66
1
 70
0
  0
VERTEX
  8
0
 62
9
  6
CONTINUOUS
 10
-12.9351764752
 20
223.0507755503
  0
VERTEX
  8
0
 62
9
  6
CONTINUOUS
 10
-13.7037211981
 20
223.0341436513
  0
VERTEX
  8
0
 62
9
  6
CONTINUOUS
 10
-14.3895476737
 20
223.0205594142
  0
VERTEX
  8
0
 62
9
  6
CONTINUOUS
 10
-14.9996369014
 20
223.0066156402
  0
VERTEX
  8
0
 62
9
  6
CONTINUOUS
 10
-15.542828978
 20
222.9932563038
  0
VERTEX
  8
0
 62
9
  6
CONTINUOUS
 10
-16.0235076475
 20
222.9811362076
  0
VERTEX
  8
0
 62
9
  6
CONTINUOUS
 10
-16.4567446596
 20
222.9693598941
  0
VERTEX
  8
0
 62
9
  6
CONTINUOUS
 10
-16.8561777776
 20
222.9583264742
  0
VERTEX
  8
0
 62
9
  6
CONTINUOUS
 10
-17.2204573131
 20
222.9479331327
  0
VERTEX
  8
0
 62
9
  6
CONTINUOUS
 10
-17.5505902646
 20
222.9383797077
  0
VERTEX
  8
0
 62
9
  6
CONTINUOUS
 10
-17.852431661
 20
222.9293793523
  0
VERTEX
  8
0
 62
9
  6
CONTINUOUS
 10
-18.1319962338
 20
222.9209914175
  0
SEQEND
  0
POLYLINE
  8
0
 62
7
  6
CONTINUOUS
 66
1
 70
0
  0
VERTEX
  8
0
 62
7
  6
CONTINUOUS
 10
-5.7735012568
 20
225.3856834825
  0
VERTEX
  8
0
 62
7
  6
CONTINUOUS
 10
-6.6841054336
 20
225.3768445568
  0
VERTEX
  8
0
 62
7
  6
CONTINUOUS
 10
-7.6214051972
 20
225.3661049519
  0
VERTEX
  8
0
 62
7
  6
CONTINUOUS
 10
-8.5319481013
 20
225.3538728812
  0
VERTEX
  8
0
 62
7
  6
CONTINUOUS
 10
-9.4146845527
 20
225.340076938
  0
VERTEX
  8
0
 62
7
  6
CONTINUOUS
 10
-10.2691424392
 20
225.3246222063
  0
VERTEX
  8
0
 62
7
  6
CONTINUOUS
 10
-11.0549178887
 20
225.3082585728
  0
SEQEND
  0
POLYLINE
  8
0
 62
7
  6
CONTINUOUS
 66
1
 70
0
  0
VERTEX
  8
0
 62
7
  6
CONTINUOUS
 10
373.0307016031
 20
225.3948303789
  0
VERTEX
  8
0
 62
7
  6
CONTINUOUS
 10
371.4218785679
 20
225.4078139884
  0
VERTEX
  8
0
 62
7
  6
CONTINUOUS
 10
369.9987909029
 20
225.4179989393
  0
VERTEX
  8
0
 62
7
  6
CONTINUOUS
 10
368.9306821842
 20
225.4247776797
  0
VERTEX
  8
0
 62
7
  6
CONTINUOUS
 10
368.1586265735
 20
225.4292147374
  0
VERTEX
  8
0
 62
7
  6
CONTINUOUS
 10
367.374156303
 20
225.4333370675
  0
VERTEX
  8
0
 62
7
  6
CONTINUOUS
 10
366.1942711313
 20
225.4388376897
  0
VERTEX
  8
0
 62
7
  6
CONTINUOUS
 10
364.757255507
 20
225.4444847238
  0
VERTEX
  8
0
 62
7
  6
CONTINUOUS
 10
363.1283562159
 20
225.4496325764
  0
VERTEX
  8
0
 62
7
  6
CONTINUOUS
 10
361.3221137971
 20
225.4539841707
  0
VERTEX
  8
0
 62
7
  6
CONTINUOUS
 10
359.3434229839
 20
225.4573524211
  0
VERTEX
  8
0
 62
7
  6
CONTINUOUS
 10
357.183955571
 20
225.4596175331
  0
VERTEX
  8
0
 62
7
  6
CONTINUOUS
 10
354.93498842
 20
225.4606484787
  0
VERTEX
  8
0
 62
7
  6
CONTINUOUS
 10
352.6221568224
 20
225.4604973994
  0
VERTEX
  8
0
 62
7
  6
CONTINUOUS
 10
350.270569777
 20
225.4592404871
  0
VERTEX
  8
0
 62
7
  6
CONTINUOUS
 10
347.8635882365
 20
225.456915909
  0
VERTEX
  8
0
 62
7
  6
CONTINUOUS
 10
345.385211202
 20
225.4535193904
  0
VERTEX
  8
0
 62
7
  6
CONTINUOUS
 10
342.8544749885
 20
225.449088871
  0
VERTEX
  8
0
 62
7
  6
CONTINUOUS
 10
340.3014945149
 20
225.443734793
  0
VERTEX
  8
0
 62
7
  6
CONTINUOUS
 10
337.6866294381
 20
225.4374376697
  0
VERTEX
  8
0
 62
7
  6
CONTINUOUS
 10
335.0002939088
 20
225.4302813368
  0
VERTEX
  8
0
 62
7
  6
CONTINUOUS
 10
332.1668636948
 20
225.4221821782
  0
VERTEX
  8
0
 62
7
  6
CONTINUOUS
 10
329.1227609121
 20
225.4131673747
  0
VERTEX
  8
0
 62
7
  6
CONTINUOUS
 10
325.7653345998
 20
225.4033240733
  0
VERTEX
  8
0
 62
7
  6
CONTINUOUS
 10
321.9471383084
 20
225.3929583177
  0
VERTEX
  8
0
 62
7
  6
CONTINUOUS
 10
317.8780835512
 20
225.3837410781
  0
SEQEND
  0
POLYLINE
  8
0
 62
7
  6
CONTINUOUS
 66
1
 70
0
  0
VERTEX
  8
0
 62
7
  6
CONTINUOUS
 10
374.3246185603
 20
225.3856801485
  0
VERTEX
  8
0
 62
7
  6
CONTINUOUS
 10
372.2016821088
 20
225.4037209921
  0
VERTEX
  8
0
 62
7
  6
CONTINUOUS
 10
368.507572554
 20
225.4287983588
  0
VERTEX
  8
0
 62
7
  6
CONTINUOUS
 10
366.5560567191
 20
225.4384971343
  0
VERTEX
  8
0
 62
7
  6
CONTINUOUS
 10
365.6191814389
 20
225.4423602537
  0
VERTEX
  8
0
 62
7
  6
CONTINUOUS
 10
364.6701369154
 20
225.4457962251
  0
VERTEX
  8
0
 62
7
  6
CONTINUOUS
 10
363.6260906033
 20
225.4490636761
  0
VERTEX
  8
0
 62
7
  6
CONTINUOUS
 10
361.8220570911
 20
225.4535754038
  0
VERTEX
  8
0
 62
7
  6
CONTINUOUS
 10
359.6973473245
 20
225.4572954201
  0
VERTEX
  8
0
 62
7
  6
CONTINUOUS
 10
357.6076397835
 20
225.4595387335
  0
VERTEX
  8
0
 62
7
  6
CONTINUOUS
 10
355.4721116518
 20
225.4606039837
  0
SEQEND
  0
POLYLINE
  8
0
 62
7
  6
CONTINUOUS
 66
1
 70
0
  0
VERTEX
  8
0
 62
7
  6
CONTINUOUS
 10
387.5764268896
 20
225.083713508
  0
VERTEX
  8
0
 62
7
  6
CONTINUOUS
 10
387.516731707
 20
225.0842470938
  0
VERTEX
  8
0
 62
7
  6
CONTINUOUS
 10
387.4531674155
 20
225.0849651205
  0
VERTEX
  8
0
 62
7
  6
CONTINUOUS
 10
387.3858486671
 20
225.0858760032
  0
VERTEX
  8
0
 62
7
  6
CONTINUOUS
 10
387.314775973
 20
225.08698732
  0
VERTEX
  8
0
 62
7
  6
CONTINUOUS
 10
387.2396108729
 20
225.088310994
  0
VERTEX
  8
0
 62
7
  6
CONTINUOUS
 10
387.160301762
 20
225.0898544716
  0
VERTEX
  8
0
 62
7
  6
CONTINUOUS
 10
387.076158745
 20
225.0916385448
  0
VERTEX
  8
0
 62
7
  6
CONTINUOUS
 10
386.9867091236
 20
225.0936821446
  0
VERTEX
  8
0
 62
7
  6
CONTINUOUS
 10
386.8917222144
 20
225.0959962124
  0
VERTEX
  8
0
 62
7
  6
CONTINUOUS
 10
386.7912719835
 20
225.0985834035
  0
VERTEX
  8
0
 62
7
  6
CONTINUOUS
 10
386.6853071588
 20
225.1014501069
  0
VERTEX
  8
0
 62
7
  6
CONTINUOUS
 10
386.5739338966
 20
225.1045946217
  0
VERTEX
  8
0
 62
7
  6
CONTINUOUS
 10
386.4577720122
 20
225.1079953314
  0
VERTEX
  8
0
 62
7
  6
CONTINUOUS
 10
386.3363555088
 20
225.1116614671
  0
VERTEX
  8
0
 62
7
  6
CONTINUOUS
 10
386.2095261094
 20
225.1155951666
  0
VERTEX
  8
0
 62
7
  6
CONTINUOUS
 10
386.0765400897
 20
225.1198142739
  0
VERTEX
  8
0
 62
7
  6
CONTINUOUS
 10
385.9368790072
 20
225.1243275955
  0
VERTEX
  8
0
 62
7
  6
CONTINUOUS
 10
385.7897507618
 20
225.1291519925
  0
VERTEX
  8
0
 62
7
  6
CONTINUOUS
 10
385.6343542264
 20
225.1343062185
  0
SEQEND
  0
LINE
  8
0
 62
7
  6
CONTINUOUS
 10
373.0307016031
 20
225.3948303789
 11
374.0850639503
 21
225.3856832111
  0
POLYLINE
  8
0
 62
9
  6
CONTINUOUS
 66
1
 70
0
  0
VERTEX
  8
0
 62
9
  6
CONTINUOUS
 10
381.2868438114
 20
223.0512601571
  0
VERTEX
  8
0
 62
9
  6
CONTINUOUS
 10
381.1341544348
 20
223.0542750732
  0
VERTEX
  8
0
 62
9
  6
CONTINUOUS
 10
380.9810600333
 20
223.0572345768
  0
VERTEX
  8
0
 62
9
  6
CONTINUOUS
 10
380.827645252
 20
223.0601214061
  0
VERTEX
  8
0
 62
9
  6
CONTINUOUS
 10
380.6737736687
 20
223.0629447297
  0
VERTEX
  8
0
 62
9
  6
CONTINUOUS
 10
380.5193550093
 20
223.0657106789
  0
VERTEX
  8
0
 62
9
  6
CONTINUOUS
 10
380.3643103263
 20
223.0684202245
  0
VERTEX
  8
0
 62
9
  6
CONTINUOUS
 10
380.2085341336
 20
223.071079222
  0
VERTEX
  8
0
 62
9
  6
CONTINUOUS
 10
380.0519929133
 20
223.0736874396
  0
VERTEX
  8
0
 62
9
  6
CONTINUOUS
 10
379.894576308
 20
223.0762487047
  0
VERTEX
  8
0
 62
9
  6
CONTINUOUS
 10
379.7363947749
 20
223.078761981
  0
VERTEX
  8
0
 62
9
  6
CONTINUOUS
 10
379.5774947252
 20
223.0812263601
  0
VERTEX
  8
0
 62
9
  6
CONTINUOUS
 10
379.4179660899
 20
223.0836423299
  0
VERTEX
  8
0
 62
9
  6
CONTINUOUS
 10
379.2578807127
 20
223.0860084256
  0
VERTEX
  8
0
 62
9
  6
CONTINUOUS
 10
379.0973508693
 20
223.0883253884
  0
VERTEX
  8
0
 62
9
  6
CONTINUOUS
 10
378.9364494652
 20
223.0905919647
  0
VERTEX
  8
0
 62
9
  6
CONTINUOUS
 10
378.7753765456
 20
223.0928090146
  0
VERTEX
  8
0
 62
9
  6
CONTINUOUS
 10
378.6142974196
 20
223.0949732183
  0
VERTEX
  8
0
 62
9
  6
CONTINUOUS
 10
378.453416227
 20
223.0970860604
  0
VERTEX
  8
0
 62
9
  6
CONTINUOUS
 10
378.2929469126
 20
223.0991437545
  0
VERTEX
  8
0
 62
9
  6
CONTINUOUS
 10
378.1330547838
 20
223.1011481272
  0
VERTEX
  8
0
 62
9
  6
CONTINUOUS
 10
377.9740217974
 20
223.1030960258
  0
VERTEX
  8
0
 62
9
  6
CONTINUOUS
 10
377.6582232238
 20
223.1068330591
  0
SEQEND
  0
POLYLINE
  8
0
 62
7
  6
CONTINUOUS
 66
1
 70
0
  0
VERTEX
  8
0
 62
7
  6
CONTINUOUS
 10
379.407636046
 20
225.3082656131
  0
VERTEX
  8
0
 62
7
  6
CONTINUOUS
 10
378.6150375245
 20
225.324624231
  0
VERTEX
  8
0
 62
7
  6
CONTINUOUS
 10
377.7536514663
 20
225.3400741717
  0
VERTEX
  8
0
 62
7
  6
CONTINUOUS
 10
376.8639611237
 20
225.353866439
  0
VERTEX
  8
0
 62
7
  6
CONTINUOUS
 10
375.9465027114
 20
225.3660995913
  0
VERTEX
  8
0
 62
7
  6
CONTINUOUS
 10
375.0022996617
 20
225.3768414448
  0
VERTEX
  8
0
 62
7
  6
CONTINUOUS
 10
374.0849557758
 20
225.3856841713
  0
SEQEND
  0
POLYLINE
  8
0
 62
7
  6
CONTINUOUS
 66
1
 70
0
  0
VERTEX
  8
0
 62
7
  6
CONTINUOUS
 10
379.6057019725
 20
225.3082585728
  0
VERTEX
  8
0
 62
7
  6
CONTINUOUS
 10
378.819926523
 20
225.3246222063
  0
VERTEX
  8
0
 62
7
  6
CONTINUOUS
 10
377.9654686365
 20
225.340076938
  0
VERTEX
  8
0
 62
7
  6
CONTINUOUS
 10
377.0827321851
 20
225.3538728812
  0
VERTEX
  8
0
 62
7
  6
CONTINUOUS
 10
376.172189281
 20
225.3661049519
  0
VERTEX
  8
0
 62
7
  6
CONTINUOUS
 10
375.2348895174
 20
225.3768445568
  0
VERTEX
  8
0
 62
7
  6
CONTINUOUS
 10
374.3242853406
 20
225.3856834825
  0
SEQEND
  0
POLYLINE
  8
0
 62
9
  6
CONTINUOUS
 66
1
 70
0
  0
VERTEX
  8
0
 62
9
  6
CONTINUOUS
 10
388.1519792839
 20
222.8750362778
  0
VERTEX
  8
0
 62
9
  6
CONTINUOUS
 10
388.0337675953
 20
222.8781338908
  0
VERTEX
  8
0
 62
9
  6
CONTINUOUS
 10
387.9042326176
 20
222.8816068305
  0
VERTEX
  8
0
 62
9
  6
CONTINUOUS
 10
387.7626064136
 20
222.8855238657
  0
VERTEX
  8
0
 62
9
  6
CONTINUOUS
 10
387.607601947
 20
222.8898781457
  0
VERTEX
  8
0
 62
9
  6
CONTINUOUS
 10
387.4384924296
 20
222.8947655891
  0
VERTEX
  8
0
 62
9
  6
CONTINUOUS
 10
387.2521548378
 20
222.9001566866
  0
VERTEX
  8
0
 62
9
  6
CONTINUOUS
 10
386.8158484346
 20
222.9130337908
  0
SEQEND
  0
POLYLINE
  8
0
 62
9
  6
CONTINUOUS
 66
1
 70
0
  0
VERTEX
  8
0
 62
9
  6
CONTINUOUS
 10
379.407636046
 20
225.3082656131
  0
VERTEX
  8
0
 62
9
  6
CONTINUOUS
 10
379.4251893641
 20
225.3077952043
  0
VERTEX
  8
0
 62
9
  6
CONTINUOUS
 10
379.5951065033
 20
225.2947293688
  0
VERTEX
  8
0
 62
9
  6
CONTINUOUS
 10
379.763234059
 20
225.2663420241
  0
VERTEX
  8
0
 62
9
  6
CONTINUOUS
 10
379.9282765898
 20
225.2228521223
  0
VERTEX
  8
0
 62
9
  6
CONTINUOUS
 10
380.0889608206
 20
225.1645951779
  0
VERTEX
  8
0
 62
9
  6
CONTINUOUS
 10
380.2440470832
 20
225.092020636
  0
VERTEX
  8
0
 62
9
  6
CONTINUOUS
 10
380.392338899
 20
225.0056884016
  0
VERTEX
  8
0
 62
9
  6
CONTINUOUS
 10
380.5326922164
 20
224.9062645146
  0
VERTEX
  8
0
 62
9
  6
CONTINUOUS
 10
380.6640242263
 20
224.794516015
  0
VERTEX
  8
0
 62
9
  6
CONTINUOUS
 10
380.7853217137
 20
224.6713050284
  0
VERTEX
  8
0
 62
9
  6
CONTINUOUS
 10
380.8956488807
 20
224.5375821105
  0
VERTEX
  8
0
 62
9
  6
CONTINUOUS
 10
380.9941545596
 20
224.3943789212
  0
VERTEX
  8
0
 62
9
  6
CONTINUOUS
 10
381.080078785
 20
224.2428002616
  0
VERTEX
  8
0
 62
9
  6
CONTINUOUS
 10
381.1527586611
 20
224.0840155414
  0
VERTEX
  8
0
 62
9
  6
CONTINUOUS
 10
381.2116334696
 20
223.9192497636
  0
VERTEX
  8
0
 62
9
  6
CONTINUOUS
 10
381.2562489937
 20
223.749774084
  0
VERTEX
  8
0
 62
9
  6
CONTINUOUS
 10
381.2862610272
 20
223.5768959943
  0
VERTEX
  8
0
 62
9
  6
CONTINUOUS
 10
381.3014380302
 20
223.4019492299
  0
VERTEX
  8
0
 62
9
  6
CONTINUOUS
 10
381.3016629132
 20
223.2262834873
  0
VERTEX
  8
0
 62
9
  6
CONTINUOUS
 10
381.2869339409
 20
223.0512540098
  0
SEQEND
  0
POLYLINE
  8
0
 62
9
  6
CONTINUOUS
 66
1
 70
0
  0
VERTEX
  8
0
 62
9
  6
CONTINUOUS
 10
386.8158484346
 20
222.9130337908
  0
VERTEX
  8
0
 62
9
  6
CONTINUOUS
 10
386.560399802
 20
222.92062297
  0
VERTEX
  8
0
 62
9
  6
CONTINUOUS
 10
386.2776370089
 20
222.928938602
  0
VERTEX
  8
0
 62
9
  6
CONTINUOUS
 10
385.9647715657
 20
222.9380605134
  0
VERTEX
  8
0
 62
9
  6
CONTINUOUS
 10
385.6218881075
 20
222.9479167417
  0
VERTEX
  8
0
 62
9
  6
CONTINUOUS
 10
385.2497811587
 20
222.9584041929
  0
VERTEX
  8
0
 62
9
  6
CONTINUOUS
 10
384.844359017
 20
222.9694386806
  0
VERTEX
  8
0
 62
9
  6
CONTINUOUS
 10
384.4059237974
 20
222.9812172573
  0
VERTEX
  8
0
 62
9
  6
CONTINUOUS
 10
383.9204660773
 20
222.9932984543
  0
VERTEX
  8
0
 62
9
  6
CONTINUOUS
 10
383.3719894472
 20
223.0066407125
  0
VERTEX
  8
0
 62
9
  6
CONTINUOUS
 10
382.7561042331
 20
223.0205592647
  0
VERTEX
  8
0
 62
9
  6
CONTINUOUS
 10
382.063532209
 20
223.0341265094
  0
VERTEX
  8
0
 62
9
  6
CONTINUOUS
 10
381.2873459679
 20
223.0507725261
  0
SEQEND
  0
POLYLINE
  8
0
 62
7
  6
CONTINUOUS
 66
1
 70
0
  0
VERTEX
  8
0
 62
7
  6
CONTINUOUS
 10
384.4062202589
 20
225.1708567735
  0
VERTEX
  8
0
 62
7
  6
CONTINUOUS
 10
384.174130818
 20
225.1784240963
  0
VERTEX
  8
0
 62
7
  6
CONTINUOUS
 10
383.9329503327
 20
225.1862012885
  0
VERTEX
  8
0
 62
7
  6
CONTINUOUS
 10
383.6839239036
 20
225.1941234463
  0
VERTEX
  8
0
 62
7
  6
CONTINUOUS
 10
383.425527522
 20
225.2022144391
  0
VERTEX
  8
0
 62
7
  6
CONTINUOUS
 10
383.1562511702
 20
225.2104943512
  0
VERTEX
  8
0
 62
7
  6
CONTINUOUS
 10
382.8757326309
 20
225.2189460573
  0
VERTEX
  8
0
 62
7
  6
CONTINUOUS
 10
382.5834023259
 20
225.2275587862
  0
VERTEX
  8
0
 62
7
  6
CONTINUOUS
 10
382.2789881244
 20
225.2363119152
  0
VERTEX
  8
0
 62
7
  6
CONTINUOUS
 10
381.9621430861
 20
225.2451856736
  0
VERTEX
  8
0
 62
7
  6
CONTINUOUS
 10
381.6324839236
 20
225.2541608234
  0
VERTEX
  8
0
 62
7
  6
CONTINUOUS
 10
381.2897517226
 20
225.2632186198
  0
VERTEX
  8
0
 62
7
  6
CONTINUOUS
 10
380.9336116725
 20
225.2723422948
  0
VERTEX
  8
0
 62
7
  6
CONTINUOUS
 10
380.5636889308
 20
225.2815151491
  0
VERTEX
  8
0
 62
7
  6
CONTINUOUS
 10
380.1794146027
 20
225.2907256963
  0
VERTEX
  8
0
 62
7
  6
CONTINUOUS
 10
379.7801346568
 20
225.2999652403
  0
VERTEX
  8
0
 62
7
  6
CONTINUOUS
 10
379.4075080019
 20
225.3083000145
  0
SEQEND
  0
POLYLINE
  8
0
 62
7
  6
CONTINUOUS
 66
1
 70
0
  0
VERTEX
  8
0
 62
7
  6
CONTINUOUS
 10
385.4216420653
 20
225.1373223359
  0
VERTEX
  8
0
 62
7
  6
CONTINUOUS
 10
385.0455279121
 20
225.1497475673
  0
VERTEX
  8
0
 62
7
  6
CONTINUOUS
 10
384.8421453582
 20
225.1564859852
  0
VERTEX
  8
0
 62
7
  6
CONTINUOUS
 10
384.4062202589
 20
225.1708567735
  0
SEQEND
  0
POLYLINE
  8
0
 62
7
  6
CONTINUOUS
 66
1
 70
0
  0
VERTEX
  8
0
 62
7
  6
CONTINUOUS
 10
384.5261118904
 20
225.1715017037
  0
VERTEX
  8
0
 62
7
  6
CONTINUOUS
 10
384.3111647958
 20
225.1786128231
  0
VERTEX
  8
0
 62
7
  6
CONTINUOUS
 10
384.0859733401
 20
225.1859816731
  0
VERTEX
  8
0
 62
7
  6
CONTINUOUS
 10
383.8502231516
 20
225.1935939543
  0
VERTEX
  8
0
 62
7
  6
CONTINUOUS
 10
383.6035345243
 20
225.2014359839
  0
VERTEX
  8
0
 62
7
  6
CONTINUOUS
 10
383.3453247902
 20
225.2094984778
  0
VERTEX
  8
0
 62
7
  6
CONTINUOUS
 10
383.0749093659
 20
225.2177739692
  0
VERTEX
  8
0
 62
7
  6
CONTINUOUS
 10
382.7918014549
 20
225.2262481473
  0
VERTEX
  8
0
 62
7
  6
CONTINUOUS
 10
382.4953666788
 20
225.2349094593
  0
VERTEX
  8
0
 62
7
  6
CONTINUOUS
 10
382.1850050068
 20
225.243742732
  0
VERTEX
  8
0
 62
7
  6
CONTINUOUS
 10
381.86000533
 20
225.2527337517
  0
VERTEX
  8
0
 62
7
  6
CONTINUOUS
 10
381.5197648825
 20
225.2618677669
  0
VERTEX
  8
0
 62
7
  6
CONTINUOUS
 10
381.1636421476
 20
225.2711304656
  0
VERTEX
  8
0
 62
7
  6
CONTINUOUS
 10
380.7909535847
 20
225.2805058292
  0
VERTEX
  8
0
 62
7
  6
CONTINUOUS
 10
380.4007463426
 20
225.2899839513
  0
VERTEX
  8
0
 62
7
  6
CONTINUOUS
 10
379.9918672944
 20
225.2995588951
  0
VERTEX
  8
0
 62
7
  6
CONTINUOUS
 10
379.6054894908
 20
225.3082904579
  0
SEQEND
  0
POLYLINE
  8
0
 62
7
  6
CONTINUOUS
 66
1
 70
0
  0
VERTEX
  8
0
 62
7
  6
CONTINUOUS
 10
385.6343542264
 20
225.1343062185
  0
VERTEX
  8
0
 62
7
  6
CONTINUOUS
 10
385.2969617565
 20
225.1456221209
  0
VERTEX
  8
0
 62
7
  6
CONTINUOUS
 10
385.1160523386
 20
225.1517187046
  0
VERTEX
  8
0
 62
7
  6
CONTINUOUS
 10
384.9272542225
 20
225.1580772796
  0
VERTEX
  8
0
 62
7
  6
CONTINUOUS
 10
384.5261118904
 20
225.1715017037
  0
SEQEND
  0
POLYLINE
  8
0
 62
9
  6
CONTINUOUS
 66
1
 70
0
  0
VERTEX
  8
0
 62
9
  6
CONTINUOUS
 10
374.0850639503
 20
225.3856832111
  0
VERTEX
  8
0
 62
9
  6
CONTINUOUS
 10
374.214755649
 20
225.3798039215
  0
VERTEX
  8
0
 62
9
  6
CONTINUOUS
 10
374.3750375438
 20
225.3593519499
  0
VERTEX
  8
0
 62
9
  6
CONTINUOUS
 10
374.5330703286
 20
225.3244777051
  0
VERTEX
  8
0
 62
9
  6
CONTINUOUS
 10
374.6876991571
 20
225.2754360354
  0
VERTEX
  8
0
 62
9
  6
CONTINUOUS
 10
374.8377940582
 20
225.2125853196
  0
VERTEX
  8
0
 62
9
  6
CONTINUOUS
 10
374.9822581931
 20
225.1363848478
  0
VERTEX
  8
0
 62
9
  6
CONTINUOUS
 10
375.1200358708
 20
225.0473914653
  0
VERTEX
  8
0
 62
9
  6
CONTINUOUS
 10
375.2501202624
 20
224.9462555033
  0
VERTEX
  8
0
 62
9
  6
CONTINUOUS
 10
375.3715607584
 20
224.8337160267
  0
VERTEX
  8
0
 62
9
  6
CONTINUOUS
 10
375.4834699162
 20
224.7105954329
  0
VERTEX
  8
0
 62
9
  6
CONTINUOUS
 10
375.5850299445
 20
224.5777934424
  0
VERTEX
  8
0
 62
9
  6
CONTINUOUS
 10
375.6754986798
 20
224.4362805237
  0
VERTEX
  8
0
 62
9
  6
CONTINUOUS
 10
375.7542150098
 20
224.2870908013
  0
VERTEX
  8
0
 62
9
  6
CONTINUOUS
 10
375.8206037043
 20
224.1313144994
  0
VERTEX
  8
0
 62
9
  6
CONTINUOUS
 10
375.874179619
 20
223.9700899745
  0
VERTEX
  8
0
 62
9
  6
CONTINUOUS
 10
375.9145512407
 20
223.8045953964
  0
VERTEX
  8
0
 62
9
  6
CONTINUOUS
 10
375.9414235485
 20
223.6360401389
  0
VERTEX
  8
0
 62
9
  6
CONTINUOUS
 10
375.9546001693
 20
223.4656559422
  0
VERTEX
  8
0
 62
9
  6
CONTINUOUS
 10
375.9539848133
 20
223.2946879118
  0
VERTEX
  8
0
 62
9
  6
CONTINUOUS
 10
375.9395819772
 20
223.1243854196
  0
SEQEND
  0
POLYLINE
  8
0
 62
9
  6
CONTINUOUS
 66
1
 70
0
  0
VERTEX
  8
0
 62
9
  6
CONTINUOUS
 10
313.5211937598
 20
225.379278605
  0
VERTEX
  8
0
 62
9
  6
CONTINUOUS
 10
313.5827589956
 20
225.3750515411
  0
VERTEX
  8
0
 62
9
  6
CONTINUOUS
 10
313.6609696798
 20
225.3573528109
  0
VERTEX
  8
0
 62
9
  6
CONTINUOUS
 10
313.7382149952
 20
225.3259752421
  0
VERTEX
  8
0
 62
9
  6
CONTINUOUS
 10
313.8139608474
 20
225.2811358179
  0
VERTEX
  8
0
 62
9
  6
CONTINUOUS
 10
313.8876835107
 20
225.2231446136
  0
VERTEX
  8
0
 62
9
  6
CONTINUOUS
 10
313.9588732512
 20
225.1524026518
  0
VERTEX
  8
0
 62
9
  6
CONTINUOUS
 10
314.0270378501
 20
225.0693991292
  0
VERTEX
  8
0
 62
9
  6
CONTINUOUS
 10
314.0917060081
 20
224.9747080344
  0
VERTEX
  8
0
 62
9
  6
CONTINUOUS
 10
314.1524306043
 20
224.8689841786
  0
VERTEX
  8
0
 62
9
  6
CONTINUOUS
 10
314.2087917885
 20
224.7529586665
  0
VERTEX
  8
0
 62
9
  6
CONTINUOUS
 10
314.2603998844
 20
224.6274338413
  0
VERTEX
  8
0
 62
9
  6
CONTINUOUS
 10
314.3068980845
 20
224.4932777362
  0
VERTEX
  8
0
 62
9
  6
CONTINUOUS
 10
314.3479649172
 20
224.351418071
  0
VERTEX
  8
0
 62
9
  6
CONTINUOUS
 10
314.3833164697
 20
224.2028358385
  0
VERTEX
  8
0
 62
9
  6
CONTINUOUS
 10
314.412708352
 20
224.0485585197
  0
VERTEX
  8
0
 62
9
  6
CONTINUOUS
 10
314.4359373864
 20
223.8896529771
  0
VERTEX
  8
0
 62
9
  6
CONTINUOUS
 10
314.452843013
 20
223.7272180784
  0
VERTEX
  8
0
 62
9
  6
CONTINUOUS
 10
314.463308399
 20
223.562377099
  0
VERTEX
  8
0
 62
9
  6
CONTINUOUS
 10
314.467261248
 20
223.3962699531
  0
VERTEX
  8
0
 62
9
  6
CONTINUOUS
 10
314.4646742991
 20
223.2300453096
  0
SEQEND
  0
POLYLINE
  8
0
 62
9
  6
CONTINUOUS
 66
1
 70
0
  0
VERTEX
  8
0
 62
9
  6
CONTINUOUS
 10
317.8795910556
 20
225.3837419881
  0
VERTEX
  8
0
 62
9
  6
CONTINUOUS
 10
317.9490079889
 20
225.3788889639
  0
VERTEX
  8
0
 62
9
  6
CONTINUOUS
 10
318.0315836695
 20
225.3605368814
  0
VERTEX
  8
0
 62
9
  6
CONTINUOUS
 10
318.1132418298
 20
225.3285890915
  0
VERTEX
  8
0
 62
9
  6
CONTINUOUS
 10
318.1933144801
 20
225.2832792914
  0
VERTEX
  8
0
 62
9
  6
CONTINUOUS
 10
318.2712550954
 20
225.2249150694
  0
VERTEX
  8
0
 62
9
  6
CONTINUOUS
 10
318.3465315156
 20
225.1538909507
  0
VERTEX
  8
0
 62
9
  6
CONTINUOUS
 10
318.4186348168
 20
225.0706788447
  0
VERTEX
  8
0
 62
9
  6
CONTINUOUS
 10
318.4870535879
 20
224.9758616787
  0
VERTEX
  8
0
 62
9
  6
CONTINUOUS
 10
318.551306266
 20
224.8701084289
  0
VERTEX
  8
0
 62
9
  6
CONTINUOUS
 10
318.6109556166
 20
224.7541433416
  0
VERTEX
  8
0
 62
9
  6
CONTINUOUS
 10
318.6655912098
 20
224.6287687206
  0
VERTEX
  8
0
 62
9
  6
CONTINUOUS
 10
318.71484198
 20
224.4948392039
  0
VERTEX
  8
0
 62
9
  6
CONTINUOUS
 10
318.758373006
 20
224.3532642568
  0
VERTEX
  8
0
 62
9
  6
CONTINUOUS
 10
318.7958819384
 20
224.2050244652
  0
VERTEX
  8
0
 62
9
  6
CONTINUOUS
 10
318.8271102983
 20
224.0511424393
  0
VERTEX
  8
0
 62
9
  6
CONTINUOUS
 10
318.8518432529
 20
223.892679949
  0
VERTEX
  8
0
 62
9
  6
CONTINUOUS
 10
318.8698990049
 20
223.7308680948
  0
VERTEX
  8
0
 62
9
  6
CONTINUOUS
 10
318.8811916685
 20
223.5664113222
  0
VERTEX
  8
0
 62
9
  6
CONTINUOUS
 10
318.8856132064
 20
223.4000193165
  0
VERTEX
  8
0
 62
9
  6
CONTINUOUS
 10
318.8830532387
 20
223.2329756891
  0
SEQEND
  0
POLYLINE
  8
0
 62
7
  6
CONTINUOUS
 66
1
 70
0
  0
VERTEX
  8
0
 62
7
  6
CONTINUOUS
 10
344.2096308474
 20
83.8457743292
  0
VERTEX
  8
0
 62
7
  6
CONTINUOUS
 10
344.2101249866
 20
83.8447904228
  0
VERTEX
  8
0
 62
7
  6
CONTINUOUS
 10
344.2100230398
 20
83.8438457203
  0
VERTEX
  8
0
 62
7
  6
CONTINUOUS
 10
344.2097335589
 20
83.84336285
  0
SEQEND
  0
POLYLINE
  8
0
 62
9
  6
CONTINUOUS
 66
1
 70
0
  0
VERTEX
  8
0
 62
9
  6
CONTINUOUS
 10
318.8822824864
 20
223.232929873
  0
VERTEX
  8
0
 62
9
  6
CONTINUOUS
 10
318.4496231703
 20
219.6807402424
  0
VERTEX
  8
0
 62
9
  6
CONTINUOUS
 10
318.0070103286
 20
216.1048022446
  0
VERTEX
  8
0
 62
9
  6
CONTINUOUS
 10
317.5570757596
 20
212.5484708716
  0
VERTEX
  8
0
 62
9
  6
CONTINUOUS
 10
317.0843286019
 20
208.8844357182
  0
VERTEX
  8
0
 62
9
  6
CONTINUOUS
 10
316.5680045739
 20
204.9685930919
  0
VERTEX
  8
0
 62
9
  6
CONTINUOUS
 10
316.0201979183
 20
200.8969835712
  0
VERTEX
  8
0
 62
9
  6
CONTINUOUS
 10
315.4465411179
 20
196.705050673
  0
VERTEX
  8
0
 62
9
  6
CONTINUOUS
 10
314.8503982098
 20
192.4287617805
  0
VERTEX
  8
0
 62
9
  6
CONTINUOUS
 10
314.2378756
 20
188.1041728503
  0
VERTEX
  8
0
 62
9
  6
CONTINUOUS
 10
313.6131033336
 20
183.7640229107
  0
VERTEX
  8
0
 62
9
  6
CONTINUOUS
 10
312.9817229806
 20
179.4440936433
  0
VERTEX
  8
0
 62
9
  6
CONTINUOUS
 10
312.3470445883
 20
175.1706826647
  0
VERTEX
  8
0
 62
9
  6
CONTINUOUS
 10
311.7156373054
 20
170.9832920442
  0
VERTEX
  8
0
 62
9
  6
CONTINUOUS
 10
311.086441849
 20
166.8769743977
  0
VERTEX
  8
0
 62
9
  6
CONTINUOUS
 10
310.4611597378
 20
162.8609899077
  0
VERTEX
  8
0
 62
9
  6
CONTINUOUS
 10
309.8393664146
 20
158.9317505845
  0
VERTEX
  8
0
 62
9
  6
CONTINUOUS
 10
309.2217913562
 20
155.0914523864
  0
VERTEX
  8
0
 62
9
  6
CONTINUOUS
 10
308.6074290978
 20
151.3317298305
  0
VERTEX
  8
0
 62
9
  6
CONTINUOUS
 10
307.9940133181
 20
147.6375243611
  0
VERTEX
  8
0
 62
9
  6
CONTINUOUS
 10
307.3848714338
 20
144.031540718
  0
VERTEX
  8
0
 62
9
  6
CONTINUOUS
 10
306.7826659125
 20
140.5237618557
  0
VERTEX
  8
0
 62
9
  6
CONTINUOUS
 10
306.191076885
 20
137.1358611675
  0
VERTEX
  8
0
 62
9
  6
CONTINUOUS
 10
305.616391189
 20
133.8987261026
  0
VERTEX
  8
0
 62
9
  6
CONTINUOUS
 10
305.0557638906
 20
130.7938591407
  0
VERTEX
  8
0
 62
9
  6
CONTINUOUS
 10
304.5071230056
 20
127.806689224
  0
VERTEX
  8
0
 62
9
  6
CONTINUOUS
 10
303.9742658642
 20
124.956387691
  0
VERTEX
  8
0
 62
9
  6
CONTINUOUS
 10
303.4602024743
 20
122.2485904431
  0
VERTEX
  8
0
 62
9
  6
CONTINUOUS
 10
302.9695775297
 20
119.7077551486
  0
VERTEX
  8
0
 62
9
  6
CONTINUOUS
 10
302.5112300409
 20
117.3702873295
  0
VERTEX
  8
0
 62
9
  6
CONTINUOUS
 10
302.0800740164
 20
115.2043460797
  0
VERTEX
  8
0
 62
9
  6
CONTINUOUS
 10
301.6735274219
 20
113.1947808682
  0
VERTEX
  8
0
 62
9
  6
CONTINUOUS
 10
301.2906290882
 20
111.3287533486
  0
VERTEX
  8
0
 62
9
  6
CONTINUOUS
 10
300.928848994
 20
109.5920271158
  0
VERTEX
  8
0
 62
9
  6
CONTINUOUS
 10
300.587582461
 20
107.9746355659
  0
VERTEX
  8
0
 62
9
  6
CONTINUOUS
 10
300.2647110937
 20
106.4648353471
  0
VERTEX
  8
0
 62
9
  6
CONTINUOUS
 10
299.9597013714
 20
105.054644448
  0
VERTEX
  8
0
 62
9
  6
CONTINUOUS
 10
299.6707456934
 20
103.7345672487
  0
VERTEX
  8
0
 62
9
  6
CONTINUOUS
 10
299.3973582162
 20
102.4981996843
  0
VERTEX
  8
0
 62
9
  6
CONTINUOUS
 10
299.1379701433
 20
101.3379456836
  0
VERTEX
  8
0
 62
9
  6
CONTINUOUS
 10
298.8920921173
 20
100.2486004137
  0
VERTEX
  8
0
 62
9
  6
CONTINUOUS
 10
298.6584556178
 20
99.223998997
  0
VERTEX
  8
0
 62
9
  6
CONTINUOUS
 10
298.4366099601
 20
98.259863706
  0
VERTEX
  8
0
 62
9
  6
CONTINUOUS
 10
298.2254991517
 20
97.3511548919
  0
VERTEX
  8
0
 62
9
  6
CONTINUOUS
 10
298.0247250311
 20
96.4943318494
  0
VERTEX
  8
0
 62
9
  6
CONTINUOUS
 10
297.8334035478
 20
95.6852482159
  0
VERTEX
  8
0
 62
9
  6
CONTINUOUS
 10
297.6511943332
 20
94.9209466027
  0
VERTEX
  8
0
 62
9
  6
CONTINUOUS
 10
297.4773736486
 20
94.1980026431
  0
VERTEX
  8
0
 62
9
  6
CONTINUOUS
 10
297.3116251751
 20
93.5138792768
  0
VERTEX
  8
0
 62
9
  6
CONTINUOUS
 10
297.1533962706
 20
92.8656798701
  0
VERTEX
  8
0
 62
9
  6
CONTINUOUS
 10
297.0024527673
 20
92.2511348999
  0
VERTEX
  8
0
 62
9
  6
CONTINUOUS
 10
296.8582834778
 20
91.6676683156
  0
VERTEX
  8
0
 62
9
  6
CONTINUOUS
 10
296.7206836026
 20
91.1134779727
  0
VERTEX
  8
0
 62
9
  6
CONTINUOUS
 10
296.589214959
 20
90.586471062
  0
VERTEX
  8
0
 62
9
  6
CONTINUOUS
 10
296.463669604
 20
90.0850878414
  0
VERTEX
  8
0
 62
9
  6
CONTINUOUS
 10
296.3436499421
 20
89.6075074455
  0
VERTEX
  8
0
 62
9
  6
CONTINUOUS
 10
296.2289881261
 20
89.1525293297
  0
VERTEX
  8
0
 62
9
  6
CONTINUOUS
 10
296.1193736178
 20
88.7187085047
  0
VERTEX
  8
0
 62
9
  6
CONTINUOUS
 10
296.0146177018
 20
88.3050375582
  0
VERTEX
  8
0
 62
9
  6
CONTINUOUS
 10
295.9144402253
 20
87.9103861452
  0
VERTEX
  8
0
 62
9
  6
CONTINUOUS
 10
295.8186401471
 20
87.5337384725
  0
VERTEX
  8
0
 62
9
  6
CONTINUOUS
 10
295.7269346118
 20
87.1739990376
  0
VERTEX
  8
0
 62
9
  6
CONTINUOUS
 10
295.6391569668
 20
86.8303251567
  0
VERTEX
  8
0
 62
9
  6
CONTINUOUS
 10
295.555060354
 20
86.5017621058
  0
VERTEX
  8
0
 62
9
  6
CONTINUOUS
 10
295.474500923
 20
86.1875879921
  0
VERTEX
  8
0
 62
9
  6
CONTINUOUS
 10
295.3972695808
 20
85.8869833245
  0
VERTEX
  8
0
 62
9
  6
CONTINUOUS
 10
295.3232369846
 20
85.5993151112
  0
VERTEX
  8
0
 62
9
  6
CONTINUOUS
 10
295.2522276005
 20
85.3238848416
  0
VERTEX
  8
0
 62
9
  6
CONTINUOUS
 10
295.1841101631
 20
85.0600921193
  0
VERTEX
  8
0
 62
9
  6
CONTINUOUS
 10
295.1187448189
 20
84.8072602318
  0
VERTEX
  8
0
 62
9
  6
CONTINUOUS
 10
295.0559333247
 20
84.5649376582
  0
VERTEX
  8
0
 62
9
  6
CONTINUOUS
 10
294.9953644725
 20
84.3323760851
  0
VERTEX
  8
0
 62
9
  6
CONTINUOUS
 10
294.9372004692
 20
84.1098029133
  0
SEQEND
  0
POLYLINE
  8
0
 62
7
  6
CONTINUOUS
 66
1
 70
0
  0
VERTEX
  8
0
 62
7
  6
CONTINUOUS
 10
389.1594436987
 20
224.9806510998
  0
VERTEX
  8
0
 62
7
  6
CONTINUOUS
 10
389.1204361108
 20
224.9963787524
  0
VERTEX
  8
0
 62
7
  6
CONTINUOUS
 10
389.0387175694
 20
225.0262997151
  0
VERTEX
  8
0
 62
7
  6
CONTINUOUS
 10
388.9557301495
 20
225.052650744
  0
VERTEX
  8
0
 62
7
  6
CONTINUOUS
 10
388.8718480019
 20
225.0753220718
  0
VERTEX
  8
0
 62
7
  6
CONTINUOUS
 10
388.7870634163
 20
225.0943280571
  0
VERTEX
  8
0
 62
7
  6
CONTINUOUS
 10
388.7014007977
 20
225.1096544755
  0
VERTEX
  8
0
 62
7
  6
CONTINUOUS
 10
388.6151291889
 20
225.1212427391
  0
VERTEX
  8
0
 62
7
  6
CONTINUOUS
 10
388.5284931643
 20
225.1290622724
  0
VERTEX
  8
0
 62
7
  6
CONTINUOUS
 10
388.4416066028
 20
225.1331070955
  0
VERTEX
  8
0
 62
7
  6
CONTINUOUS
 10
388.3546482406
 20
225.1333708002
  0
VERTEX
  8
0
 62
7
  6
CONTINUOUS
 10
388.2676692525
 20
225.1298486818
  0
VERTEX
  8
0
 62
7
  6
CONTINUOUS
 10
388.180673048
 20
225.1225182736
  0
VERTEX
  8
0
 62
7
  6
CONTINUOUS
 10
388.0939886922
 20
225.11138457
  0
VERTEX
  8
0
 62
7
  6
CONTINUOUS
 10
388.0078613985
 20
225.0964721694
  0
VERTEX
  8
0
 62
7
  6
CONTINUOUS
 10
387.96163693
 20
225.086371464
  0
SEQEND
  0
POLYLINE
  8
0
 62
9
  6
CONTINUOUS
 66
1
 70
0
  0
VERTEX
  8
0
 62
9
  6
CONTINUOUS
 10
332.5339007391
 20
84.3098689563
  0
VERTEX
  8
0
 62
9
  6
CONTINUOUS
 10
332.1062176446
 20
83.7228882842
  0
VERTEX
  8
0
 62
9
  6
CONTINUOUS
 10
331.6501101729
 20
83.1609415212
  0
VERTEX
  8
0
 62
9
  6
CONTINUOUS
 10
331.167091042
 20
82.6256516902
  0
VERTEX
  8
0
 62
9
  6
CONTINUOUS
 10
330.6581502251
 20
82.1179397742
  0
VERTEX
  8
0
 62
9
  6
CONTINUOUS
 10
330.1242563569
 20
81.6387470835
  0
VERTEX
  8
0
 62
9
  6
CONTINUOUS
 10
329.5670183907
 20
81.1895405189
  0
VERTEX
  8
0
 62
9
  6
CONTINUOUS
 10
328.9879548119
 20
80.7715484627
  0
VERTEX
  8
0
 62
9
  6
CONTINUOUS
 10
328.3886840236
 20
80.3859431392
  0
VERTEX
  8
0
 62
9
  6
CONTINUOUS
 10
327.7708778894
 20
80.0337998324
  0
VERTEX
  8
0
 62
9
  6
CONTINUOUS
 10
327.1362388646
 20
79.7160871889
  0
VERTEX
  8
0
 62
9
  6
CONTINUOUS
 10
326.486527843
 20
79.4336847726
  0
VERTEX
  8
0
 62
9
  6
CONTINUOUS
 10
325.8235203195
 20
79.1873635658
  0
VERTEX
  8
0
 62
9
  6
CONTINUOUS
 10
325.149020204
 20
78.9777972614
  0
VERTEX
  8
0
 62
9
  6
CONTINUOUS
 10
324.464917858
 20
78.8055765369
  0
VERTEX
  8
0
 62
9
  6
CONTINUOUS
 10
323.772895996
 20
78.6711435368
  0
VERTEX
  8
0
 62
9
  6
CONTINUOUS
 10
323.075545993
 20
78.57497986
  0
VERTEX
  8
0
 62
9
  6
CONTINUOUS
 10
322.3754975038
 20
78.5173115771
  0
VERTEX
  8
0
 62
9
  6
CONTINUOUS
 10
321.674459522
 20
78.4981054786
  0
SEQEND
  0
POLYLINE
  8
0
 62
9
  6
CONTINUOUS
 66
1
 70
0
  0
VERTEX
  8
0
 62
9
  6
CONTINUOUS
 10
332.5327647428
 20
84.3107791033
  0
VERTEX
  8
0
 62
9
  6
CONTINUOUS
 10
334.4956154804
 20
86.890511947
  0
VERTEX
  8
0
 62
9
  6
CONTINUOUS
 10
336.3030768826
 20
89.3268659525
  0
VERTEX
  8
0
 62
9
  6
CONTINUOUS
 10
337.9414608052
 20
91.5967534838
  0
VERTEX
  8
0
 62
9
  6
CONTINUOUS
 10
339.4624798575
 20
93.7654561213
  0
VERTEX
  8
0
 62
9
  6
CONTINUOUS
 10
340.9019956375
 20
95.8784158372
  0
VERTEX
  8
0
 62
9
  6
CONTINUOUS
 10
342.2878391804
 20
97.9742950498
  0
VERTEX
  8
0
 62
9
  6
CONTINUOUS
 10
343.6619270803
 20
100.116988015
  0
VERTEX
  8
0
 62
9
  6
CONTINUOUS
 10
345.0059411963
 20
102.2805883486
  0
VERTEX
  8
0
 62
9
  6
CONTINUOUS
 10
346.3136006565
 20
104.4553341211
  0
VERTEX
  8
0
 62
9
  6
CONTINUOUS
 10
347.5936679431
 20
106.6556337343
  0
VERTEX
  8
0
 62
9
  6
CONTINUOUS
 10
348.8516657067
 20
108.891406835
  0
VERTEX
  8
0
 62
9
  6
CONTINUOUS
 10
350.0893122127
 20
111.1669859126
  0
VERTEX
  8
0
 62
9
  6
CONTINUOUS
 10
351.3094477804
 20
113.4888790853
  0
VERTEX
  8
0
 62
9
  6
CONTINUOUS
 10
352.5130713276
 20
115.860897926
  0
VERTEX
  8
0
 62
9
  6
CONTINUOUS
 10
353.7032299421
 20
118.2911113997
  0
VERTEX
  8
0
 62
9
  6
CONTINUOUS
 10
354.8760032136
 20
120.7734780883
  0
VERTEX
  8
0
 62
9
  6
CONTINUOUS
 10
356.0269181249
 20
123.3001518463
  0
VERTEX
  8
0
 62
9
  6
CONTINUOUS
 10
357.1610911098
 20
125.8844646648
  0
VERTEX
  8
0
 62
9
  6
CONTINUOUS
 10
358.2804758977
 20
128.5335005753
  0
VERTEX
  8
0
 62
9
  6
CONTINUOUS
 10
359.3883851175
 20
131.2587748127
  0
VERTEX
  8
0
 62
9
  6
CONTINUOUS
 10
360.4880706294
 20
134.072396981
  0
VERTEX
  8
0
 62
9
  6
CONTINUOUS
 10
361.5797918542
 20
136.9803487926
  0
VERTEX
  8
0
 62
9
  6
CONTINUOUS
 10
362.6635463968
 20
139.9877595477
  0
VERTEX
  8
0
 62
9
  6
CONTINUOUS
 10
363.7421728617
 20
143.1097311083
  0
VERTEX
  8
0
 62
9
  6
CONTINUOUS
 10
364.8172989296
 20
146.3589077368
  0
VERTEX
  8
0
 62
9
  6
CONTINUOUS
 10
365.8902975505
 20
149.7486102941
  0
VERTEX
  8
0
 62
9
  6
CONTINUOUS
 10
366.9658426808
 20
153.3040280882
  0
VERTEX
  8
0
 62
9
  6
CONTINUOUS
 10
368.0344031091
 20
157.002655439
  0
VERTEX
  8
0
 62
9
  6
CONTINUOUS
 10
369.08851776
 20
160.8256148067
  0
VERTEX
  8
0
 62
9
  6
CONTINUOUS
 10
370.1301855268
 20
164.7859288643
  0
VERTEX
  8
0
 62
9
  6
CONTINUOUS
 10
371.1587775402
 20
168.886981336
  0
VERTEX
  8
0
 62
9
  6
CONTINUOUS
 10
372.1755565666
 20
173.1385067007
  0
VERTEX
  8
0
 62
9
  6
CONTINUOUS
 10
373.1801085698
 20
177.5425749059
  0
VERTEX
  8
0
 62
9
  6
CONTINUOUS
 10
374.1766877495
 20
182.1256167205
  0
VERTEX
  8
0
 62
9
  6
CONTINUOUS
 10
375.1725100037
 20
186.9316076577
  0
VERTEX
  8
0
 62
9
  6
CONTINUOUS
 10
376.1553442832
 20
191.9110467234
  0
VERTEX
  8
0
 62
9
  6
CONTINUOUS
 10
377.1202329979
 20
197.0497932393
  0
VERTEX
  8
0
 62
9
  6
CONTINUOUS
 10
378.0545615716
 20
202.2850201089
  0
VERTEX
  8
0
 62
9
  6
CONTINUOUS
 10
378.9497608395
 20
207.5728661414
  0
VERTEX
  8
0
 62
9
  6
CONTINUOUS
 10
379.7933867979
 20
212.8406066391
  0
VERTEX
  8
0
 62
9
  6
CONTINUOUS
 10
380.570386742
 20
217.9891949396
  0
VERTEX
  8
0
 62
9
  6
CONTINUOUS
 10
381.2868438114
 20
223.0512601571
  0
SEQEND
  0
POLYLINE
  8
0
 62
7
  6
CONTINUOUS
 66
1
 70
0
  0
VERTEX
  8
0
 62
7
  6
CONTINUOUS
 10
389.2790107955
 20
224.9263048236
  0
VERTEX
  8
0
 62
7
  6
CONTINUOUS
 10
389.2005615571
 20
224.9630260564
  0
VERTEX
  8
0
 62
7
  6
CONTINUOUS
 10
389.1594436987
 20
224.9806510998
  0
SEQEND
  0
LINE
  8
0
 62
7
  6
CONTINUOUS
 10
389.3068923651
 20
224.912465923
 11
389.2403473487
 21
224.9449916022
  0
POLYLINE
  8
0
 62
7
  6
CONTINUOUS
 66
1
 70
0
  0
VERTEX
  8
0
 62
7
  6
CONTINUOUS
 10
389.2790107386
 20
224.9263047248
  0
VERTEX
  8
0
 62
7
  6
CONTINUOUS
 10
389.3566263406
 20
224.8857647208
  0
VERTEX
  8
0
 62
7
  6
CONTINUOUS
 10
389.4323302807
 20
224.8419045939
  0
SEQEND
  0
LINE
  8
0
 62
7
  6
CONTINUOUS
 10
389.3795596596
 20
224.8734334985
 11
389.3068923651
 21
224.912465923
  0
POLYLINE
  8
0
 62
9
  6
CONTINUOUS
 66
1
 70
0
  0
VERTEX
  8
0
 62
9
  6
CONTINUOUS
 10
390.384875626
 20
222.8999956868
  0
VERTEX
  8
0
 62
9
  6
CONTINUOUS
 10
390.3839748325
 20
222.8978553832
  0
VERTEX
  8
0
 62
9
  6
CONTINUOUS
 10
390.3801123237
 20
222.8946559163
  0
VERTEX
  8
0
 62
9
  6
CONTINUOUS
 10
390.3727599354
 20
222.8913496462
  0
VERTEX
  8
0
 62
9
  6
CONTINUOUS
 10
390.3614454084
 20
222.8879845275
  0
VERTEX
  8
0
 62
9
  6
CONTINUOUS
 10
390.3457846932
 20
222.8846191891
  0
VERTEX
  8
0
 62
9
  6
CONTINUOUS
 10
390.3250602587
 20
222.8812115799
  0
VERTEX
  8
0
 62
9
  6
CONTINUOUS
 10
390.298352493
 20
222.8777328004
  0
VERTEX
  8
0
 62
9
  6
CONTINUOUS
 10
390.2649784143
 20
222.8743044173
  0
SEQEND
  0
LINE
  8
0
 62
7
  6
CONTINUOUS
 10
344.2092768318
 20
83.8451790715
 11
344.2096310323
 21
83.8457743292
  0
LINE
  8
0
 62
7
  6
CONTINUOUS
 10
389.4586531918
 20
224.8264750705
 11
389.3795596596
 21
224.8734334985
  0
LINE
  8
0
 62
7
  6
CONTINUOUS
 10
389.5439280745
 20
224.7701582296
 11
389.4586531918
 21
224.8264750705
  0
POLYLINE
  8
0
 62
7
  6
CONTINUOUS
 66
1
 70
0
  0
VERTEX
  8
0
 62
7
  6
CONTINUOUS
 10
390.3947675974
 20
222.9309947652
  0
VERTEX
  8
0
 62
7
  6
CONTINUOUS
 10
390.404083284
 20
223.1239209693
  0
VERTEX
  8
0
 62
7
  6
CONTINUOUS
 10
390.3949734288
 20
223.3148376137
  0
VERTEX
  8
0
 62
7
  6
CONTINUOUS
 10
390.3682681679
 20
223.501143386
  0
VERTEX
  8
0
 62
7
  6
CONTINUOUS
 10
390.3251855916
 20
223.6807347565
  0
VERTEX
  8
0
 62
7
  6
CONTINUOUS
 10
390.2672628918
 20
223.8517410809
  0
VERTEX
  8
0
 62
7
  6
CONTINUOUS
 10
390.1962144878
 20
224.0127619523
  0
VERTEX
  8
0
 62
7
  6
CONTINUOUS
 10
390.1143055986
 20
224.1620199936
  0
VERTEX
  8
0
 62
7
  6
CONTINUOUS
 10
390.0239134344
 20
224.2984515328
  0
VERTEX
  8
0
 62
7
  6
CONTINUOUS
 10
389.9279092247
 20
224.4209592904
  0
VERTEX
  8
0
 62
7
  6
CONTINUOUS
 10
389.8293880243
 20
224.5288962511
  0
VERTEX
  8
0
 62
7
  6
CONTINUOUS
 10
389.7308830101
 20
224.6226724283
  0
VERTEX
  8
0
 62
7
  6
CONTINUOUS
 10
389.6352603752
 20
224.7025772171
  0
VERTEX
  8
0
 62
7
  6
CONTINUOUS
 10
389.5439280745
 20
224.7701582296
  0
SEQEND
  0
POLYLINE
  8
0
 62
7
  6
CONTINUOUS
 66
1
 70
0
  0
VERTEX
  8
0
 62
7
  6
CONTINUOUS
 10
390.384787789
 20
222.9000169598
  0
VERTEX
  8
0
 62
7
  6
CONTINUOUS
 10
390.3970959923
 20
223.0783879259
  0
VERTEX
  8
0
 62
7
  6
CONTINUOUS
 10
390.3928580998
 20
223.2660293511
  0
VERTEX
  8
0
 62
7
  6
CONTINUOUS
 10
390.3709645546
 20
223.4531734448
  0
VERTEX
  8
0
 62
7
  6
CONTINUOUS
 10
390.3316967595
 20
223.6370380579
  0
VERTEX
  8
0
 62
7
  6
CONTINUOUS
 10
390.2759869905
 20
223.8147396601
  0
VERTEX
  8
0
 62
7
  6
CONTINUOUS
 10
390.2052441512
 20
223.9839395917
  0
VERTEX
  8
0
 62
7
  6
CONTINUOUS
 10
390.1218397882
 20
224.141723053
  0
VERTEX
  8
0
 62
7
  6
CONTINUOUS
 10
390.0286644854
 20
224.285955556
  0
VERTEX
  8
0
 62
7
  6
CONTINUOUS
 10
389.9290159252
 20
224.4151513106
  0
VERTEX
  8
0
 62
7
  6
CONTINUOUS
 10
389.8266841119
 20
224.5282245593
  0
VERTEX
  8
0
 62
7
  6
CONTINUOUS
 10
389.7247232019
 20
224.6255707939
  0
VERTEX
  8
0
 62
7
  6
CONTINUOUS
 10
389.6267113452
 20
224.7073817373
  0
VERTEX
  8
0
 62
7
  6
CONTINUOUS
 10
389.5342126086
 20
224.7755954793
  0
VERTEX
  8
0
 62
7
  6
CONTINUOUS
 10
389.4488636711
 20
224.8317277947
  0
VERTEX
  8
0
 62
7
  6
CONTINUOUS
 10
389.4320757724
 20
224.8420597036
  0
SEQEND
  0
LINE
  8
0
 62
7
  6
CONTINUOUS
 10
390.3911974737
 20
222.897108208
 11
390.3947675974
 21
222.9309947652
  0
LINE
  8
0
 62
7
  6
CONTINUOUS
 10
390.3334908071
 20
222.4498107112
 11
390.384875626
 21
222.8999956868
  0
POLYLINE
  8
0
 62
9
  6
CONTINUOUS
 66
1
 70
0
  0
VERTEX
  8
0
 62
9
  6
CONTINUOUS
 10
390.2649784143
 20
222.8743044173
  0
VERTEX
  8
0
 62
9
  6
CONTINUOUS
 10
390.3100306309
 20
222.7365917317
  0
VERTEX
  8
0
 62
9
  6
CONTINUOUS
 10
390.3338642554
 20
222.6049622032
  0
VERTEX
  8
0
 62
9
  6
CONTINUOUS
 10
390.3362062106
 20
222.4794510679
  0
VERTEX
  8
0
 62
9
  6
CONTINUOUS
 10
390.3334908071
 20
222.4498107112
  0
SEQEND
  0
ARC
  8
0
 62
7
  6
CONTINUOUS
 10
35.3467380096
 20
92.4981054786
 40
14.0
 50
218.1835665981
 51
270.0
  0
ARC
  8
0
 62
7
  6
CONTINUOUS
 10
333.2040460742
 20
92.4981054786
 40
14.0
 50
270.0
 51
321.8164334019
  0
ARC
  8
0
 62
7
  6
CONTINUOUS
 10
35.3486088212
 20
92.4981054786
 40
13.9999999972
 50
269.8495923248
 51
269.9985049455
  0
ARC
  8
0
 62
7
  6
CONTINUOUS
 10
333.2021752626
 20
92.4981054786
 40
13.9999999972
 50
270.0014950547
 51
321.8258805482
  0
ENDSEC
  0
EOF
