999
DXF file: K:\Client\125_Heirloom\001\00\Final_Data\Drawings\TOILETS\centrowf-373100_3.dxf
999
Pro/ENGINEER 2017110 by Parametric Technology Corporation
  0
SECTION
  2
HEADER
  9
$EXTMAX
 10
420.0
 20
297.0
 30
0.0
  9
$EXTMIN
 10
0.0
 20
0.0
 30
0.0
  9
$LIMMIN
 10
0.0
 20
0.0
  9
$LIMMAX
 10
420.0
 20
297.0
  9
$VIEWCTR
 10
210.0
 20
148.5
  9
$VIEWSIZE
 40
297.0
  9
$CLAYER
  8
0
  9
$LTSCALE
 40
23.1
  9
$CELTYPE
  6
BYLAYER
  9
$DIMSCALE
 40
1.0
  9
$DIMASZ
 40
3.0
  9
$DIMEXO
 40
1.0
  9
$DIMDLI
 40
15.96
  9
$DIMEXE
 40
1.0
  9
$DIMCEN
 40
3.78
  9
$DIMLFAC
 40
1.0
  9
$DIMBLK
  1
_FILLED
  9
$DIMALT
 70
0
  9
$DIMALTF
 40
0.0393700787
  9
$DIMTXT
 40
3.0
  9
$AUNITS
 70
0
  9
$PDMODE
 70
3
  9
$PDSIZE
 40
5.0
  9
$TILEMODE
 70
1
  0
ENDSEC
  0
SECTION
  2
TABLES
  0
TABLE
  2
LTYPE
 70
6
  0
LTYPE
  2
BYBLOCK
 70
0
  3

 72
65
 73
0
 40
0.0
  0
LTYPE
  2
BYLAYER
 70
0
  3

 72
65
 73
0
 40
0.0
  0
LTYPE
  2
CONTINUOUS
 70
64
  3
Solid line
 72
65
 73
0
 40
0.0
  0
LTYPE
  2
CENTER
 70
64
  3
____ _ ____ _ ____ _ ____ _ ____ _ ____ _ ____
 72
65
 73
4
 40
0.6
 49
0.375
 49
-0.075
 49
0.075
 49
-0.075
  0
LTYPE
  2
HIDDEN
 70
64
  3
- - - - - - - - - - - - - - - - - - - -
 72
65
 73
2
 40
0.2
 49
0.1
 49
-0.1
  0
LTYPE
  2
PHANTOM
 70
64
  3
_____ _ _ _____ _ _ _____ _ _ _____
 72
65
 73
6
 40
0.8
 49
0.45
 49
-0.05
 49
0.1
 49
-0.05
 49
0.1
 49
-0.05
  0
LTYPE
  2
DOT
 70
64
  3
. . . . . . . . . . . . . . . . . . . .
 72
65
 73
2
 40
0.2
 49
0.1
 49
-0.1
  0
LTYPE
  2
DASHED
 70
64
  3
- - - - - - - - - - - - - - - - - - - -
 72
65
 73
2
 40
0.2
 49
0.1
 49
-0.1
  0
ENDTAB
  0
TABLE
  2
LAYER
 70
36
  0
LAYER
  2
0
 70
0
 62
7
  6
CONTINUOUS
  0
LAYER
  2
DEFAULT_1
 70
0
 62
7
  6
CENTER
  0
LAYER
  2
DEFAULT_2
 70
0
 62
8
  6
HIDDEN
  0
LAYER
  2
DEFAULT_3
 70
0
 62
7
  6
PHANTOM
  0
LAYER
  2
0000_BOM
 70
0
 62
7
  6
CONTINUOUS
  0
LAYER
  2
0000_REV_TABLE
 70
0
 62
7
  6
CONTINUOUS
  0
LAYER
  2
0000_STEVENS_NOTE
 70
0
 62
7
  6
CONTINUOUS
  0
LAYER
  2
01_DATUM_PLANES
 70
0
 62
7
  6
CONTINUOUS
  0
LAYER
  2
01_DEF_PLANES
 70
0
 62
7
  6
CONTINUOUS
  0
LAYER
  2
02_DATUM_COS
 70
0
 62
7
  6
CONTINUOUS
  0
LAYER
  2
90_IMP_FEAT
 70
0
 62
7
  6
CONTINUOUS
  0
LAYER
  2
95_STL
 70
0
 62
7
  6
CONTINUOUS
  0
LAYER
  2
99_SOLID
 70
0
 62
7
  6
CONTINUOUS
  0
LAYER
  2
CAD-MASTER_ZINC-PL
 70
0
 62
7
  6
CONTINUOUS
  0
LAYER
  2
CURVE
 70
0
 62
7
  6
CONTINUOUS
  0
LAYER
  2
SHELL
 70
0
 62
7
  6
CONTINUOUS
  0
LAYER
  2
SKEL
 70
0
 62
7
  6
CONTINUOUS
  0
LAYER
  2
SKETCH
 70
0
 62
7
  6
CONTINUOUS
  0
LAYER
  2
SURFACE
 70
0
 62
7
  6
CONTINUOUS
  0
ENDTAB
  0
TABLE
  2
STYLE
 70
1
  0
STYLE
  2
STANDARD
 70
0
 40
0.0
 41
0.75
 50
0.0
 71
0
 42
0.2
  3
txt
  4

  0
STYLE
  2
TEXTSTYLE_1
 70
0
 40
0.0
 41
0.8
 50
0.0
 71
0
 42
0.2
  3
gdt
  4

  0
ENDTAB
  0
ENDSEC
  0
SECTION
  2
BLOCKS
  0
BLOCK
  8
0
 62
5
  6
CONTINUOUS
  2
PLUMBING_BL1
 70
64
 10
186.0327043836
 20
467.8263701708
  0
CIRCLE
  8
0
 62
5
  6
CONTINUOUS
 10
186.0327043836
 20
467.8263701708
 40
12.5
  0
LINE
  8
0
 62
5
  6
CONTINUOUS
 10
198.5327043836
 20
480.3263701708
 11
173.5327043836
 21
455.3263701708
  0
LINE
  8
0
 62
5
  6
CONTINUOUS
 10
186.0327043836
 20
467.8263701708
 11
173.5327043836
 21
480.3263701708
  0
LINE
  8
0
 62
5
  6
CONTINUOUS
 10
186.0327043836
 20
467.8263701708
 11
198.5327043836
 21
455.3263701708
  0
ENDBLK
  8
0
  6
BYBLOCK
 62
0
  0
BLOCK
  8
0
 62
1
  6
CONTINUOUS
  2
PLUMBING_BL0
 70
64
 10
186.0327043836
 20
197.8263701708
  0
CIRCLE
  8
0
 62
1
  6
CONTINUOUS
 10
186.0327043836
 20
197.8263701708
 40
12.5
  0
LINE
  8
0
 62
1
  6
CONTINUOUS
 10
198.5327043836
 20
210.3263701708
 11
173.5327043836
 21
185.3263701708
  0
LINE
  8
0
 62
1
  6
CONTINUOUS
 10
186.0327043836
 20
197.8263701708
 11
173.5327043836
 21
210.3263701708
  0
LINE
  8
0
 62
1
  6
CONTINUOUS
 10
186.0327043836
 20
197.8263701708
 11
198.5327043836
 21
185.3263701708
  0
ENDBLK
  8
0
  6
BYBLOCK
 62
0
  0
ENDSEC
  0
SECTION
  2
ENTITIES
  0
INSERT
  8
0
 62
1
  6
CONTINUOUS
  2
PLUMBING_BL0
 10
186.0327043836
 20
197.8263701708
  0
INSERT
  8
0
 62
5
  6
CONTINUOUS
  2
PLUMBING_BL1
 10
186.0327043836
 20
467.8263701708
  0
POLYLINE
  8
0
 62
7
  6
CONTINUOUS
 66
1
 70
0
  0
VERTEX
  8
0
 62
7
  6
CONTINUOUS
 10
4.1385036126
 20
462.2810290907
  0
VERTEX
  8
0
 62
7
  6
CONTINUOUS
 10
3.8651758351
 20
461.8215720611
  0
VERTEX
  8
0
 62
7
  6
CONTINUOUS
 10
3.5001230505
 20
461.0589311993
  0
SEQEND
  0
POLYLINE
  8
0
 62
7
  6
CONTINUOUS
 66
1
 70
0
  0
VERTEX
  8
0
 62
7
  6
CONTINUOUS
 10
4.1387568959
 20
462.2820215608
  0
VERTEX
  8
0
 62
7
  6
CONTINUOUS
 10
4.5541816493
 20
462.8891863109
  0
VERTEX
  8
0
 62
7
  6
CONTINUOUS
 10
5.4113545692
 20
463.9002333614
  0
VERTEX
  8
0
 62
7
  6
CONTINUOUS
 10
6.3947415436
 20
464.7889248814
  0
VERTEX
  8
0
 62
7
  6
CONTINUOUS
 10
7.4870661229
 20
465.5396763391
  0
VERTEX
  8
0
 62
7
  6
CONTINUOUS
 10
8.6691323411
 20
466.1393086795
  0
VERTEX
  8
0
 62
7
  6
CONTINUOUS
 10
9.920175878
 20
466.5772997248
  0
VERTEX
  8
0
 62
7
  6
CONTINUOUS
 10
11.2182304739
 20
466.8459614927
  0
VERTEX
  8
0
 62
7
  6
CONTINUOUS
 10
12.5404856747
 20
466.94057168
  0
SEQEND
  0
POLYLINE
  8
0
 62
7
  6
CONTINUOUS
 66
1
 70
0
  0
VERTEX
  8
0
 62
7
  6
CONTINUOUS
 10
151.0290444452
 20
-160.8863179929
  0
VERTEX
  8
0
 62
7
  6
CONTINUOUS
 10
161.6722843889
 20
-162.6561485331
  0
VERTEX
  8
0
 62
7
  6
CONTINUOUS
 10
173.6988746333
 20
-163.8884929163
  0
VERTEX
  8
0
 62
7
  6
CONTINUOUS
 10
185.8109393659
 20
-164.3119066219
  0
VERTEX
  8
0
 62
7
  6
CONTINUOUS
 10
197.9768123866
 20
-163.9164691563
  0
VERTEX
  8
0
 62
7
  6
CONTINUOUS
 10
210.1763922958
 20
-162.6873570788
  0
VERTEX
  8
0
 62
7
  6
CONTINUOUS
 10
221.0333385855
 20
-160.8869198899
  0
SEQEND
  0
POLYLINE
  8
0
 62
7
  6
CONTINUOUS
 66
1
 70
0
  0
VERTEX
  8
0
 62
7
  6
CONTINUOUS
 10
221.0331690299
 20
-160.8867050448
  0
VERTEX
  8
0
 62
7
  6
CONTINUOUS
 10
231.7361369378
 20
-158.4138866627
  0
VERTEX
  8
0
 62
7
  6
CONTINUOUS
 10
243.1972624493
 20
-154.9083140614
  0
VERTEX
  8
0
 62
7
  6
CONTINUOUS
 10
254.1582734362
 20
-150.6659237537
  0
VERTEX
  8
0
 62
7
  6
CONTINUOUS
 10
264.7176212424
 20
-145.678293318
  0
VERTEX
  8
0
 62
7
  6
CONTINUOUS
 10
274.7938509515
 20
-140.0119323552
  0
VERTEX
  8
0
 62
7
  6
CONTINUOUS
 10
284.3486476657
 20
-133.7188070924
  0
VERTEX
  8
0
 62
7
  6
CONTINUOUS
 10
287.0103068457
 20
-131.687618231
  0
SEQEND
  0
LINE
  8
0
 62
7
  6
CONTINUOUS
 10
232.5708797428
 20
-156.4672150304
 11
221.0343596323
 21
-158.9476715522
  0
POLYLINE
  8
0
 62
7
  6
CONTINUOUS
 66
1
 70
0
  0
VERTEX
  8
0
 62
7
  6
CONTINUOUS
 10
151.0310497408
 20
-158.9476716625
  0
VERTEX
  8
0
 62
7
  6
CONTINUOUS
 10
161.964930466
 20
-160.5720926015
  0
VERTEX
  8
0
 62
7
  6
CONTINUOUS
 10
174.015321703
 20
-161.6358814078
  0
VERTEX
  8
0
 62
7
  6
CONTINUOUS
 10
186.0956498985
 20
-161.978569979
  0
VERTEX
  8
0
 62
7
  6
CONTINUOUS
 10
198.1530925542
 20
-161.6237590514
  0
VERTEX
  8
0
 62
7
  6
CONTINUOUS
 10
210.1254192055
 20
-160.5655572473
  0
VERTEX
  8
0
 62
7
  6
CONTINUOUS
 10
221.0343596563
 20
-158.9476715502
  0
SEQEND
  0
POLYLINE
  8
0
 62
7
  6
CONTINUOUS
 66
1
 70
0
  0
VERTEX
  8
0
 62
7
  6
CONTINUOUS
 10
151.0310492973
 20
-158.9476715812
  0
VERTEX
  8
0
 62
7
  6
CONTINUOUS
 10
139.4945157094
 20
-156.4672116729
  0
VERTEX
  8
0
 62
7
  6
CONTINUOUS
 10
128.1614163203
 20
-153.1807581604
  0
VERTEX
  8
0
 62
7
  6
CONTINUOUS
 10
117.0880317841
 20
-149.1046345398
  0
VERTEX
  8
0
 62
7
  6
CONTINUOUS
 10
106.3293569576
 20
-144.2590870136
  0
VERTEX
  8
0
 62
7
  6
CONTINUOUS
 10
95.9388227644
 20
-138.6681827623
  0
VERTEX
  8
0
 62
7
  6
CONTINUOUS
 10
85.9680315604
 20
-132.3596905793
  0
VERTEX
  8
0
 62
7
  6
CONTINUOUS
 10
76.4665013971
 20
-125.3649433619
  0
VERTEX
  8
0
 62
7
  6
CONTINUOUS
 10
67.4814188387
 20
-117.7186816459
  0
VERTEX
  8
0
 62
7
  6
CONTINUOUS
 10
59.0574057252
 20
-109.4588817851
  0
VERTEX
  8
0
 62
7
  6
CONTINUOUS
 10
51.2362977547
 20
-100.6265678156
  0
VERTEX
  8
0
 62
7
  6
CONTINUOUS
 10
44.0569374196
 20
-91.2656092604
  0
VERTEX
  8
0
 62
7
  6
CONTINUOUS
 10
37.5549740603
 20
-81.4224934822
  0
VERTEX
  8
0
 62
7
  6
CONTINUOUS
 10
31.7626949697
 20
-71.1461033704
  0
VERTEX
  8
0
 62
7
  6
CONTINUOUS
 10
26.7088643312
 20
-60.4874748519
  0
VERTEX
  8
0
 62
7
  6
CONTINUOUS
 10
22.4185791747
 20
-49.4995420959
  0
VERTEX
  8
0
 62
7
  6
CONTINUOUS
 10
18.9131443161
 20
-38.2368733123
  0
VERTEX
  8
0
 62
7
  6
CONTINUOUS
 10
16.2099673689
 20
-26.7554016296
  0
VERTEX
  8
0
 62
7
  6
CONTINUOUS
 10
14.3224718537
 20
-15.1121459356
  0
VERTEX
  8
0
 62
7
  6
CONTINUOUS
 10
13.2600307784
 20
-3.3649274055
  0
VERTEX
  8
0
 62
7
  6
CONTINUOUS
 10
13.0279203589
 20
8.4279109903
  0
SEQEND
  0
LINE
  8
0
 62
7
  6
CONTINUOUS
 10
140.4144642109
 20
-158.436585034
 11
151.029106641
 21
-160.8860887116
  0
POLYLINE
  8
0
 62
7
  6
CONTINUOUS
 66
1
 70
0
  0
VERTEX
  8
0
 62
7
  6
CONTINUOUS
 10
85.0576690281
 20
-131.6895084423
  0
VERTEX
  8
0
 62
7
  6
CONTINUOUS
 10
87.7277546678
 20
-133.7276674638
  0
VERTEX
  8
0
 62
7
  6
CONTINUOUS
 10
97.338555825
 20
-140.0519370489
  0
VERTEX
  8
0
 62
7
  6
CONTINUOUS
 10
107.4208530651
 20
-145.7168194676
  0
VERTEX
  8
0
 62
7
  6
CONTINUOUS
 10
117.9526545489
 20
-150.6847650516
  0
VERTEX
  8
0
 62
7
  6
CONTINUOUS
 10
128.9292637793
 20
-154.9292763353
  0
VERTEX
  8
0
 62
7
  6
CONTINUOUS
 10
140.4144642109
 20
-158.436585034
  0
SEQEND
  0
POLYLINE
  8
0
 62
7
  6
CONTINUOUS
 66
1
 70
0
  0
VERTEX
  8
0
 62
7
  6
CONTINUOUS
 10
194.9380058923
 20
378.6332147594
  0
VERTEX
  8
0
 62
7
  6
CONTINUOUS
 10
196.2758677094
 20
379.3132714374
  0
VERTEX
  8
0
 62
7
  6
CONTINUOUS
 10
197.5621135026
 20
380.0865227908
  0
VERTEX
  8
0
 62
7
  6
CONTINUOUS
 10
198.7902618056
 20
380.9490721654
  0
VERTEX
  8
0
 62
7
  6
CONTINUOUS
 10
199.9541244799
 20
381.896573367
  0
VERTEX
  8
0
 62
7
  6
CONTINUOUS
 10
201.0478372397
 20
382.9242522534
  0
VERTEX
  8
0
 62
7
  6
CONTINUOUS
 10
202.0658887248
 20
384.0269302432
  0
VERTEX
  8
0
 62
7
  6
CONTINUOUS
 10
203.0031489723
 20
385.1990509405
  0
VERTEX
  8
0
 62
7
  6
CONTINUOUS
 10
203.8548951266
 20
386.4347080276
  0
VERTEX
  8
0
 62
7
  6
CONTINUOUS
 10
204.6168352377
 20
387.7276750268
  0
VERTEX
  8
0
 62
7
  6
CONTINUOUS
 10
205.2851298883
 20
389.0714366755
  0
VERTEX
  8
0
 62
7
  6
CONTINUOUS
 10
205.8564115408
 20
390.459221757
  0
VERTEX
  8
0
 62
7
  6
CONTINUOUS
 10
206.3278015062
 20
391.8840372204
  0
VERTEX
  8
0
 62
7
  6
CONTINUOUS
 10
206.6969244497
 20
393.3387034187
  0
VERTEX
  8
0
 62
7
  6
CONTINUOUS
 10
206.9619203605
 20
394.815890287
  0
VERTEX
  8
0
 62
7
  6
CONTINUOUS
 10
207.1214539237
 20
396.3081542785
  0
VERTEX
  8
0
 62
7
  6
CONTINUOUS
 10
207.1747212494
 20
397.8079758731
  0
SEQEND
  0
POLYLINE
  8
0
 62
7
  6
CONTINUOUS
 66
1
 70
0
  0
VERTEX
  8
0
 62
7
  6
CONTINUOUS
 10
194.9380084423
 20
378.6332159437
  0
VERTEX
  8
0
 62
7
  6
CONTINUOUS
 10
194.8570706222
 20
378.595834295
  0
VERTEX
  8
0
 62
7
  6
CONTINUOUS
 10
194.775975886
 20
378.5587942796
  0
VERTEX
  8
0
 62
7
  6
CONTINUOUS
 10
194.6947256756
 20
378.5220965559
  0
VERTEX
  8
0
 62
7
  6
CONTINUOUS
 10
194.6133214359
 20
378.4857417768
  0
VERTEX
  8
0
 62
7
  6
CONTINUOUS
 10
194.5317646143
 20
378.4497305885
  0
VERTEX
  8
0
 62
7
  6
CONTINUOUS
 10
194.4500566611
 20
378.4140636314
  0
SEQEND
  0
POLYLINE
  8
0
 62
7
  6
CONTINUOUS
 66
1
 70
0
  0
VERTEX
  8
0
 62
7
  6
CONTINUOUS
 10
192.9361020956
 20
380.618267399
  0
VERTEX
  8
0
 62
7
  6
CONTINUOUS
 10
194.1916121812
 20
381.1779780083
  0
VERTEX
  8
0
 62
7
  6
CONTINUOUS
 10
195.4021179799
 20
381.8293246434
  0
VERTEX
  8
0
 62
7
  6
CONTINUOUS
 10
196.560942407
 20
382.5687142952
  0
VERTEX
  8
0
 62
7
  6
CONTINUOUS
 10
197.6616940895
 20
383.3920687627
  0
VERTEX
  8
0
 62
7
  6
CONTINUOUS
 10
198.6983018887
 20
384.2948468509
  0
VERTEX
  8
0
 62
7
  6
CONTINUOUS
 10
199.6650478503
 20
385.2720688414
  0
VERTEX
  8
0
 62
7
  6
CONTINUOUS
 10
200.5565995255
 20
386.3183445011
  0
VERTEX
  8
0
 62
7
  6
CONTINUOUS
 10
201.3680392278
 20
387.4279027055
  0
VERTEX
  8
0
 62
7
  6
CONTINUOUS
 10
202.0948911582
 20
388.5946232714
  0
VERTEX
  8
0
 62
7
  6
CONTINUOUS
 10
202.7331460931
 20
389.8120707156
  0
VERTEX
  8
0
 62
7
  6
CONTINUOUS
 10
203.2792834989
 20
391.0735297514
  0
VERTEX
  8
0
 62
7
  6
CONTINUOUS
 10
203.7302909505
 20
392.3720423301
  0
VERTEX
  8
0
 62
7
  6
CONTINUOUS
 10
204.0836807478
 20
393.7004460201
  0
VERTEX
  8
0
 62
7
  6
CONTINUOUS
 10
204.3375036373
 20
395.0514135143
  0
VERTEX
  8
0
 62
7
  6
CONTINUOUS
 10
204.4903595638
 20
396.4174930464
  0
VERTEX
  8
0
 62
7
  6
CONTINUOUS
 10
204.5414053934
 20
397.7911494942
  0
SEQEND
  0
POLYLINE
  8
0
 62
7
  6
CONTINUOUS
 66
1
 70
0
  0
VERTEX
  8
0
 62
7
  6
CONTINUOUS
 10
4.2715826786
 20
333.3993190519
  0
VERTEX
  8
0
 62
7
  6
CONTINUOUS
 10
4.3231917607
 20
332.5127172944
  0
VERTEX
  8
0
 62
7
  6
CONTINUOUS
 10
4.564799811
 20
330.9463731084
  0
VERTEX
  8
0
 62
7
  6
CONTINUOUS
 10
4.9955640495
 20
329.4215614305
  0
VERTEX
  8
0
 62
7
  6
CONTINUOUS
 10
5.6097126741
 20
327.9592703921
  0
VERTEX
  8
0
 62
7
  6
CONTINUOUS
 10
6.3941154356
 20
326.5854302213
  0
VERTEX
  8
0
 62
7
  6
CONTINUOUS
 10
7.3386116656
 20
325.3173419385
  0
VERTEX
  8
0
 62
7
  6
CONTINUOUS
 10
8.4313503095
 20
324.1744382414
  0
VERTEX
  8
0
 62
7
  6
CONTINUOUS
 10
9.6552737744
 20
323.171575283
  0
VERTEX
  8
0
 62
7
  6
CONTINUOUS
 10
10.9949664793
 20
322.3219169296
  0
VERTEX
  8
0
 62
7
  6
CONTINUOUS
 10
12.4263557298
 20
321.6435811142
  0
VERTEX
  8
0
 62
7
  6
CONTINUOUS
 10
13.9300348578
 20
321.1456779155
  0
VERTEX
  8
0
 62
7
  6
CONTINUOUS
 10
14.8521926848
 20
320.9371942692
  0
SEQEND
  0
LINE
  8
0
 62
7
  6
CONTINUOUS
 10
4.2715826879
 20
333.3993186665
 11
1.3547561156
 21
453.6276367411
  0
LINE
  8
0
 62
7
  6
CONTINUOUS
 10
14.4538947507
 20
99.9541363503
 11
11.3510265572
 21
322.1531799468
  0
LINE
  8
0
 62
7
  6
CONTINUOUS
 10
1.3547553296
 20
453.6277015585
 11
1.3547561156
 21
453.6276367411
  0
LINE
  8
0
 62
7
  6
CONTINUOUS
 10
4.2715826786
 20
333.3993190514
 11
4.2715819019
 21
333.3993834834
  0
LINE
  8
0
 62
7
  6
CONTINUOUS
 10
13.0279203589
 20
8.4279109903
 11
16.9554325886
 21
260.5154460162
  0
POLYLINE
  8
0
 62
7
  6
CONTINUOUS
 66
1
 70
0
  0
VERTEX
  8
0
 62
7
  6
CONTINUOUS
 10
187.6516777542
 20
409.6731509995
  0
VERTEX
  8
0
 62
7
  6
CONTINUOUS
 10
187.5373800377
 20
409.5522303265
  0
VERTEX
  8
0
 62
7
  6
CONTINUOUS
 10
187.4291073565
 20
409.4241001006
  0
VERTEX
  8
0
 62
7
  6
CONTINUOUS
 10
187.3272169576
 20
409.2887961845
  0
VERTEX
  8
0
 62
7
  6
CONTINUOUS
 10
187.2326773797
 20
409.1472619558
  0
VERTEX
  8
0
 62
7
  6
CONTINUOUS
 10
187.1462622619
 20
409.0005162022
  0
VERTEX
  8
0
 62
7
  6
CONTINUOUS
 10
187.0682350658
 20
408.8489652959
  0
VERTEX
  8
0
 62
7
  6
CONTINUOUS
 10
186.9989231899
 20
408.693213187
  0
VERTEX
  8
0
 62
7
  6
CONTINUOUS
 10
186.9385940099
 20
408.5338798163
  0
VERTEX
  8
0
 62
7
  6
CONTINUOUS
 10
186.8874046416
 20
408.3714147341
  0
VERTEX
  8
0
 62
7
  6
CONTINUOUS
 10
186.8456745115
 20
408.2070589822
  0
VERTEX
  8
0
 62
7
  6
CONTINUOUS
 10
186.813518906
 20
408.0420220958
  0
VERTEX
  8
0
 62
7
  6
CONTINUOUS
 10
186.7908185755
 20
407.8770097252
  0
VERTEX
  8
0
 62
7
  6
CONTINUOUS
 10
186.7774063817
 20
407.7129740583
  0
VERTEX
  8
0
 62
7
  6
CONTINUOUS
 10
186.7729980978
 20
407.5502980598
  0
SEQEND
  0
LINE
  8
0
 62
7
  6
CONTINUOUS
 10
194.9380084423
 20
416.9827358055
 11
192.9361043675
 21
414.9640298994
  0
LINE
  8
0
 62
7
  6
CONTINUOUS
 10
192.5153926896
 20
415.2495427426
 11
194.6952725432
 21
417.447537714
  0
POLYLINE
  8
0
 62
7
  6
CONTINUOUS
 66
1
 70
0
  0
VERTEX
  8
0
 62
7
  6
CONTINUOUS
 10
192.9361043675
 20
414.9640298994
  0
VERTEX
  8
0
 62
7
  6
CONTINUOUS
 10
191.9452738584
 20
413.9717092415
  0
VERTEX
  8
0
 62
7
  6
CONTINUOUS
 10
190.998138871
 20
413.0232585242
  0
VERTEX
  8
0
 62
7
  6
CONTINUOUS
 10
190.0943791791
 20
412.1183655015
  0
VERTEX
  8
0
 62
7
  6
CONTINUOUS
 10
189.2349554609
 20
411.2579669116
  0
VERTEX
  8
0
 62
7
  6
CONTINUOUS
 10
188.4208283946
 20
410.442999493
  0
VERTEX
  8
0
 62
7
  6
CONTINUOUS
 10
187.6516777542
 20
409.6731509995
  0
SEQEND
  0
POLYLINE
  8
0
 62
7
  6
CONTINUOUS
 66
1
 70
0
  0
VERTEX
  8
0
 62
7
  6
CONTINUOUS
 10
187.2981243636
 20
410.0259411319
  0
VERTEX
  8
0
 62
7
  6
CONTINUOUS
 10
188.0652082035
 20
410.7937200692
  0
VERTEX
  8
0
 62
7
  6
CONTINUOUS
 10
188.8735952886
 20
411.6029387245
  0
VERTEX
  8
0
 62
7
  6
CONTINUOUS
 10
189.7235845809
 20
412.4538888343
  0
VERTEX
  8
0
 62
7
  6
CONTINUOUS
 10
190.6142791944
 20
413.3456951891
  0
VERTEX
  8
0
 62
7
  6
CONTINUOUS
 10
191.5447822433
 20
414.2774825797
  0
VERTEX
  8
0
 62
7
  6
CONTINUOUS
 10
192.5153926896
 20
415.2495427426
  0
SEQEND
  0
POLYLINE
  8
0
 62
7
  6
CONTINUOUS
 66
1
 70
0
  0
VERTEX
  8
0
 62
7
  6
CONTINUOUS
 10
98.0461888574
 20
273.447547864
  0
VERTEX
  8
0
 62
7
  6
CONTINUOUS
 10
98.7986391051
 20
273.9571479114
  0
VERTEX
  8
0
 62
7
  6
CONTINUOUS
 10
101.4561218252
 20
275.2757513454
  0
VERTEX
  8
0
 62
7
  6
CONTINUOUS
 10
104.2607026403
 20
276.2386953783
  0
VERTEX
  8
0
 62
7
  6
CONTINUOUS
 10
107.1331212364
 20
276.8138687235
  0
VERTEX
  8
0
 62
7
  6
CONTINUOUS
 10
110.0997977182
 20
277.0119751433
  0
SEQEND
  0
LINE
  8
0
 62
7
  6
CONTINUOUS
 10
75.8572624533
 20
274.7571725347
 11
75.8573014265
 21
274.7560037888
  0
LINE
  8
0
 62
7
  6
CONTINUOUS
 10
75.8573014265
 20
274.7560037888
 11
75.8573014265
 21
273.724909268
  0
LINE
  8
0
 62
7
  6
CONTINUOUS
 10
75.8571048471
 20
273.6939563539
 11
75.8573014265
 21
273.724909268
  0
LINE
  8
0
 62
7
  6
CONTINUOUS
 10
155.407704376
 20
467.6495372218
 11
155.4077107577
 21
467.6496453442
  0
LINE
  8
0
 62
7
  6
CONTINUOUS
 10
220.997134271
 20
272.7847257185
 11
221.0327571162
 21
272.8193050814
  0
POLYLINE
  8
0
 62
7
  6
CONTINUOUS
 66
1
 70
0
  0
VERTEX
  8
0
 62
7
  6
CONTINUOUS
 10
249.4824903031
 20
273.1566591605
  0
VERTEX
  8
0
 62
7
  6
CONTINUOUS
 10
250.6644524359
 20
273.9571479114
  0
VERTEX
  8
0
 62
7
  6
CONTINUOUS
 10
253.321935156
 20
275.2757513454
  0
VERTEX
  8
0
 62
7
  6
CONTINUOUS
 10
256.1265159711
 20
276.2386953783
  0
VERTEX
  8
0
 62
7
  6
CONTINUOUS
 10
258.9989345672
 20
276.8138687235
  0
VERTEX
  8
0
 62
7
  6
CONTINUOUS
 10
261.965611049
 20
277.0119751433
  0
SEQEND
  0
LINE
  8
0
 62
40
  6
CONTINUOUS
 10
150.9987062624
 20
467.6474972341
 11
150.9987624984
 21
467.6438272294
  0
LINE
  8
0
 62
40
  6
CONTINUOUS
 10
151.0327606747
 20
467.6440008233
 11
151.0327043836
 21
467.6476708181
  0
LINE
  8
0
 62
40
  6
CONTINUOUS
 10
150.9987624984
 20
467.6438272294
 11
150.9991552875
 21
467.588851803
  0
LINE
  8
0
 62
40
  6
CONTINUOUS
 10
151.0331536278
 20
467.58902554
 11
151.0327606747
 21
467.6440008233
  0
LINE
  8
0
 62
40
  6
CONTINUOUS
 10
150.9991552875
 20
467.588851803
 11
151.0005463054
 21
467.3522857744
  0
LINE
  8
0
 62
40
  6
CONTINUOUS
 10
151.034544912
 20
467.3524601205
 11
151.0331536278
 21
467.58902554
  0
POLYLINE
  8
0
 62
40
  6
CONTINUOUS
 66
1
 70
0
  0
VERTEX
  8
0
 62
40
  6
CONTINUOUS
 10
151.0362989938
 20
467.0364653706
  0
VERTEX
  8
0
 62
40
  6
CONTINUOUS
 10
151.0358086705
 20
467.1257383281
  0
VERTEX
  8
0
 62
40
  6
CONTINUOUS
 10
151.034544912
 20
467.3524601205
  0
SEQEND
  0
LINE
  8
0
 62
40
  6
CONTINUOUS
 10
151.0005463054
 20
467.3522857744
 11
151.0059292822
 21
466.363724769
  0
POLYLINE
  8
0
 62
40
  6
CONTINUOUS
 66
1
 70
0
  0
VERTEX
  8
0
 62
40
  6
CONTINUOUS
 10
151.0464074077
 20
465.138066045
  0
VERTEX
  8
0
 62
40
  6
CONTINUOUS
 10
151.0455071489
 20
465.3095808875
  0
VERTEX
  8
0
 62
40
  6
CONTINUOUS
 10
151.0446309424
 20
465.4762071679
  0
VERTEX
  8
0
 62
40
  6
CONTINUOUS
 10
151.043779707
 20
465.6377701553
  0
VERTEX
  8
0
 62
40
  6
CONTINUOUS
 10
151.0429543352
 20
465.7941004286
  0
VERTEX
  8
0
 62
40
  6
CONTINUOUS
 10
151.0421556927
 20
465.9450340539
  0
VERTEX
  8
0
 62
40
  6
CONTINUOUS
 10
151.0413846169
 20
466.0904127564
  0
VERTEX
  8
0
 62
40
  6
CONTINUOUS
 10
151.0406419164
 20
466.2300840864
  0
VERTEX
  8
0
 62
40
  6
CONTINUOUS
 10
151.03992837
 20
466.3639015792
  0
VERTEX
  8
0
 62
40
  6
CONTINUOUS
 10
151.0362989938
 20
467.0364653706
  0
SEQEND
  0
POLYLINE
  8
0
 62
40
  6
CONTINUOUS
 66
1
 70
0
  0
VERTEX
  8
0
 62
40
  6
CONTINUOUS
 10
151.0059292822
 20
466.363724769
  0
VERTEX
  8
0
 62
40
  6
CONTINUOUS
 10
151.020357628
 20
463.6123460768
  0
VERTEX
  8
0
 62
40
  6
CONTINUOUS
 10
151.0214291656
 20
463.4054779591
  0
VERTEX
  8
0
 62
40
  6
CONTINUOUS
 10
151.0225143528
 20
463.1957178051
  0
VERTEX
  8
0
 62
40
  6
CONTINUOUS
 10
151.0236120517
 20
462.983285578
  0
VERTEX
  8
0
 62
40
  6
CONTINUOUS
 10
151.0247211112
 20
462.7684040429
  0
VERTEX
  8
0
 62
40
  6
CONTINUOUS
 10
151.0258403682
 20
462.5512985333
  0
VERTEX
  8
0
 62
40
  6
CONTINUOUS
 10
151.0269686492
 20
462.3321967152
  0
VERTEX
  8
0
 62
40
  6
CONTINUOUS
 10
151.0281047708
 20
462.1113283475
  0
VERTEX
  8
0
 62
40
  6
CONTINUOUS
 10
151.0292475417
 20
461.8889250421
  0
VERTEX
  8
0
 62
40
  6
CONTINUOUS
 10
151.0303957637
 20
461.66522002
  0
VERTEX
  8
0
 62
40
  6
CONTINUOUS
 10
151.0315482325
 20
461.4404478677
  0
VERTEX
  8
0
 62
40
  6
CONTINUOUS
 10
151.0327037397
 20
461.2148442905
  0
SEQEND
  0
POLYLINE
  8
0
 62
40
  6
CONTINUOUS
 66
1
 70
0
  0
VERTEX
  8
0
 62
40
  6
CONTINUOUS
 10
151.0667034908
 20
461.2150313493
  0
VERTEX
  8
0
 62
40
  6
CONTINUOUS
 10
151.0655479799
 20
461.4406345922
  0
VERTEX
  8
0
 62
40
  6
CONTINUOUS
 10
151.0643955056
 20
461.6654063986
  0
VERTEX
  8
0
 62
40
  6
CONTINUOUS
 10
151.0632472765
 20
461.8891110639
  0
VERTEX
  8
0
 62
40
  6
CONTINUOUS
 10
151.0621044967
 20
462.1115140031
  0
VERTEX
  8
0
 62
40
  6
CONTINUOUS
 10
151.0609683646
 20
462.3323819958
  0
VERTEX
  8
0
 62
40
  6
CONTINUOUS
 10
151.0598400714
 20
462.5514834313
  0
VERTEX
  8
0
 62
40
  6
CONTINUOUS
 10
151.0587208004
 20
462.7685885514
  0
VERTEX
  8
0
 62
40
  6
CONTINUOUS
 10
151.0576117253
 20
462.9834696915
  0
VERTEX
  8
0
 62
40
  6
CONTINUOUS
 10
151.0565140092
 20
463.1959015189
  0
VERTEX
  8
0
 62
40
  6
CONTINUOUS
 10
151.055428803
 20
463.4056612694
  0
VERTEX
  8
0
 62
40
  6
CONTINUOUS
 10
151.0543572449
 20
463.6125289809
  0
VERTEX
  8
0
 62
40
  6
CONTINUOUS
 10
151.0464074077
 20
465.138066045
  0
SEQEND
  0
LINE
  8
0
 62
7
  6
CONTINUOUS
 10
151.0682755835
 20
272.8193050812
 11
151.0682744961
 21
272.784725718
  0
POLYLINE
  8
0
 62
7
  6
CONTINUOUS
 66
1
 70
0
  0
VERTEX
  8
0
 62
7
  6
CONTINUOUS
 10
167.4084714076
 20
397.790270841
  0
VERTEX
  8
0
 62
7
  6
CONTINUOUS
 10
167.4595642496
 20
396.411694441
  0
VERTEX
  8
0
 62
7
  6
CONTINUOUS
 10
167.6125624441
 20
395.0406818839
  0
VERTEX
  8
0
 62
7
  6
CONTINUOUS
 10
167.8666265352
 20
393.6847555119
  0
VERTEX
  8
0
 62
7
  6
CONTINUOUS
 10
168.220362548
 20
392.3513548941
  0
VERTEX
  8
0
 62
7
  6
CONTINUOUS
 10
168.671829637
 20
391.047796007
  0
VERTEX
  8
0
 62
7
  6
CONTINUOUS
 10
169.2185507352
 20
389.7812310946
  0
VERTEX
  8
0
 62
7
  6
CONTINUOUS
 10
169.857526145
 20
388.5586094257
  0
VERTEX
  8
0
 62
7
  6
CONTINUOUS
 10
170.5852499963
 20
387.3866391654
  0
VERTEX
  8
0
 62
7
  6
CONTINUOUS
 10
171.3977294826
 20
386.2717505697
  0
VERTEX
  8
0
 62
7
  6
CONTINUOUS
 10
172.2905067682
 20
385.220060704
  0
VERTEX
  8
0
 62
7
  6
CONTINUOUS
 10
173.2586834468
 20
384.237339881
  0
VERTEX
  8
0
 62
7
  6
CONTINUOUS
 10
174.296947418
 20
383.3289800007
  0
VERTEX
  8
0
 62
7
  6
CONTINUOUS
 10
175.399602033
 20
382.4999649663
  0
VERTEX
  8
0
 62
7
  6
CONTINUOUS
 10
176.5605973506
 20
381.7548433392
  0
VERTEX
  8
0
 62
7
  6
CONTINUOUS
 10
177.7735633312
 20
381.0977033826
  0
VERTEX
  8
0
 62
7
  6
CONTINUOUS
 10
179.0318447876
 20
380.5321506298
  0
VERTEX
  8
0
 62
7
  6
CONTINUOUS
 10
180.3285378997
 20
380.0612881024
  0
VERTEX
  8
0
 62
7
  6
CONTINUOUS
 10
181.6565280942
 20
379.6876992844
  0
VERTEX
  8
0
 62
7
  6
CONTINUOUS
 10
183.0085290798
 20
379.4134339478
  0
VERTEX
  8
0
 62
7
  6
CONTINUOUS
 10
184.377122825
 20
379.2399969056
  0
VERTEX
  8
0
 62
7
  6
CONTINUOUS
 10
185.7548002589
 20
379.1683397559
  0
VERTEX
  8
0
 62
7
  6
CONTINUOUS
 10
187.134002471
 20
379.1988556604
  0
VERTEX
  8
0
 62
7
  6
CONTINUOUS
 10
188.5071735792
 20
379.3313787147
  0
VERTEX
  8
0
 62
7
  6
CONTINUOUS
 10
189.8667452767
 20
379.5651772299
  0
VERTEX
  8
0
 62
7
  6
CONTINUOUS
 10
191.2052258498
 20
379.8989538389
  0
VERTEX
  8
0
 62
7
  6
CONTINUOUS
 10
192.5152860461
 20
380.3308690216
  0
SEQEND
  0
POLYLINE
  8
0
 62
7
  6
CONTINUOUS
 66
1
 70
0
  0
VERTEX
  8
0
 62
7
  6
CONTINUOUS
 10
164.5697190166
 20
397.8084099196
  0
VERTEX
  8
0
 62
7
  6
CONTINUOUS
 10
164.6236944693
 20
396.287233205
  0
VERTEX
  8
0
 62
7
  6
CONTINUOUS
 10
164.785349351
 20
394.7737074486
  0
VERTEX
  8
0
 62
7
  6
CONTINUOUS
 10
165.0538705969
 20
393.2754451271
  0
VERTEX
  8
0
 62
7
  6
CONTINUOUS
 10
165.4279076444
 20
391.7999819477
  0
VERTEX
  8
0
 62
7
  6
CONTINUOUS
 10
165.9055792249
 20
390.3547389464
  0
VERTEX
  8
0
 62
7
  6
CONTINUOUS
 10
166.4844828265
 20
388.9469851628
  0
VERTEX
  8
0
 62
7
  6
CONTINUOUS
 10
167.1617067773
 20
387.5838010796
  0
VERTEX
  8
0
 62
7
  6
CONTINUOUS
 10
167.9338448905
 20
386.2720430102
  0
VERTEX
  8
0
 62
7
  6
CONTINUOUS
 10
168.7970135961
 20
385.0183086142
  0
VERTEX
  8
0
 62
7
  6
CONTINUOUS
 10
169.7468714735
 20
383.8289037136
  0
VERTEX
  8
0
 62
7
  6
CONTINUOUS
 10
170.7786410877
 20
382.7098105766
  0
VERTEX
  8
0
 62
7
  6
CONTINUOUS
 10
171.887133018
 20
381.6666578291
  0
VERTEX
  8
0
 62
7
  6
CONTINUOUS
 10
173.0667719584
 20
380.7046921452
  0
VERTEX
  8
0
 62
7
  6
CONTINUOUS
 10
174.3116247598
 20
379.8287518574
  0
VERTEX
  8
0
 62
7
  6
CONTINUOUS
 10
175.6154302716
 20
379.0432426228
  0
VERTEX
  8
0
 62
7
  6
CONTINUOUS
 10
176.9716308325
 20
378.352115263
  0
VERTEX
  8
0
 62
7
  6
CONTINUOUS
 10
178.3734052536
 20
377.7588458942
  0
VERTEX
  8
0
 62
7
  6
CONTINUOUS
 10
179.8137031263
 20
377.2664184425
  0
VERTEX
  8
0
 62
7
  6
CONTINUOUS
 10
181.285280283
 20
376.8773096364
  0
VERTEX
  8
0
 62
7
  6
CONTINUOUS
 10
182.7807352332
 20
376.5934765499
  0
VERTEX
  8
0
 62
7
  6
CONTINUOUS
 10
184.2925463895
 20
376.4163467588
  0
VERTEX
  8
0
 62
7
  6
CONTINUOUS
 10
185.8131098992
 20
376.3468111607
  0
VERTEX
  8
0
 62
7
  6
CONTINUOUS
 10
187.3347778882
 20
376.3852194939
  0
VERTEX
  8
0
 62
7
  6
CONTINUOUS
 10
188.8498969274
 20
376.5313785787
  0
VERTEX
  8
0
 62
7
  6
CONTINUOUS
 10
190.3505631383
 20
376.7844950864
  0
VERTEX
  8
0
 62
7
  6
CONTINUOUS
 10
191.8300774622
 20
377.1434702487
  0
VERTEX
  8
0
 62
7
  6
CONTINUOUS
 10
193.2817835896
 20
377.6069104349
  0
VERTEX
  8
0
 62
7
  6
CONTINUOUS
 10
194.6980050901
 20
378.1726556115
  0
SEQEND
  0
LINE
  8
0
 62
7
  6
CONTINUOUS
 10
186.2729980978
 20
388.0148350798
 11
186.2729980978
 21
407.5492836268
  0
LINE
  8
0
 62
7
  6
CONTINUOUS
 10
186.7729980978
 20
407.5502980598
 11
186.7729980978
 21
388.0158495129
  0
POLYLINE
  8
0
 62
7
  6
CONTINUOUS
 66
1
 70
0
  0
VERTEX
  8
0
 62
7
  6
CONTINUOUS
 10
186.2729980978
 20
407.5492836264
  0
VERTEX
  8
0
 62
7
  6
CONTINUOUS
 10
186.2775996391
 20
407.7288105168
  0
VERTEX
  8
0
 62
7
  6
CONTINUOUS
 10
186.2920644424
 20
407.9143440386
  0
VERTEX
  8
0
 62
7
  6
CONTINUOUS
 10
186.3175737452
 20
408.1064538671
  0
VERTEX
  8
0
 62
7
  6
CONTINUOUS
 10
186.354547183
 20
408.3008965695
  0
VERTEX
  8
0
 62
7
  6
CONTINUOUS
 10
186.4027075193
 20
408.4939026072
  0
VERTEX
  8
0
 62
7
  6
CONTINUOUS
 10
186.4620266086
 20
408.6846986931
  0
VERTEX
  8
0
 62
7
  6
CONTINUOUS
 10
186.5319649304
 20
408.8714159106
  0
VERTEX
  8
0
 62
7
  6
CONTINUOUS
 10
186.6124081737
 20
409.0538504978
  0
VERTEX
  8
0
 62
7
  6
CONTINUOUS
 10
186.7030911722
 20
409.2314030727
  0
VERTEX
  8
0
 62
7
  6
CONTINUOUS
 10
186.8037074832
 20
409.4034810662
  0
VERTEX
  8
0
 62
7
  6
CONTINUOUS
 10
186.9139193556
 20
409.5695192182
  0
VERTEX
  8
0
 62
7
  6
CONTINUOUS
 10
187.0333423846
 20
409.7289569608
  0
VERTEX
  8
0
 62
7
  6
CONTINUOUS
 10
187.1615506821
 20
409.8812536396
  0
VERTEX
  8
0
 62
7
  6
CONTINUOUS
 10
187.2981243636
 20
410.0259411214
  0
SEQEND
  0
POLYLINE
  8
0
 62
7
  6
CONTINUOUS
 66
1
 70
0
  0
VERTEX
  8
0
 62
7
  6
CONTINUOUS
 10
204.5414053934
 20
397.7911494942
  0
VERTEX
  8
0
 62
7
  6
CONTINUOUS
 10
204.4903595638
 20
399.1648059419
  0
VERTEX
  8
0
 62
7
  6
CONTINUOUS
 10
204.3375036373
 20
400.5308854741
  0
VERTEX
  8
0
 62
7
  6
CONTINUOUS
 10
204.0836807478
 20
401.8818529682
  0
VERTEX
  8
0
 62
7
  6
CONTINUOUS
 10
203.7302909505
 20
403.2102566582
  0
VERTEX
  8
0
 62
7
  6
CONTINUOUS
 10
203.2792834989
 20
404.5087692369
  0
VERTEX
  8
0
 62
7
  6
CONTINUOUS
 10
202.7331460931
 20
405.7702282728
  0
VERTEX
  8
0
 62
7
  6
CONTINUOUS
 10
202.0948911582
 20
406.9876757169
  0
VERTEX
  8
0
 62
7
  6
CONTINUOUS
 10
201.3680392278
 20
408.1543962829
  0
VERTEX
  8
0
 62
7
  6
CONTINUOUS
 10
200.5565995255
 20
409.2639544872
  0
VERTEX
  8
0
 62
7
  6
CONTINUOUS
 10
199.6650478503
 20
410.3102301469
  0
VERTEX
  8
0
 62
7
  6
CONTINUOUS
 10
198.6983018887
 20
411.2874521374
  0
VERTEX
  8
0
 62
7
  6
CONTINUOUS
 10
197.6616940895
 20
412.1902302256
  0
VERTEX
  8
0
 62
7
  6
CONTINUOUS
 10
196.560942407
 20
413.0135846932
  0
VERTEX
  8
0
 62
7
  6
CONTINUOUS
 10
195.4021179799
 20
413.7529743449
  0
VERTEX
  8
0
 62
7
  6
CONTINUOUS
 10
194.1916121812
 20
414.40432098
  0
VERTEX
  8
0
 62
7
  6
CONTINUOUS
 10
192.9361020956
 20
414.9640315893
  0
SEQEND
  0
POLYLINE
  8
0
 62
7
  6
CONTINUOUS
 66
1
 70
0
  0
VERTEX
  8
0
 62
7
  6
CONTINUOUS
 10
186.7729980978
 20
388.0158495129
  0
VERTEX
  8
0
 62
7
  6
CONTINUOUS
 10
186.7767122452
 20
387.8667117516
  0
VERTEX
  8
0
 62
7
  6
CONTINUOUS
 10
186.7882871589
 20
387.7135577273
  0
VERTEX
  8
0
 62
7
  6
CONTINUOUS
 10
186.8083978427
 20
387.5566491374
  0
VERTEX
  8
0
 62
7
  6
CONTINUOUS
 10
186.8375903774
 20
387.3970867259
  0
VERTEX
  8
0
 62
7
  6
CONTINUOUS
 10
186.8763545576
 20
387.2357017973
  0
VERTEX
  8
0
 62
7
  6
CONTINUOUS
 10
186.9249307457
 20
387.0738856127
  0
VERTEX
  8
0
 62
7
  6
CONTINUOUS
 10
186.9833306409
 20
386.9130935398
  0
VERTEX
  8
0
 62
7
  6
CONTINUOUS
 10
187.0516812237
 20
386.7540234477
  0
VERTEX
  8
0
 62
7
  6
CONTINUOUS
 10
187.1300890541
 20
386.5973349223
  0
VERTEX
  8
0
 62
7
  6
CONTINUOUS
 10
187.218052982
 20
386.4446325512
  0
VERTEX
  8
0
 62
7
  6
CONTINUOUS
 10
187.3149116182
 20
386.2972635442
  0
VERTEX
  8
0
 62
7
  6
CONTINUOUS
 10
187.420034026
 20
386.1561450309
  0
VERTEX
  8
0
 62
7
  6
CONTINUOUS
 10
187.5324030628
 20
386.0223960503
  0
VERTEX
  8
0
 62
7
  6
CONTINUOUS
 10
187.6516777542
 20
385.8961137973
  0
SEQEND
  0
LINE
  8
0
 62
7
  6
CONTINUOUS
 10
194.4500566611
 20
378.4522681896
 11
194.4500566611
 21
378.4140636314
  0
POLYLINE
  8
0
 62
7
  6
CONTINUOUS
 66
1
 70
0
  0
VERTEX
  8
0
 62
7
  6
CONTINUOUS
 10
207.1747212494
 20
397.8079758731
  0
VERTEX
  8
0
 62
7
  6
CONTINUOUS
 10
207.1214539237
 20
399.3077974677
  0
VERTEX
  8
0
 62
7
  6
CONTINUOUS
 10
206.9619203605
 20
400.8000614592
  0
VERTEX
  8
0
 62
7
  6
CONTINUOUS
 10
206.6969244497
 20
402.2772483274
  0
VERTEX
  8
0
 62
7
  6
CONTINUOUS
 10
206.3278015062
 20
403.7319145257
  0
VERTEX
  8
0
 62
7
  6
CONTINUOUS
 10
205.8564115408
 20
405.1567299892
  0
VERTEX
  8
0
 62
7
  6
CONTINUOUS
 10
205.2851298883
 20
406.5445150707
  0
VERTEX
  8
0
 62
7
  6
CONTINUOUS
 10
204.6168352377
 20
407.8882767194
  0
VERTEX
  8
0
 62
7
  6
CONTINUOUS
 10
203.8548951266
 20
409.1812437185
  0
VERTEX
  8
0
 62
7
  6
CONTINUOUS
 10
203.0031489723
 20
410.4169008056
  0
VERTEX
  8
0
 62
7
  6
CONTINUOUS
 10
202.0658887248
 20
411.589021503
  0
VERTEX
  8
0
 62
7
  6
CONTINUOUS
 10
201.0478372397
 20
412.6916994928
  0
VERTEX
  8
0
 62
7
  6
CONTINUOUS
 10
199.9541244799
 20
413.7193783791
  0
VERTEX
  8
0
 62
7
  6
CONTINUOUS
 10
198.7902618056
 20
414.6668795808
  0
VERTEX
  8
0
 62
7
  6
CONTINUOUS
 10
197.5621135026
 20
415.5294289554
  0
VERTEX
  8
0
 62
7
  6
CONTINUOUS
 10
196.2758677094
 20
416.3026803088
  0
VERTEX
  8
0
 62
7
  6
CONTINUOUS
 10
194.9380058923
 20
416.9827369867
  0
SEQEND
  0
LINE
  8
0
 62
7
  6
CONTINUOUS
 10
216.6577043912
 20
467.6495372218
 11
216.6577045597
 21
467.6496453411
  0
LINE
  8
0
 62
40
  6
CONTINUOUS
 10
220.9987052764
 20
461.2150313493
 11
221.0232530744
 21
465.9450340539
  0
LINE
  8
0
 62
40
  6
CONTINUOUS
 10
221.0327050924
 20
461.2148442901
 11
221.0572523523
 21
465.9448562399
  0
LINE
  8
0
 62
40
  6
CONTINUOUS
 10
221.0232530744
 20
465.9450340539
 11
221.0291097734
 21
467.0364653706
  0
LINE
  8
0
 62
40
  6
CONTINUOUS
 10
221.0572523523
 20
465.9448562399
 11
221.0631086475
 21
467.0362902223
  0
LINE
  8
0
 62
40
  6
CONTINUOUS
 10
221.0291097734
 20
467.0364653706
 11
221.031214565
 21
467.4140708496
  0
LINE
  8
0
 62
40
  6
CONTINUOUS
 10
221.0631086475
 20
467.0362902223
 11
221.0652131843
 21
467.413896661
  0
LINE
  8
0
 62
40
  6
CONTINUOUS
 10
221.031214565
 20
467.4140708496
 11
221.0322551393
 21
467.58902554
  0
LINE
  8
0
 62
40
  6
CONTINUOUS
 10
221.0652131843
 20
467.413896661
 11
221.0662535446
 21
467.5888518027
  0
POLYLINE
  8
0
 62
40
  6
CONTINUOUS
 66
1
 70
0
  0
VERTEX
  8
0
 62
40
  6
CONTINUOUS
 10
221.0322551393
 20
467.58902554
  0
VERTEX
  8
0
 62
40
  6
CONTINUOUS
 10
221.0326480925
 20
467.6440008233
  0
VERTEX
  8
0
 62
40
  6
CONTINUOUS
 10
221.0327043836
 20
467.6476708181
  0
SEQEND
  0
POLYLINE
  8
0
 62
40
  6
CONTINUOUS
 66
1
 70
0
  0
VERTEX
  8
0
 62
40
  6
CONTINUOUS
 10
221.0662535446
 20
467.5888518027
  0
VERTEX
  8
0
 62
40
  6
CONTINUOUS
 10
221.0666463336
 20
467.6438272291
  0
VERTEX
  8
0
 62
40
  6
CONTINUOUS
 10
221.0667025697
 20
467.6474972337
  0
SEQEND
  0
POLYLINE
  8
0
 62
7
  6
CONTINUOUS
 66
1
 70
0
  0
VERTEX
  8
0
 62
7
  6
CONTINUOUS
 10
122.0892718316
 20
273.16262087
  0
VERTEX
  8
0
 62
7
  6
CONTINUOUS
 10
121.4009563312
 20
273.6287853941
  0
VERTEX
  8
0
 62
7
  6
CONTINUOUS
 10
118.7434736111
 20
274.947388828
  0
VERTEX
  8
0
 62
7
  6
CONTINUOUS
 10
115.938892796
 20
275.9103328609
  0
VERTEX
  8
0
 62
7
  6
CONTINUOUS
 10
113.0664741999
 20
276.4855062062
  0
VERTEX
  8
0
 62
7
  6
CONTINUOUS
 10
110.0997977182
 20
276.6836126259
  0
SEQEND
  0
LINE
  8
0
 62
7
  6
CONTINUOUS
 10
296.2081073406
 20
273.724909268
 11
296.20830392
 21
273.6939563539
  0
LINE
  8
0
 62
7
  6
CONTINUOUS
 10
296.2081073406
 20
273.724909268
 11
296.2081073406
 21
274.7560037888
  0
LINE
  8
0
 62
7
  6
CONTINUOUS
 10
296.2081073406
 20
274.7560037888
 11
296.2081463447
 21
274.7571699342
  0
POLYLINE
  8
0
 62
7
  6
CONTINUOUS
 66
1
 70
0
  0
VERTEX
  8
0
 62
7
  6
CONTINUOUS
 10
261.965611049
 20
276.6836126259
  0
VERTEX
  8
0
 62
7
  6
CONTINUOUS
 10
259.0061641822
 20
276.4848364613
  0
VERTEX
  8
0
 62
7
  6
CONTINUOUS
 10
256.1473357914
 20
275.9159372095
  0
VERTEX
  8
0
 62
7
  6
CONTINUOUS
 10
253.3653058039
 20
274.9663510022
  0
VERTEX
  8
0
 62
7
  6
CONTINUOUS
 10
250.7315344377
 20
273.6677694437
  0
VERTEX
  8
0
 62
7
  6
CONTINUOUS
 10
249.9784543905
 20
273.1625384072
  0
SEQEND
  0
LINE
  8
0
 62
7
  6
CONTINUOUS
 10
296.2134252714
 20
273.7212801321
 11
272.5166929827
 21
273.4297107036
  0
LINE
  8
0
 62
7
  6
CONTINUOUS
 10
221.0327558623
 20
272.819410939
 11
281.4438985402
 21
273.535535389
  0
LINE
  8
0
 62
7
  6
CONTINUOUS
 10
296.2081337567
 20
274.7582321679
 11
339.9107576404
 21
275.2762144948
  0
POLYLINE
  8
0
 62
7
  6
CONTINUOUS
 66
1
 70
0
  0
VERTEX
  8
0
 62
7
  6
CONTINUOUS
 10
296.20830392
 20
273.6939563539
  0
VERTEX
  8
0
 62
7
  6
CONTINUOUS
 10
293.7399757702
 20
273.6701166459
  0
VERTEX
  8
0
 62
7
  6
CONTINUOUS
 10
291.274685084
 20
273.6452001178
  0
VERTEX
  8
0
 62
7
  6
CONTINUOUS
 10
288.8124317635
 20
273.6191586705
  0
VERTEX
  8
0
 62
7
  6
CONTINUOUS
 10
286.3532161022
 20
273.5921366011
  0
VERTEX
  8
0
 62
7
  6
CONTINUOUS
 10
283.8970383938
 20
273.564278207
  0
VERTEX
  8
0
 62
7
  6
CONTINUOUS
 10
281.4438985402
 20
273.535535389
  0
SEQEND
  0
LINE
  8
0
 62
7
  6
CONTINUOUS
 10
221.0327571162
 20
272.8193050814
 11
151.0682755835
 21
272.8193050812
  0
POLYLINE
  8
0
 62
7
  6
CONTINUOUS
 66
1
 70
0
  0
VERTEX
  8
0
 62
7
  6
CONTINUOUS
 10
90.6215102263
 20
273.535535389
  0
VERTEX
  8
0
 62
7
  6
CONTINUOUS
 10
88.1683703731
 20
273.564278207
  0
VERTEX
  8
0
 62
7
  6
CONTINUOUS
 10
85.7121926649
 20
273.5921366012
  0
VERTEX
  8
0
 62
7
  6
CONTINUOUS
 10
83.2529770037
 20
273.6191586705
  0
VERTEX
  8
0
 62
7
  6
CONTINUOUS
 10
80.7907236832
 20
273.6452001179
  0
VERTEX
  8
0
 62
7
  6
CONTINUOUS
 10
78.3254329969
 20
273.670116646
  0
VERTEX
  8
0
 62
7
  6
CONTINUOUS
 10
75.8571048471
 20
273.6939563539
  0
SEQEND
  0
LINE
  8
0
 62
7
  6
CONTINUOUS
 10
90.6215102263
 20
273.535535389
 11
151.0682750266
 21
272.819199842
  0
LINE
  8
0
 62
7
  6
CONTINUOUS
 10
75.8572750105
 20
274.7582321679
 11
32.1546511267
 21
275.2762144948
  0
LINE
  8
0
 62
7
  6
CONTINUOUS
 10
75.8519834958
 20
273.7212801321
 11
99.4799476662
 21
273.4305568406
  0
POLYLINE
  8
0
 62
7
  6
CONTINUOUS
 66
1
 70
0
  0
VERTEX
  8
0
 62
7
  6
CONTINUOUS
 10
110.0997977182
 20
277.0119751433
  0
VERTEX
  8
0
 62
7
  6
CONTINUOUS
 10
113.059244585
 20
276.8131989787
  0
VERTEX
  8
0
 62
7
  6
CONTINUOUS
 10
115.9180729758
 20
276.2442997268
  0
VERTEX
  8
0
 62
7
  6
CONTINUOUS
 10
118.7001029633
 20
275.2947135196
  0
VERTEX
  8
0
 62
7
  6
CONTINUOUS
 10
121.3338743295
 20
273.9961319611
  0
VERTEX
  8
0
 62
7
  6
CONTINUOUS
 10
122.5850346269
 20
273.1567457415
  0
SEQEND
  0
POLYLINE
  8
0
 62
7
  6
CONTINUOUS
 66
1
 70
0
  0
VERTEX
  8
0
 62
7
  6
CONTINUOUS
 10
357.2132160995
 20
320.9371942725
  0
VERTEX
  8
0
 62
7
  6
CONTINUOUS
 10
358.0729078493
 20
321.1293862134
  0
VERTEX
  8
0
 62
7
  6
CONTINUOUS
 10
359.5752693012
 20
321.6184450122
  0
VERTEX
  8
0
 62
7
  6
CONTINUOUS
 10
361.0072433687
 20
322.2873688805
  0
VERTEX
  8
0
 62
7
  6
CONTINUOUS
 10
362.3489531303
 20
323.1273420968
  0
VERTEX
  8
0
 62
7
  6
CONTINUOUS
 10
363.5769707823
 20
324.1215459945
  0
VERTEX
  8
0
 62
7
  6
CONTINUOUS
 10
364.6758035403
 20
325.2573490265
  0
VERTEX
  8
0
 62
7
  6
CONTINUOUS
 10
365.6279611017
 20
326.5201148741
  0
VERTEX
  8
0
 62
7
  6
CONTINUOUS
 10
366.4214145244
 20
327.8908894645
  0
VERTEX
  8
0
 62
7
  6
CONTINUOUS
 10
367.0455532829
 20
329.3525710717
  0
VERTEX
  8
0
 62
7
  6
CONTINUOUS
 10
367.4858555643
 20
330.8781908144
  0
VERTEX
  8
0
 62
7
  6
CONTINUOUS
 10
367.736115262
 20
332.4474497012
  0
VERTEX
  8
0
 62
7
  6
CONTINUOUS
 10
367.7938260714
 20
333.3993183445
  0
SEQEND
  0
POLYLINE
  8
0
 62
7
  6
CONTINUOUS
 66
1
 70
0
  0
VERTEX
  8
0
 62
7
  6
CONTINUOUS
 10
110.0997977182
 20
276.6836126259
  0
VERTEX
  8
0
 62
7
  6
CONTINUOUS
 10
107.1403508513
 20
276.4848364613
  0
VERTEX
  8
0
 62
7
  6
CONTINUOUS
 10
104.2815224605
 20
275.9159372095
  0
VERTEX
  8
0
 62
7
  6
CONTINUOUS
 10
101.499492473
 20
274.9663510022
  0
VERTEX
  8
0
 62
7
  6
CONTINUOUS
 10
98.8657211069
 20
273.6677694437
  0
VERTEX
  8
0
 62
7
  6
CONTINUOUS
 10
98.5289389705
 20
273.4418269447
  0
SEQEND
  0
POLYLINE
  8
0
 62
7
  6
CONTINUOUS
 66
1
 70
0
  0
VERTEX
  8
0
 62
7
  6
CONTINUOUS
 10
32.1546510328
 20
275.2762144889
  0
VERTEX
  8
0
 62
7
  6
CONTINUOUS
 10
31.411676034
 20
275.2664967442
  0
VERTEX
  8
0
 62
7
  6
CONTINUOUS
 10
29.5919357284
 20
275.0862889179
  0
VERTEX
  8
0
 62
7
  6
CONTINUOUS
 10
27.7971616816
 20
274.6848502203
  0
VERTEX
  8
0
 62
7
  6
CONTINUOUS
 10
26.0582081368
 20
274.0646686084
  0
VERTEX
  8
0
 62
7
  6
CONTINUOUS
 10
24.4042073551
 20
273.232184814
  0
VERTEX
  8
0
 62
7
  6
CONTINUOUS
 10
22.8618105893
 20
272.2012878299
  0
VERTEX
  8
0
 62
7
  6
CONTINUOUS
 10
21.4571805617
 20
270.9877481974
  0
VERTEX
  8
0
 62
7
  6
CONTINUOUS
 10
20.2146194417
 20
269.6097349547
  0
VERTEX
  8
0
 62
7
  6
CONTINUOUS
 10
19.1525215522
 20
268.0914423782
  0
VERTEX
  8
0
 62
7
  6
CONTINUOUS
 10
18.2871875367
 20
266.458709264
  0
VERTEX
  8
0
 62
7
  6
CONTINUOUS
 10
17.632756002
 20
264.7380275311
  0
VERTEX
  8
0
 62
7
  6
CONTINUOUS
 10
17.195718983
 20
262.9585911643
  0
VERTEX
  8
0
 62
7
  6
CONTINUOUS
 10
16.9789969787
 20
261.1511862838
  0
VERTEX
  8
0
 62
7
  6
CONTINUOUS
 10
16.9554326038
 20
260.5154469855
  0
SEQEND
  0
POLYLINE
  8
0
 62
7
  6
CONTINUOUS
 66
1
 70
0
  0
VERTEX
  8
0
 62
7
  6
CONTINUOUS
 10
261.965611049
 20
277.0119751433
  0
VERTEX
  8
0
 62
7
  6
CONTINUOUS
 10
264.9250579158
 20
276.8131989787
  0
VERTEX
  8
0
 62
7
  6
CONTINUOUS
 10
267.7838863066
 20
276.2442997268
  0
VERTEX
  8
0
 62
7
  6
CONTINUOUS
 10
270.5659162941
 20
275.2947135196
  0
VERTEX
  8
0
 62
7
  6
CONTINUOUS
 10
273.1996876603
 20
273.9961319611
  0
VERTEX
  8
0
 62
7
  6
CONTINUOUS
 10
274.0174580855
 20
273.4475010406
  0
SEQEND
  0
POLYLINE
  8
0
 62
7
  6
CONTINUOUS
 66
1
 70
0
  0
VERTEX
  8
0
 62
7
  6
CONTINUOUS
 10
14.8521929261
 20
320.9371942234
  0
VERTEX
  8
0
 62
7
  6
CONTINUOUS
 10
37.3623597871
 20
317.000713878
  0
VERTEX
  8
0
 62
7
  6
CONTINUOUS
 10
59.9678150048
 20
313.6539687508
  0
VERTEX
  8
0
 62
7
  6
CONTINUOUS
 10
82.6530974675
 20
310.8992478732
  0
VERTEX
  8
0
 62
7
  6
CONTINUOUS
 10
105.4026912159
 20
308.7384353906
  0
VERTEX
  8
0
 62
7
  6
CONTINUOUS
 10
128.2010363044
 20
307.1730092284
  0
VERTEX
  8
0
 62
7
  6
CONTINUOUS
 10
151.0324994055
 20
306.2040412553
  0
SEQEND
  0
POLYLINE
  8
0
 62
7
  6
CONTINUOUS
 66
1
 70
0
  0
VERTEX
  8
0
 62
7
  6
CONTINUOUS
 10
355.1099761656
 20
260.5154468452
  0
VERTEX
  8
0
 62
7
  6
CONTINUOUS
 10
355.080280246
 20
261.2502744233
  0
VERTEX
  8
0
 62
7
  6
CONTINUOUS
 10
354.8512587063
 20
263.057997458
  0
VERTEX
  8
0
 62
7
  6
CONTINUOUS
 10
354.4018331427
 20
264.8358581603
  0
VERTEX
  8
0
 62
7
  6
CONTINUOUS
 10
353.7350890026
 20
266.5530251826
  0
VERTEX
  8
0
 62
7
  6
CONTINUOUS
 10
352.8580245183
 20
268.1804402305
  0
VERTEX
  8
0
 62
7
  6
CONTINUOUS
 10
351.7851173657
 20
269.6917206349
  0
VERTEX
  8
0
 62
7
  6
CONTINUOUS
 10
350.5327880231
 20
271.0610878625
  0
VERTEX
  8
0
 62
7
  6
CONTINUOUS
 10
349.1197563706
 20
272.2646472815
  0
VERTEX
  8
0
 62
7
  6
CONTINUOUS
 10
347.5706255573
 20
273.2845673671
  0
VERTEX
  8
0
 62
7
  6
CONTINUOUS
 10
345.9116170272
 20
274.1051981697
  0
VERTEX
  8
0
 62
7
  6
CONTINUOUS
 10
344.1694838321
 20
274.7129862339
  0
VERTEX
  8
0
 62
7
  6
CONTINUOUS
 10
342.3734890926
 20
275.1020059608
  0
VERTEX
  8
0
 62
7
  6
CONTINUOUS
 10
340.5544453588
 20
275.2699358359
  0
VERTEX
  8
0
 62
7
  6
CONTINUOUS
 10
339.9107577382
 20
275.2762144884
  0
SEQEND
  0
LINE
  8
0
 62
7
  6
CONTINUOUS
 10
359.0374884082
 20
8.4279109903
 11
355.1099761786
 21
260.5154460162
  0
LINE
  8
0
 62
7
  6
CONTINUOUS
 10
357.6115140164
 20
99.9541363503
 11
360.7143454324
 21
322.1505462766
  0
POLYLINE
  8
0
 62
7
  6
CONTINUOUS
 66
1
 70
0
  0
VERTEX
  8
0
 62
7
  6
CONTINUOUS
 10
221.0329133497
 20
306.2040413724
  0
VERTEX
  8
0
 62
7
  6
CONTINUOUS
 10
243.8643819921
 20
307.1730097577
  0
VERTEX
  8
0
 62
7
  6
CONTINUOUS
 10
266.6627252169
 20
308.7384360178
  0
VERTEX
  8
0
 62
7
  6
CONTINUOUS
 10
289.4123170588
 20
310.8992484962
  0
VERTEX
  8
0
 62
7
  6
CONTINUOUS
 10
312.0975975966
 20
313.6539692674
  0
VERTEX
  8
0
 62
7
  6
CONTINUOUS
 10
334.7030508955
 20
317.0007141872
  0
VERTEX
  8
0
 62
7
  6
CONTINUOUS
 10
357.2132158419
 20
320.9371942236
  0
SEQEND
  0
POLYLINE
  8
0
 62
7
  6
CONTINUOUS
 66
1
 70
0
  0
VERTEX
  8
0
 62
7
  6
CONTINUOUS
 10
151.0324994056
 20
306.2040412553
  0
VERTEX
  8
0
 62
7
  6
CONTINUOUS
 10
162.3044106443
 20
305.9265009547
  0
VERTEX
  8
0
 62
7
  6
CONTINUOUS
 10
174.1815387328
 20
305.7493704286
  0
VERTEX
  8
0
 62
7
  6
CONTINUOUS
 10
186.0599144883
 20
305.6905061037
  0
VERTEX
  8
0
 62
7
  6
CONTINUOUS
 10
197.9382867259
 20
305.7499122535
  0
VERTEX
  8
0
 62
7
  6
CONTINUOUS
 10
209.8154042623
 20
305.9275845311
  0
VERTEX
  8
0
 62
7
  6
CONTINUOUS
 10
221.0329133497
 20
306.2040413724
  0
SEQEND
  0
POLYLINE
  8
0
 62
7
  6
CONTINUOUS
 66
1
 70
0
  0
VERTEX
  8
0
 62
7
  6
CONTINUOUS
 10
273.5427540641
 20
273.4418738145
  0
VERTEX
  8
0
 62
7
  6
CONTINUOUS
 10
273.2667696621
 20
273.6287853941
  0
VERTEX
  8
0
 62
7
  6
CONTINUOUS
 10
270.609286942
 20
274.947388828
  0
VERTEX
  8
0
 62
7
  6
CONTINUOUS
 10
267.8047061269
 20
275.9103328609
  0
VERTEX
  8
0
 62
7
  6
CONTINUOUS
 10
264.9322875308
 20
276.4855062062
  0
VERTEX
  8
0
 62
7
  6
CONTINUOUS
 10
261.965611049
 20
276.6836126259
  0
SEQEND
  0
LINE
  8
0
 62
7
  6
CONTINUOUS
 10
194.6952725432
 20
378.1692874811
 11
192.5153926896
 21
380.3309987486
  0
LINE
  8
0
 62
7
  6
CONTINUOUS
 10
192.9361043675
 20
380.6182690873
 11
194.9380084423
 21
378.6332159468
  0
LINE
  8
0
 62
7
  6
CONTINUOUS
 10
194.4500566611
 20
378.4140636314
 11
194.6952725432
 21
378.1692874811
  0
POLYLINE
  8
0
 62
7
  6
CONTINUOUS
 66
1
 70
0
  0
VERTEX
  8
0
 62
7
  6
CONTINUOUS
 10
192.5153926896
 20
380.3309987486
  0
VERTEX
  8
0
 62
7
  6
CONTINUOUS
 10
191.544782424
 20
381.3001354908
  0
VERTEX
  8
0
 62
7
  6
CONTINUOUS
 10
190.6142794838
 20
382.229331266
  0
VERTEX
  8
0
 62
7
  6
CONTINUOUS
 10
189.7235849075
 20
383.118892254
  0
VERTEX
  8
0
 62
7
  6
CONTINUOUS
 10
188.8735955798
 20
383.9678999155
  0
VERTEX
  8
0
 62
7
  6
CONTINUOUS
 10
188.0652083857
 20
384.775435711
  0
VERTEX
  8
0
 62
7
  6
CONTINUOUS
 10
187.2981243636
 20
385.5418058205
  0
SEQEND
  0
POLYLINE
  8
0
 62
7
  6
CONTINUOUS
 66
1
 70
0
  0
VERTEX
  8
0
 62
7
  6
CONTINUOUS
 10
187.6516777542
 20
385.8961137973
  0
VERTEX
  8
0
 62
7
  6
CONTINUOUS
 10
188.4208281508
 20
385.1276801193
  0
VERTEX
  8
0
 62
7
  6
CONTINUOUS
 10
189.2349550713
 20
384.31441352
  0
VERTEX
  8
0
 62
7
  6
CONTINUOUS
 10
190.0943787421
 20
383.4559858008
  0
VERTEX
  8
0
 62
7
  6
CONTINUOUS
 10
190.9981384837
 20
382.5533815574
  0
VERTEX
  8
0
 62
7
  6
CONTINUOUS
 10
191.9452736167
 20
381.6075853858
  0
VERTEX
  8
0
 62
7
  6
CONTINUOUS
 10
192.9361043675
 20
380.6182690873
  0
SEQEND
  0
POLYLINE
  8
0
 62
7
  6
CONTINUOUS
 66
1
 70
0
  0
VERTEX
  8
0
 62
7
  6
CONTINUOUS
 10
187.2981243636
 20
385.5418058971
  0
VERTEX
  8
0
 62
7
  6
CONTINUOUS
 10
187.1620118769
 20
385.6857269857
  0
VERTEX
  8
0
 62
7
  6
CONTINUOUS
 10
187.0342395086
 20
385.8371582079
  0
VERTEX
  8
0
 62
7
  6
CONTINUOUS
 10
186.9152248894
 20
385.9956169402
  0
VERTEX
  8
0
 62
7
  6
CONTINUOUS
 10
186.8053531263
 20
386.1606051524
  0
VERTEX
  8
0
 62
7
  6
CONTINUOUS
 10
186.7049713849
 20
386.3316224653
  0
VERTEX
  8
0
 62
7
  6
CONTINUOUS
 10
186.6144428622
 20
386.5080666311
  0
VERTEX
  8
0
 62
7
  6
CONTINUOUS
 10
186.5341043344
 20
386.6892659561
  0
VERTEX
  8
0
 62
7
  6
CONTINUOUS
 10
186.4641423546
 20
386.8747945867
  0
VERTEX
  8
0
 62
7
  6
CONTINUOUS
 10
186.4046622849
 20
387.064525116
  0
VERTEX
  8
0
 62
7
  6
CONTINUOUS
 10
186.3561734237
 20
387.2568521744
  0
VERTEX
  8
0
 62
7
  6
CONTINUOUS
 10
186.3187443756
 20
387.4511780362
  0
VERTEX
  8
0
 62
7
  6
CONTINUOUS
 10
186.2927140113
 20
387.6441033064
  0
VERTEX
  8
0
 62
7
  6
CONTINUOUS
 10
186.277790846
 20
387.831852373
  0
VERTEX
  8
0
 62
7
  6
CONTINUOUS
 10
186.2729980978
 20
388.0148350808
  0
SEQEND
  0
POLYLINE
  8
0
 62
7
  6
CONTINUOUS
 66
1
 70
0
  0
VERTEX
  8
0
 62
7
  6
CONTINUOUS
 10
370.7106526222
 20
453.6276355404
  0
VERTEX
  8
0
 62
7
  6
CONTINUOUS
 10
370.7032742122
 20
454.4761209206
  0
VERTEX
  8
0
 62
7
  6
CONTINUOUS
 10
370.5451687036
 20
456.0287073486
  0
VERTEX
  8
0
 62
7
  6
CONTINUOUS
 10
370.2007624218
 20
457.5596450879
  0
VERTEX
  8
0
 62
7
  6
CONTINUOUS
 10
369.6719966069
 20
459.0435139381
  0
VERTEX
  8
0
 62
7
  6
CONTINUOUS
 10
368.9642875244
 20
460.4563473923
  0
VERTEX
  8
0
 62
7
  6
CONTINUOUS
 10
368.0891485316
 20
461.7761381764
  0
VERTEX
  8
0
 62
7
  6
CONTINUOUS
 10
367.0594810081
 20
462.9812450746
  0
VERTEX
  8
0
 62
7
  6
CONTINUOUS
 10
365.8899581788
 20
464.0513303097
  0
VERTEX
  8
0
 62
7
  6
CONTINUOUS
 10
364.6003088359
 20
464.9709481338
  0
VERTEX
  8
0
 62
7
  6
CONTINUOUS
 10
363.2117642831
 20
465.7265058833
  0
VERTEX
  8
0
 62
7
  6
CONTINUOUS
 10
361.7459283743
 20
466.3056918668
  0
VERTEX
  8
0
 62
7
  6
CONTINUOUS
 10
360.2265256574
 20
466.7020799751
  0
SEQEND
  0
POLYLINE
  8
0
 62
7
  6
CONTINUOUS
 66
1
 70
0
  0
VERTEX
  8
0
 62
7
  6
CONTINUOUS
 10
359.0374884082
 20
8.4279109903
  0
VERTEX
  8
0
 62
7
  6
CONTINUOUS
 10
358.8053789064
 20
-3.3649107197
  0
VERTEX
  8
0
 62
7
  6
CONTINUOUS
 10
357.7429406508
 20
-15.1121163014
  0
VERTEX
  8
0
 62
7
  6
CONTINUOUS
 10
355.8554490706
 20
-26.7553629813
  0
VERTEX
  8
0
 62
7
  6
CONTINUOUS
 10
353.1522764398
 20
-38.2368293936
  0
VERTEX
  8
0
 62
7
  6
CONTINUOUS
 10
349.6468455645
 20
-49.4994965084
  0
VERTEX
  8
0
 62
7
  6
CONTINUOUS
 10
345.356563503
 20
-60.4874306812
  0
VERTEX
  8
0
 62
7
  6
CONTINUOUS
 10
340.3027345699
 20
-71.1460632755
  0
VERTEX
  8
0
 62
7
  6
CONTINUOUS
 10
334.5104555544
 20
-81.4224593651
  0
VERTEX
  8
0
 62
7
  6
CONTINUOUS
 10
328.0084905077
 20
-91.2655823658
  0
VERTEX
  8
0
 62
7
  6
CONTINUOUS
 10
320.8291267935
 20
-100.6265486756
  0
VERTEX
  8
0
 62
7
  6
CONTINUOUS
 10
313.0080139355
 20
-109.4588703235
  0
VERTEX
  8
0
 62
7
  6
CONTINUOUS
 10
304.5839948358
 20
-117.7186771622
  0
VERTEX
  8
0
 62
7
  6
CONTINUOUS
 10
295.5989057804
 20
-125.3649446209
  0
VERTEX
  8
0
 62
7
  6
CONTINUOUS
 10
286.0973690352
 20
-132.359696162
  0
VERTEX
  8
0
 62
7
  6
CONTINUOUS
 10
276.1265715277
 20
-138.6681912217
  0
VERTEX
  8
0
 62
7
  6
CONTINUOUS
 10
265.7360324351
 20
-144.2590965743
  0
VERTEX
  8
0
 62
7
  6
CONTINUOUS
 10
254.9773548975
 20
-149.104643565
  0
VERTEX
  8
0
 62
7
  6
CONTINUOUS
 10
243.9039716321
 20
-153.1807649999
  0
VERTEX
  8
0
 62
7
  6
CONTINUOUS
 10
232.5708797428
 20
-156.4672150304
  0
SEQEND
  0
LINE
  8
0
 62
7
  6
CONTINUOUS
 10
367.7938260793
 20
333.399318666
 11
370.7106526516
 21
453.6276367411
  0
POLYLINE
  8
0
 62
7
  6
CONTINUOUS
 66
1
 70
0
  0
VERTEX
  8
0
 62
7
  6
CONTINUOUS
 10
194.4500566611
 20
417.2018881148
  0
VERTEX
  8
0
 62
7
  6
CONTINUOUS
 10
194.5317646143
 20
417.1662211577
  0
VERTEX
  8
0
 62
7
  6
CONTINUOUS
 10
194.6133214359
 20
417.1302099694
  0
VERTEX
  8
0
 62
7
  6
CONTINUOUS
 10
194.6947256756
 20
417.0938551902
  0
VERTEX
  8
0
 62
7
  6
CONTINUOUS
 10
194.775975886
 20
417.0571574666
  0
VERTEX
  8
0
 62
7
  6
CONTINUOUS
 10
194.8570706222
 20
417.0201174511
  0
VERTEX
  8
0
 62
7
  6
CONTINUOUS
 10
194.9380084423
 20
416.9827358025
  0
SEQEND
  0
POLYLINE
  8
0
 62
7
  6
CONTINUOUS
 66
1
 70
0
  0
VERTEX
  8
0
 62
7
  6
CONTINUOUS
 10
192.5152860461
 20
415.2496726604
  0
VERTEX
  8
0
 62
7
  6
CONTINUOUS
 10
191.2052258498
 20
415.6815878431
  0
VERTEX
  8
0
 62
7
  6
CONTINUOUS
 10
189.8667452767
 20
416.0153644521
  0
VERTEX
  8
0
 62
7
  6
CONTINUOUS
 10
188.5071735792
 20
416.2491629673
  0
VERTEX
  8
0
 62
7
  6
CONTINUOUS
 10
187.134002471
 20
416.3816860216
  0
VERTEX
  8
0
 62
7
  6
CONTINUOUS
 10
185.7548002589
 20
416.4122019261
  0
VERTEX
  8
0
 62
7
  6
CONTINUOUS
 10
184.377122825
 20
416.3405447764
  0
VERTEX
  8
0
 62
7
  6
CONTINUOUS
 10
183.0085290798
 20
416.1671077342
  0
VERTEX
  8
0
 62
7
  6
CONTINUOUS
 10
181.6565280942
 20
415.8928423976
  0
VERTEX
  8
0
 62
7
  6
CONTINUOUS
 10
180.3285378997
 20
415.5192535796
  0
VERTEX
  8
0
 62
7
  6
CONTINUOUS
 10
179.0318447876
 20
415.0483910522
  0
VERTEX
  8
0
 62
7
  6
CONTINUOUS
 10
177.7735633312
 20
414.4828382995
  0
VERTEX
  8
0
 62
7
  6
CONTINUOUS
 10
176.5605973506
 20
413.8256983428
  0
VERTEX
  8
0
 62
7
  6
CONTINUOUS
 10
175.399602033
 20
413.0805767157
  0
VERTEX
  8
0
 62
7
  6
CONTINUOUS
 10
174.296947418
 20
412.2515616813
  0
VERTEX
  8
0
 62
7
  6
CONTINUOUS
 10
173.2586834468
 20
411.343201801
  0
VERTEX
  8
0
 62
7
  6
CONTINUOUS
 10
172.2905067682
 20
410.3604809781
  0
VERTEX
  8
0
 62
7
  6
CONTINUOUS
 10
171.3977294826
 20
409.3087911124
  0
VERTEX
  8
0
 62
7
  6
CONTINUOUS
 10
170.5852499963
 20
408.1939025166
  0
VERTEX
  8
0
 62
7
  6
CONTINUOUS
 10
169.857526145
 20
407.0219322564
  0
VERTEX
  8
0
 62
7
  6
CONTINUOUS
 10
169.2185507352
 20
405.7993105874
  0
VERTEX
  8
0
 62
7
  6
CONTINUOUS
 10
168.671829637
 20
404.532745675
  0
VERTEX
  8
0
 62
7
  6
CONTINUOUS
 10
168.220362548
 20
403.2291867879
  0
VERTEX
  8
0
 62
7
  6
CONTINUOUS
 10
167.8666265352
 20
401.8957861701
  0
VERTEX
  8
0
 62
7
  6
CONTINUOUS
 10
167.6125624441
 20
400.5398597982
  0
VERTEX
  8
0
 62
7
  6
CONTINUOUS
 10
167.4595642496
 20
399.168847241
  0
VERTEX
  8
0
 62
7
  6
CONTINUOUS
 10
167.4084714076
 20
397.790270841
  0
SEQEND
  0
POLYLINE
  8
0
 62
7
  6
CONTINUOUS
 66
1
 70
0
  0
VERTEX
  8
0
 62
7
  6
CONTINUOUS
 10
194.6980050901
 20
417.4441642278
  0
VERTEX
  8
0
 62
7
  6
CONTINUOUS
 10
193.2817835896
 20
418.0099094044
  0
VERTEX
  8
0
 62
7
  6
CONTINUOUS
 10
191.8300774622
 20
418.4733495906
  0
VERTEX
  8
0
 62
7
  6
CONTINUOUS
 10
190.3505631383
 20
418.8323247529
  0
VERTEX
  8
0
 62
7
  6
CONTINUOUS
 10
188.8498969274
 20
419.0854412606
  0
VERTEX
  8
0
 62
7
  6
CONTINUOUS
 10
187.3347778882
 20
419.2316003454
  0
VERTEX
  8
0
 62
7
  6
CONTINUOUS
 10
185.8131098992
 20
419.2700086786
  0
VERTEX
  8
0
 62
7
  6
CONTINUOUS
 10
184.2925463895
 20
419.2004730805
  0
VERTEX
  8
0
 62
7
  6
CONTINUOUS
 10
182.7807352332
 20
419.0233432894
  0
VERTEX
  8
0
 62
7
  6
CONTINUOUS
 10
181.285280283
 20
418.7395102029
  0
VERTEX
  8
0
 62
7
  6
CONTINUOUS
 10
179.8137031263
 20
418.3504013968
  0
VERTEX
  8
0
 62
7
  6
CONTINUOUS
 10
178.3734052536
 20
417.8579739451
  0
VERTEX
  8
0
 62
7
  6
CONTINUOUS
 10
176.9716308325
 20
417.2647045762
  0
VERTEX
  8
0
 62
7
  6
CONTINUOUS
 10
175.6154302716
 20
416.5735772165
  0
VERTEX
  8
0
 62
7
  6
CONTINUOUS
 10
174.3116247598
 20
415.7880679819
  0
VERTEX
  8
0
 62
7
  6
CONTINUOUS
 10
173.0667719584
 20
414.9121276941
  0
VERTEX
  8
0
 62
7
  6
CONTINUOUS
 10
171.887133018
 20
413.9501620101
  0
VERTEX
  8
0
 62
7
  6
CONTINUOUS
 10
170.7786410877
 20
412.9070092627
  0
VERTEX
  8
0
 62
7
  6
CONTINUOUS
 10
169.7468714735
 20
411.7879161257
  0
VERTEX
  8
0
 62
7
  6
CONTINUOUS
 10
168.7970135961
 20
410.5985112251
  0
VERTEX
  8
0
 62
7
  6
CONTINUOUS
 10
167.9338448905
 20
409.3447768291
  0
VERTEX
  8
0
 62
7
  6
CONTINUOUS
 10
167.1617067773
 20
408.0330187597
  0
VERTEX
  8
0
 62
7
  6
CONTINUOUS
 10
166.4844828265
 20
406.6698346765
  0
VERTEX
  8
0
 62
7
  6
CONTINUOUS
 10
165.9055792249
 20
405.2620808929
  0
VERTEX
  8
0
 62
7
  6
CONTINUOUS
 10
165.4279076444
 20
403.8168378916
  0
VERTEX
  8
0
 62
7
  6
CONTINUOUS
 10
165.0538705969
 20
402.3413747122
  0
VERTEX
  8
0
 62
7
  6
CONTINUOUS
 10
164.785349351
 20
400.8431123907
  0
VERTEX
  8
0
 62
7
  6
CONTINUOUS
 10
164.6236944693
 20
399.3295866342
  0
VERTEX
  8
0
 62
7
  6
CONTINUOUS
 10
164.5697190166
 20
397.8084099196
  0
SEQEND
  0
LINE
  8
0
 62
40
  6
CONTINUOUS
 10
151.0667034908
 20
461.2150313493
 11
151.0327043836
 21
461.214856455
  0
LINE
  8
0
 62
7
  6
CONTINUOUS
 10
12.5402890095
 20
466.9405706759
 11
151.0327043836
 21
467.6476708181
  0
LINE
  8
0
 62
7
  6
CONTINUOUS
 10
155.407704376
 20
467.6495372218
 11
216.6577043912
 21
467.6495372218
  0
LINE
  8
0
 62
7
  6
CONTINUOUS
 10
216.6577045597
 20
467.6496453411
 11
155.4077107577
 21
467.6496453442
  0
POLYLINE
  8
0
 62
7
  6
CONTINUOUS
 66
1
 70
0
  0
VERTEX
  8
0
 62
7
  6
CONTINUOUS
 10
155.4077002669
 20
467.6477912694
  0
VERTEX
  8
0
 62
7
  6
CONTINUOUS
 10
154.6724074184
 20
467.6490715034
  0
VERTEX
  8
0
 62
7
  6
CONTINUOUS
 10
153.9410700714
 20
467.6504336105
  0
VERTEX
  8
0
 62
7
  6
CONTINUOUS
 10
153.2111512003
 20
467.6514097272
  0
VERTEX
  8
0
 62
7
  6
CONTINUOUS
 10
152.4831583616
 20
467.6515480379
  0
VERTEX
  8
0
 62
7
  6
CONTINUOUS
 10
151.7577454802
 20
467.6504306601
  0
VERTEX
  8
0
 62
7
  6
CONTINUOUS
 10
151.032704341
 20
467.6476708132
  0
SEQEND
  0
POLYLINE
  8
0
 62
7
  6
CONTINUOUS
 66
1
 70
0
  0
VERTEX
  8
0
 62
7
  6
CONTINUOUS
 10
221.0327044261
 20
467.6476708132
  0
VERTEX
  8
0
 62
7
  6
CONTINUOUS
 10
220.3074149216
 20
467.6504313028
  0
VERTEX
  8
0
 62
7
  6
CONTINUOUS
 10
219.5817790286
 20
467.6515483122
  0
VERTEX
  8
0
 62
7
  6
CONTINUOUS
 10
218.8535138482
 20
467.651409084
  0
VERTEX
  8
0
 62
7
  6
CONTINUOUS
 10
218.1234890543
 20
467.6504321607
  0
VERTEX
  8
0
 62
7
  6
CONTINUOUS
 10
217.3924249885
 20
467.649070402
  0
VERTEX
  8
0
 62
7
  6
CONTINUOUS
 10
216.6577117801
 20
467.6477912742
  0
SEQEND
  0
LINE
  8
0
 62
7
  6
CONTINUOUS
 10
221.0327043836
 20
467.6476708181
 11
359.5251197576
 21
466.9405706759
  0
LINE
  8
0
 62
40
  6
CONTINUOUS
 10
221.0327043836
 20
461.214856455
 11
220.9987052764
 21
461.2150313493
  0
POLYLINE
  8
0
 62
7
  6
CONTINUOUS
 66
1
 70
0
  0
VERTEX
  8
0
 62
7
  6
CONTINUOUS
 10
368.5757690592
 20
461.0422692791
  0
VERTEX
  8
0
 62
7
  6
CONTINUOUS
 10
368.1588832783
 20
461.8947638488
  0
VERTEX
  8
0
 62
7
  6
CONTINUOUS
 10
367.9268722531
 20
462.2810811941
  0
SEQEND
  0
POLYLINE
  8
0
 62
7
  6
CONTINUOUS
 66
1
 70
0
  0
VERTEX
  8
0
 62
7
  6
CONTINUOUS
 10
13.4458394732
 20
466.9172458789
  0
VERTEX
  8
0
 62
7
  6
CONTINUOUS
 10
11.8983335192
 20
466.7136888121
  0
VERTEX
  8
0
 62
7
  6
CONTINUOUS
 10
10.3778996197
 20
466.3245989995
  0
VERTEX
  8
0
 62
7
  6
CONTINUOUS
 10
8.9099094244
 20
465.7526551353
  0
VERTEX
  8
0
 62
7
  6
CONTINUOUS
 10
7.5181757714
 20
465.0039695493
  0
VERTEX
  8
0
 62
7
  6
CONTINUOUS
 10
6.2243582492
 20
464.0906865014
  0
VERTEX
  8
0
 62
7
  6
CONTINUOUS
 10
5.0497226033
 20
463.0263344108
  0
VERTEX
  8
0
 62
7
  6
CONTINUOUS
 10
4.0141744128
 20
461.8261705007
  0
VERTEX
  8
0
 62
7
  6
CONTINUOUS
 10
3.1325805308
 20
460.5103613741
  0
VERTEX
  8
0
 62
7
  6
CONTINUOUS
 10
2.4179073605
 20
459.1005152051
  0
VERTEX
  8
0
 62
7
  6
CONTINUOUS
 10
1.8818373162
 20
457.6185881689
  0
VERTEX
  8
0
 62
7
  6
CONTINUOUS
 10
1.5301030781
 20
456.0884678812
  0
VERTEX
  8
0
 62
7
  6
CONTINUOUS
 10
1.364742727
 20
454.5355978405
  0
VERTEX
  8
0
 62
7
  6
CONTINUOUS
 10
1.3547561437
 20
453.6276355914
  0
SEQEND
  0
LINE
  8
0
 62
7
  6
CONTINUOUS
 10
13.4587192114
 20
466.8593016506
 11
14.95113916
 21
466.9528797434
  0
POLYLINE
  8
0
 62
7
  6
CONTINUOUS
 66
1
 70
0
  0
VERTEX
  8
0
 62
7
  6
CONTINUOUS
 10
357.1142518406
 20
466.9528798341
  0
VERTEX
  8
0
 62
7
  6
CONTINUOUS
 10
358.5880870837
 20
466.8615314941
  0
VERTEX
  8
0
 62
7
  6
CONTINUOUS
 10
359.9462814825
 20
466.625965836
  0
SEQEND
  0
POLYLINE
  8
0
 62
7
  6
CONTINUOUS
 66
1
 70
0
  0
VERTEX
  8
0
 62
7
  6
CONTINUOUS
 10
359.5249230925
 20
466.94057168
  0
VERTEX
  8
0
 62
7
  6
CONTINUOUS
 10
360.8472838442
 20
466.8459468585
  0
VERTEX
  8
0
 62
7
  6
CONTINUOUS
 10
362.1454077052
 20
466.5772512612
  0
VERTEX
  8
0
 62
7
  6
CONTINUOUS
 10
363.3964806326
 20
466.1392215913
  0
VERTEX
  8
0
 62
7
  6
CONTINUOUS
 10
364.5785455485
 20
465.5395558651
  0
VERTEX
  8
0
 62
7
  6
CONTINUOUS
 10
365.6708464759
 20
464.7887833015
  0
VERTEX
  8
0
 62
7
  6
CONTINUOUS
 10
366.6541964436
 20
463.9000865401
  0
VERTEX
  8
0
 62
7
  6
CONTINUOUS
 10
367.5113276637
 20
462.8890503764
  0
VERTEX
  8
0
 62
7
  6
CONTINUOUS
 10
367.9266190053
 20
462.2820736078
  0
SEQEND
  0
ARC
  8
0
 62
7
  6
CONTINUOUS
 10
186.0327043836
 20
-6387.5666055344
 40
6855.3036240309
 50
89.7074730595
 51
90.2925269405
  0
ENDSEC
  0
EOF
