999
DXF file: centrocc-372100_50_1.dxf
999
Pro/ENGINEER 2017110 by Parametric Technology Corporation
  0
SECTION
  2
HEADER
  9
$EXTMAX
 10
420.0
 20
297.0
 30
0.0
  9
$EXTMIN
 10
0.0
 20
0.0
 30
0.0
  9
$LIMMIN
 10
0.0
 20
0.0
  9
$LIMMAX
 10
420.0
 20
297.0
  9
$VIEWCTR
 10
210.0
 20
148.5
  9
$VIEWSIZE
 40
297.0
  9
$CLAYER
  8
0
  9
$LTSCALE
 40
23.1
  9
$CELTYPE
  6
BYLAYER
  9
$DIMSCALE
 40
1.0
  9
$DIMASZ
 40
3.0
  9
$DIMEXO
 40
1.0
  9
$DIMDLI
 40
15.96
  9
$DIMEXE
 40
1.0
  9
$DIMCEN
 40
3.78
  9
$DIMLFAC
 40
1.0
  9
$DIMBLK
  1
_FILLED
  9
$DIMALT
 70
0
  9
$DIMALTF
 40
0.0393700787
  9
$DIMTXT
 40
3.0
  9
$AUNITS
 70
0
  9
$PDMODE
 70
3
  9
$PDSIZE
 40
5.0
  9
$TILEMODE
 70
1
  0
ENDSEC
  0
SECTION
  2
TABLES
  0
TABLE
  2
LTYPE
 70
6
  0
LTYPE
  2
BYBLOCK
 70
0
  3

 72
65
 73
0
 40
0.0
  0
LTYPE
  2
BYLAYER
 70
0
  3

 72
65
 73
0
 40
0.0
  0
LTYPE
  2
CONTINUOUS
 70
64
  3
Solid line
 72
65
 73
0
 40
0.0
  0
LTYPE
  2
CENTER
 70
64
  3
____ _ ____ _ ____ _ ____ _ ____ _ ____ _ ____
 72
65
 73
4
 40
0.6
 49
0.375
 49
-0.075
 49
0.075
 49
-0.075
  0
LTYPE
  2
HIDDEN
 70
64
  3
- - - - - - - - - - - - - - - - - - - -
 72
65
 73
2
 40
0.2
 49
0.1
 49
-0.1
  0
LTYPE
  2
PHANTOM
 70
64
  3
_____ _ _ _____ _ _ _____ _ _ _____
 72
65
 73
6
 40
0.8
 49
0.45
 49
-0.05
 49
0.1
 49
-0.05
 49
0.1
 49
-0.05
  0
LTYPE
  2
DOT
 70
64
  3
. . . . . . . . . . . . . . . . . . . .
 72
65
 73
2
 40
0.2
 49
0.1
 49
-0.1
  0
LTYPE
  2
DASHED
 70
64
  3
- - - - - - - - - - - - - - - - - - - -
 72
65
 73
2
 40
0.2
 49
0.1
 49
-0.1
  0
ENDTAB
  0
TABLE
  2
LAYER
 70
36
  0
LAYER
  2
0
 70
0
 62
7
  6
CONTINUOUS
  0
LAYER
  2
DEFAULT_1
 70
0
 62
7
  6
CENTER
  0
LAYER
  2
DEFAULT_2
 70
0
 62
8
  6
HIDDEN
  0
LAYER
  2
DEFAULT_3
 70
0
 62
7
  6
PHANTOM
  0
LAYER
  2
0000_BOM
 70
0
 62
7
  6
CONTINUOUS
  0
LAYER
  2
0000_REV_TABLE
 70
0
 62
7
  6
CONTINUOUS
  0
LAYER
  2
0000_STEVENS_NOTE
 70
0
 62
7
  6
CONTINUOUS
  0
LAYER
  2
CAD-MASTER_ZINC-PL
 70
0
 62
7
  6
CONTINUOUS
  0
LAYER
  2
SHELL
 70
0
 62
7
  6
CONTINUOUS
  0
ENDTAB
  0
TABLE
  2
STYLE
 70
1
  0
STYLE
  2
STANDARD
 70
0
 40
0.0
 41
0.75
 50
0.0
 71
0
 42
0.2
  3
txt
  4

  0
STYLE
  2
TEXTSTYLE_1
 70
0
 40
0.0
 41
0.8
 50
0.0
 71
0
 42
0.2
  3
gdt
  4

  0
ENDTAB
  0
ENDSEC
  0
SECTION
  2
BLOCKS
  0
BLOCK
  8
0
 62
5
  6
CONTINUOUS
  2
PLUMBING_BL0
 70
64
 10
130.04211442
 20
-247.7002604051
  0
CIRCLE
  8
0
 62
5
  6
CONTINUOUS
 10
130.04211442
 20
-247.7002604051
 40
12.5
  0
LINE
  8
0
 62
5
  6
CONTINUOUS
 10
142.54211442
 20
-235.2002604051
 11
117.54211442
 21
-260.2002604051
  0
LINE
  8
0
 62
5
  6
CONTINUOUS
 10
130.04211442
 20
-247.7002604051
 11
117.54211442
 21
-235.2002604051
  0
LINE
  8
0
 62
5
  6
CONTINUOUS
 10
130.04211442
 20
-247.7002604051
 11
142.54211442
 21
-260.2002604051
  0
ENDBLK
  8
0
  6
BYBLOCK
 62
0
  0
ENDSEC
  0
SECTION
  2
ENTITIES
  0
INSERT
  8
0
 62
5
  6
CONTINUOUS
  2
PLUMBING_BL0
 10
130.04211442
 20
-247.7002604051
  0
POLYLINE
  8
0
 62
7
  6
CONTINUOUS
 66
1
 70
0
  0
VERTEX
  8
0
 62
7
  6
CONTINUOUS
 10
-36.4572329802
 20
544.073595463
  0
VERTEX
  8
0
 62
7
  6
CONTINUOUS
 10
-36.6186908295
 20
543.9895562836
  0
VERTEX
  8
0
 62
7
  6
CONTINUOUS
 10
-36.7797436568
 20
543.9046656361
  0
VERTEX
  8
0
 62
7
  6
CONTINUOUS
 10
-36.9403900961
 20
543.8189235616
  0
VERTEX
  8
0
 62
7
  6
CONTINUOUS
 10
-37.1006287578
 20
543.7323300567
  0
VERTEX
  8
0
 62
7
  6
CONTINUOUS
 10
-37.2604582277
 20
543.644885073
  0
VERTEX
  8
0
 62
7
  6
CONTINUOUS
 10
-37.4198770676
 20
543.556588517
  0
VERTEX
  8
0
 62
7
  6
CONTINUOUS
 10
-37.5788838145
 20
543.46744025
  0
VERTEX
  8
0
 62
7
  6
CONTINUOUS
 10
-37.7374769808
 20
543.3774400882
  0
VERTEX
  8
0
 62
7
  6
CONTINUOUS
 10
-37.8956550538
 20
543.286587802
  0
VERTEX
  8
0
 62
7
  6
CONTINUOUS
 10
-38.053416496
 20
543.1948831164
  0
VERTEX
  8
0
 62
7
  6
CONTINUOUS
 10
-38.2107597442
 20
543.1023257104
  0
VERTEX
  8
0
 62
7
  6
CONTINUOUS
 10
-38.3676832101
 20
543.0089152169
  0
VERTEX
  8
0
 62
7
  6
CONTINUOUS
 10
-38.5241852792
 20
542.9146512227
  0
VERTEX
  8
0
 62
7
  6
CONTINUOUS
 10
-38.6802643114
 20
542.8195332677
  0
VERTEX
  8
0
 62
7
  6
CONTINUOUS
 10
-38.83591864
 20
542.7235608452
  0
VERTEX
  8
0
 62
7
  6
CONTINUOUS
 10
-38.991146572
 20
542.6267334015
  0
VERTEX
  8
0
 62
7
  6
CONTINUOUS
 10
-39.1459463877
 20
542.5290503351
  0
VERTEX
  8
0
 62
7
  6
CONTINUOUS
 10
-39.3003163401
 20
542.4305109972
  0
VERTEX
  8
0
 62
7
  6
CONTINUOUS
 10
-39.4542546551
 20
542.3311146905
  0
VERTEX
  8
0
 62
7
  6
CONTINUOUS
 10
-39.607759531
 20
542.2308606697
  0
VERTEX
  8
0
 62
7
  6
CONTINUOUS
 10
-39.7608291378
 20
542.1297481403
  0
VERTEX
  8
0
 62
7
  6
CONTINUOUS
 10
-39.9134616177
 20
542.0277762588
  0
VERTEX
  8
0
 62
7
  6
CONTINUOUS
 10
-40.065655084
 20
541.9249441321
  0
VERTEX
  8
0
 62
7
  6
CONTINUOUS
 10
-40.2174076212
 20
541.8212508168
  0
VERTEX
  8
0
 62
7
  6
CONTINUOUS
 10
-40.3687172845
 20
541.7166953192
  0
VERTEX
  8
0
 62
7
  6
CONTINUOUS
 10
-40.5195820993
 20
541.6112765945
  0
VERTEX
  8
0
 62
7
  6
CONTINUOUS
 10
-40.6700000612
 20
541.5049935464
  0
VERTEX
  8
0
 62
7
  6
CONTINUOUS
 10
-40.8199691352
 20
541.3978450265
  0
VERTEX
  8
0
 62
7
  6
CONTINUOUS
 10
-40.9694872555
 20
541.2898298338
  0
VERTEX
  8
0
 62
7
  6
CONTINUOUS
 10
-41.1185523251
 20
541.1809467144
  0
VERTEX
  8
0
 62
7
  6
CONTINUOUS
 10
-41.2671622151
 20
541.0711943603
  0
VERTEX
  8
0
 62
7
  6
CONTINUOUS
 10
-41.4153147647
 20
540.9605714093
  0
VERTEX
  8
0
 62
7
  6
CONTINUOUS
 10
-41.5630077805
 20
540.8490764442
  0
VERTEX
  8
0
 62
7
  6
CONTINUOUS
 10
-41.7102390358
 20
540.7367079921
  0
VERTEX
  8
0
 62
7
  6
CONTINUOUS
 10
-41.8176903237
 20
540.653921328
  0
VERTEX
  8
0
 62
7
  6
CONTINUOUS
 10
-41.9618184429
 20
540.5418334777
  0
VERTEX
  8
0
 62
7
  6
CONTINUOUS
 10
-42.1053029937
 20
540.4290455323
  0
VERTEX
  8
0
 62
7
  6
CONTINUOUS
 10
-42.2481438144
 20
540.3155590577
  0
VERTEX
  8
0
 62
7
  6
CONTINUOUS
 10
-42.390340705
 20
540.2013755807
  0
VERTEX
  8
0
 62
7
  6
CONTINUOUS
 10
-42.5318934271
 20
540.0864965893
  0
VERTEX
  8
0
 62
7
  6
CONTINUOUS
 10
-42.6728017047
 20
539.9709235334
  0
VERTEX
  8
0
 62
7
  6
CONTINUOUS
 10
-42.8130652239
 20
539.8546578248
  0
VERTEX
  8
0
 62
7
  6
CONTINUOUS
 10
-42.9526836331
 20
539.7377008376
  0
VERTEX
  8
0
 62
7
  6
CONTINUOUS
 10
-43.0916565436
 20
539.6200539084
  0
VERTEX
  8
0
 62
7
  6
CONTINUOUS
 10
-43.2299835293
 20
539.5017183369
  0
VERTEX
  8
0
 62
7
  6
CONTINUOUS
 10
-43.3676641269
 20
539.3826953855
  0
VERTEX
  8
0
 62
7
  6
CONTINUOUS
 10
-43.5046978365
 20
539.2629862805
  0
VERTEX
  8
0
 62
7
  6
CONTINUOUS
 10
-43.6410841209
 20
539.1425922115
  0
VERTEX
  8
0
 62
7
  6
CONTINUOUS
 10
-43.7768224066
 20
539.0215143318
  0
VERTEX
  8
0
 62
7
  6
CONTINUOUS
 10
-43.911912083
 20
538.899753759
  0
VERTEX
  8
0
 62
7
  6
CONTINUOUS
 10
-44.0463525033
 20
538.7773115747
  0
VERTEX
  8
0
 62
7
  6
CONTINUOUS
 10
-44.1801429839
 20
538.6541888252
  0
VERTEX
  8
0
 62
7
  6
CONTINUOUS
 10
-44.3132828049
 20
538.530386521
  0
VERTEX
  8
0
 62
7
  6
CONTINUOUS
 10
-44.4457712098
 20
538.4059056376
  0
VERTEX
  8
0
 62
7
  6
CONTINUOUS
 10
-44.5776074058
 20
538.2807471151
  0
VERTEX
  8
0
 62
7
  6
CONTINUOUS
 10
-44.7087905635
 20
538.154911859
  0
VERTEX
  8
0
 62
7
  6
CONTINUOUS
 10
-44.8393198172
 20
538.0284007395
  0
VERTEX
  8
0
 62
7
  6
CONTINUOUS
 10
-44.9691942648
 20
537.9012145922
  0
VERTEX
  8
0
 62
7
  6
CONTINUOUS
 10
-45.0984129675
 20
537.7733542179
  0
VERTEX
  8
0
 62
7
  6
CONTINUOUS
 10
-45.2269749502
 20
537.644820383
  0
VERTEX
  8
0
 62
7
  6
CONTINUOUS
 10
-45.3548792011
 20
537.5156138191
  0
VERTEX
  8
0
 62
7
  6
CONTINUOUS
 10
-45.4821246717
 20
537.3857352234
  0
VERTEX
  8
0
 62
7
  6
CONTINUOUS
 10
-45.6087102767
 20
537.2551852587
  0
VERTEX
  8
0
 62
7
  6
CONTINUOUS
 10
-45.7346348941
 20
537.1239645533
  0
VERTEX
  8
0
 62
7
  6
CONTINUOUS
 10
-45.859897365
 20
536.9920737012
  0
VERTEX
  8
0
 62
7
  6
CONTINUOUS
 10
-45.984496493
 20
536.8595132618
  0
VERTEX
  8
0
 62
7
  6
CONTINUOUS
 10
-46.108431045
 20
536.7262837602
  0
VERTEX
  8
0
 62
7
  6
CONTINUOUS
 10
-46.2316997502
 20
536.5923856872
  0
VERTEX
  8
0
 62
7
  6
CONTINUOUS
 10
-46.3543013003
 20
536.4578194989
  0
VERTEX
  8
0
 62
7
  6
CONTINUOUS
 10
-46.4762343493
 20
536.322585617
  0
VERTEX
  8
0
 62
7
  6
CONTINUOUS
 10
-46.5974975133
 20
536.1866844288
  0
VERTEX
  8
0
 62
7
  6
CONTINUOUS
 10
-46.7180893704
 20
536.0501162867
  0
VERTEX
  8
0
 62
7
  6
CONTINUOUS
 10
-46.83800846
 20
535.9128815085
  0
VERTEX
  8
0
 62
7
  6
CONTINUOUS
 10
-46.9572532834
 20
535.7749803773
  0
VERTEX
  8
0
 62
7
  6
CONTINUOUS
 10
-47.0758223026
 20
535.6364131411
  0
VERTEX
  8
0
 62
7
  6
CONTINUOUS
 10
-47.193713941
 20
535.497180013
  0
VERTEX
  8
0
 62
7
  6
CONTINUOUS
 10
-47.3109265821
 20
535.3572811709
  0
VERTEX
  8
0
 62
7
  6
CONTINUOUS
 10
-47.4274585702
 20
535.2167167574
  0
VERTEX
  8
0
 62
7
  6
CONTINUOUS
 10
-47.5433082095
 20
535.0754868796
  0
VERTEX
  8
0
 62
7
  6
CONTINUOUS
 10
-47.6584737637
 20
534.933591609
  0
VERTEX
  8
0
 62
7
  6
CONTINUOUS
 10
-47.7729534561
 20
534.7910309812
  0
VERTEX
  8
0
 62
7
  6
CONTINUOUS
 10
-47.8867454691
 20
534.6478049958
  0
VERTEX
  8
0
 62
7
  6
CONTINUOUS
 10
-47.9998479435
 20
534.5039136162
  0
VERTEX
  8
0
 62
7
  6
CONTINUOUS
 10
-48.1122589784
 20
534.3593567694
  0
VERTEX
  8
0
 62
7
  6
CONTINUOUS
 10
-48.223976631
 20
534.2141343454
  0
VERTEX
  8
0
 62
7
  6
CONTINUOUS
 10
-48.3349989158
 20
534.0682461976
  0
VERTEX
  8
0
 62
7
  6
CONTINUOUS
 10
-48.4453238042
 20
533.9216921419
  0
VERTEX
  8
0
 62
7
  6
CONTINUOUS
 10
-48.5549492242
 20
533.7744719567
  0
VERTEX
  8
0
 62
7
  6
CONTINUOUS
 10
-48.6638730601
 20
533.6265853826
  0
VERTEX
  8
0
 62
7
  6
CONTINUOUS
 10
-48.7720931516
 20
533.4780321222
  0
VERTEX
  8
0
 62
7
  6
CONTINUOUS
 10
-48.8796072934
 20
533.3288118394
  0
VERTEX
  8
0
 62
7
  6
CONTINUOUS
 10
-48.986413235
 20
533.1789241593
  0
VERTEX
  8
0
 62
7
  6
CONTINUOUS
 10
-49.0925086796
 20
533.0283686678
  0
VERTEX
  8
0
 62
7
  6
CONTINUOUS
 10
-49.1978912842
 20
532.8771449113
  0
VERTEX
  8
0
 62
7
  6
CONTINUOUS
 10
-49.3025586585
 20
532.7252523962
  0
VERTEX
  8
0
 62
7
  6
CONTINUOUS
 10
-49.4065083642
 20
532.5726905883
  0
VERTEX
  8
0
 62
7
  6
CONTINUOUS
 10
-49.5097379151
 20
532.4194589127
  0
VERTEX
  8
0
 62
7
  6
CONTINUOUS
 10
-49.6122447755
 20
532.2655567533
  0
VERTEX
  8
0
 62
7
  6
CONTINUOUS
 10
-49.7140263602
 20
532.110983452
  0
VERTEX
  8
0
 62
7
  6
CONTINUOUS
 10
-49.7836892793
 20
532.0041550222
  0
VERTEX
  8
0
 62
7
  6
CONTINUOUS
 10
-49.8826541071
 20
531.8509169752
  0
VERTEX
  8
0
 62
7
  6
CONTINUOUS
 10
-49.9807797085
 20
531.6972314229
  0
VERTEX
  8
0
 62
7
  6
CONTINUOUS
 10
-50.0780664548
 20
531.543099893
  0
VERTEX
  8
0
 62
7
  6
CONTINUOUS
 10
-50.1745146683
 20
531.3885238891
  0
VERTEX
  8
0
 62
7
  6
CONTINUOUS
 10
-50.2701246223
 20
531.2335048908
  0
VERTEX
  8
0
 62
7
  6
CONTINUOUS
 10
-50.3648965417
 20
531.078044354
  0
VERTEX
  8
0
 62
7
  6
CONTINUOUS
 10
-50.4588306029
 20
530.922143711
  0
VERTEX
  8
0
 62
7
  6
CONTINUOUS
 10
-50.5519269347
 20
530.7658043709
  0
VERTEX
  8
0
 62
7
  6
CONTINUOUS
 10
-50.6441856178
 20
530.6090277199
  0
VERTEX
  8
0
 62
7
  6
CONTINUOUS
 10
-50.7356066857
 20
530.4518151212
  0
VERTEX
  8
0
 62
7
  6
CONTINUOUS
 10
-50.8261901246
 20
530.2941679152
  0
VERTEX
  8
0
 62
7
  6
CONTINUOUS
 10
-50.9159358735
 20
530.1360874202
  0
VERTEX
  8
0
 62
7
  6
CONTINUOUS
 10
-51.0048438247
 20
529.977574932
  0
VERTEX
  8
0
 62
7
  6
CONTINUOUS
 10
-51.0929138236
 20
529.8186317244
  0
VERTEX
  8
0
 62
7
  6
CONTINUOUS
 10
-51.1801456692
 20
529.6592590492
  0
VERTEX
  8
0
 62
7
  6
CONTINUOUS
 10
-51.2665391139
 20
529.4994581364
  0
VERTEX
  8
0
 62
7
  6
CONTINUOUS
 10
-51.3520938641
 20
529.3392301946
  0
VERTEX
  8
0
 62
7
  6
CONTINUOUS
 10
-51.4368095796
 20
529.1785764106
  0
VERTEX
  8
0
 62
7
  6
CONTINUOUS
 10
-51.5206858742
 20
529.0174979502
  0
VERTEX
  8
0
 62
7
  6
CONTINUOUS
 10
-51.6037223159
 20
528.8559959576
  0
VERTEX
  8
0
 62
7
  6
CONTINUOUS
 10
-51.6859184262
 20
528.6940715562
  0
VERTEX
  8
0
 62
7
  6
CONTINUOUS
 10
-51.7672736809
 20
528.5317258484
  0
VERTEX
  8
0
 62
7
  6
CONTINUOUS
 10
-51.8477875099
 20
528.3689599155
  0
VERTEX
  8
0
 62
7
  6
CONTINUOUS
 10
-51.9274592968
 20
528.2057748182
  0
VERTEX
  8
0
 62
7
  6
CONTINUOUS
 10
-52.0062883793
 20
528.0421715964
  0
VERTEX
  8
0
 62
7
  6
CONTINUOUS
 10
-52.0842740494
 20
527.8781512695
  0
VERTEX
  8
0
 62
7
  6
CONTINUOUS
 10
-52.1614155525
 20
527.7137148363
  0
VERTEX
  8
0
 62
7
  6
CONTINUOUS
 10
-52.2377120882
 20
527.5488632751
  0
VERTEX
  8
0
 62
7
  6
CONTINUOUS
 10
-52.3131628097
 20
527.3835975439
  0
VERTEX
  8
0
 62
7
  6
CONTINUOUS
 10
-52.3877668239
 20
527.2179185801
  0
VERTEX
  8
0
 62
7
  6
CONTINUOUS
 10
-52.4615231913
 20
527.051827301
  0
VERTEX
  8
0
 62
7
  6
CONTINUOUS
 10
-52.5344309256
 20
526.8853246036
  0
VERTEX
  8
0
 62
7
  6
CONTINUOUS
 10
-52.606488994
 20
526.7184113646
  0
VERTEX
  8
0
 62
7
  6
CONTINUOUS
 10
-52.6776963166
 20
526.5510884406
  0
VERTEX
  8
0
 62
7
  6
CONTINUOUS
 10
-52.7480517665
 20
526.3833566678
  0
VERTEX
  8
0
 62
7
  6
CONTINUOUS
 10
-52.8175541695
 20
526.2152168624
  0
VERTEX
  8
0
 62
7
  6
CONTINUOUS
 10
-52.8862023038
 20
526.0466698202
  0
VERTEX
  8
0
 62
7
  6
CONTINUOUS
 10
-52.9539949
 20
525.8777163171
  0
VERTEX
  8
0
 62
7
  6
CONTINUOUS
 10
-53.0209306405
 20
525.7083571085
  0
VERTEX
  8
0
 62
7
  6
CONTINUOUS
 10
-53.0870081596
 20
525.5385929299
  0
VERTEX
  8
0
 62
7
  6
CONTINUOUS
 10
-53.1522260429
 20
525.3684244961
  0
VERTEX
  8
0
 62
7
  6
CONTINUOUS
 10
-53.2165828271
 20
525.1978525021
  0
VERTEX
  8
0
 62
7
  6
CONTINUOUS
 10
-53.2800769998
 20
525.0268776223
  0
VERTEX
  8
0
 62
7
  6
CONTINUOUS
 10
-53.3427069991
 20
524.8555005107
  0
VERTEX
  8
0
 62
7
  6
CONTINUOUS
 10
-53.404471213
 20
524.683721801
  0
VERTEX
  8
0
 62
7
  6
CONTINUOUS
 10
-53.4653679793
 20
524.5115421063
  0
VERTEX
  8
0
 62
7
  6
CONTINUOUS
 10
-53.5253955852
 20
524.3389620193
  0
VERTEX
  8
0
 62
7
  6
CONTINUOUS
 10
-53.5845522667
 20
524.1659821118
  0
VERTEX
  8
0
 62
7
  6
CONTINUOUS
 10
-53.6428362082
 20
523.992602935
  0
VERTEX
  8
0
 62
7
  6
CONTINUOUS
 10
-53.7002455421
 20
523.8188250193
  0
VERTEX
  8
0
 62
7
  6
CONTINUOUS
 10
-53.7567783485
 20
523.6446488741
  0
VERTEX
  8
0
 62
7
  6
CONTINUOUS
 10
-53.8124326541
 20
523.4700749877
  0
VERTEX
  8
0
 62
7
  6
CONTINUOUS
 10
-53.8672064324
 20
523.2951038274
  0
VERTEX
  8
0
 62
7
  6
CONTINUOUS
 10
-53.9210976027
 20
523.119735839
  0
VERTEX
  8
0
 62
7
  6
CONTINUOUS
 10
-53.9741040297
 20
522.9439714469
  0
VERTEX
  8
0
 62
7
  6
CONTINUOUS
 10
-54.0262235228
 20
522.767811054
  0
VERTEX
  8
0
 62
7
  6
CONTINUOUS
 10
-54.0774538356
 20
522.5912550413
  0
VERTEX
  8
0
 62
7
  6
CONTINUOUS
 10
-54.1277926652
 20
522.414303768
  0
VERTEX
  8
0
 62
7
  6
CONTINUOUS
 10
-54.1772376515
 20
522.2369575712
  0
VERTEX
  8
0
 62
7
  6
CONTINUOUS
 10
-54.2257863766
 20
522.0592167656
  0
VERTEX
  8
0
 62
7
  6
CONTINUOUS
 10
-54.2734363639
 20
521.8810816435
  0
VERTEX
  8
0
 62
7
  6
CONTINUOUS
 10
-54.3201850778
 20
521.7025524746
  0
VERTEX
  8
0
 62
7
  6
CONTINUOUS
 10
-54.3660299222
 20
521.5236295055
  0
VERTEX
  8
0
 62
7
  6
CONTINUOUS
 10
-54.4109682406
 20
521.3443129599
  0
VERTEX
  8
0
 62
7
  6
CONTINUOUS
 10
-54.4450311193
 20
521.2056432611
  0
VERTEX
  8
0
 62
7
  6
CONTINUOUS
 10
-54.4876693932
 20
521.0285178095
  0
VERTEX
  8
0
 62
7
  6
CONTINUOUS
 10
-54.5293677089
 20
520.8512477313
  0
VERTEX
  8
0
 62
7
  6
CONTINUOUS
 10
-54.5701269239
 20
520.673834336
  0
VERTEX
  8
0
 62
7
  6
CONTINUOUS
 10
-54.6099478413
 20
520.4962789264
  0
VERTEX
  8
0
 62
7
  6
CONTINUOUS
 10
-54.64883121
 20
520.3185827988
  0
VERTEX
  8
0
 62
7
  6
CONTINUOUS
 10
-54.6867777249
 20
520.1407472432
  0
VERTEX
  8
0
 62
7
  6
CONTINUOUS
 10
-54.7237880279
 20
519.9627735433
  0
VERTEX
  8
0
 62
7
  6
CONTINUOUS
 10
-54.7598627075
 20
519.7846629767
  0
VERTEX
  8
0
 62
7
  6
CONTINUOUS
 10
-54.7950022996
 20
519.606416815
  0
VERTEX
  8
0
 62
7
  6
CONTINUOUS
 10
-54.8292072875
 20
519.4280363241
  0
VERTEX
  8
0
 62
7
  6
CONTINUOUS
 10
-54.8624781024
 20
519.2495227637
  0
VERTEX
  8
0
 62
7
  6
CONTINUOUS
 10
-54.8948151236
 20
519.0708773883
  0
VERTEX
  8
0
 62
7
  6
CONTINUOUS
 10
-54.9262186785
 20
518.8921014466
  0
VERTEX
  8
0
 62
7
  6
CONTINUOUS
 10
-54.9566890431
 20
518.713196182
  0
VERTEX
  8
0
 62
7
  6
CONTINUOUS
 10
-54.9862264422
 20
518.5341628325
  0
VERTEX
  8
0
 62
7
  6
CONTINUOUS
 10
-55.0148310494
 20
518.3550026309
  0
VERTEX
  8
0
 62
7
  6
CONTINUOUS
 10
-55.0425029871
 20
518.1757168049
  0
VERTEX
  8
0
 62
7
  6
CONTINUOUS
 10
-55.0692423272
 20
517.9963065773
  0
VERTEX
  8
0
 62
7
  6
CONTINUOUS
 10
-55.0950490907
 20
517.8167731657
  0
VERTEX
  8
0
 62
7
  6
CONTINUOUS
 10
-55.1199232481
 20
517.6371177832
  0
VERTEX
  8
0
 62
7
  6
CONTINUOUS
 10
-55.1438647193
 20
517.457341638
  0
VERTEX
  8
0
 62
7
  6
CONTINUOUS
 10
-55.1668733737
 20
517.2774459338
  0
VERTEX
  8
0
 62
7
  6
CONTINUOUS
 10
-55.1889490303
 20
517.0974318696
  0
VERTEX
  8
0
 62
7
  6
CONTINUOUS
 10
-55.2100914579
 20
516.9173006403
  0
VERTEX
  8
0
 62
7
  6
CONTINUOUS
 10
-55.2303003746
 20
516.7370534361
  0
VERTEX
  8
0
 62
7
  6
CONTINUOUS
 10
-55.2495754484
 20
516.5566914431
  0
VERTEX
  8
0
 62
7
  6
CONTINUOUS
 10
-55.2679162967
 20
516.3762158433
  0
VERTEX
  8
0
 62
7
  6
CONTINUOUS
 10
-55.2853224866
 20
516.1956278146
  0
VERTEX
  8
0
 62
7
  6
CONTINUOUS
 10
-55.3017935347
 20
516.0149285307
  0
VERTEX
  8
0
 62
7
  6
CONTINUOUS
 10
-55.3173289069
 20
515.8341191618
  0
VERTEX
  8
0
 62
7
  6
CONTINUOUS
 10
-55.3319280185
 20
515.6532008739
  0
VERTEX
  8
0
 62
7
  6
CONTINUOUS
 10
-55.3455902339
 20
515.4721748294
  0
VERTEX
  8
0
 62
7
  6
CONTINUOUS
 10
-55.3583148667
 20
515.2910421871
  0
VERTEX
  8
0
 62
7
  6
CONTINUOUS
 10
-55.3701011794
 20
515.1098041021
  0
SEQEND
  0
POLYLINE
  8
0
 62
7
  6
CONTINUOUS
 66
1
 70
0
  0
VERTEX
  8
0
 62
7
  6
CONTINUOUS
 10
-55.3701011794
 20
515.1098041021
  0
VERTEX
  8
0
 62
7
  6
CONTINUOUS
 10
-55.3809483832
 20
514.9284617261
  0
VERTEX
  8
0
 62
7
  6
CONTINUOUS
 10
-55.390855638
 20
514.7470162073
  0
VERTEX
  8
0
 62
7
  6
CONTINUOUS
 10
-55.3998220518
 20
514.5654686906
  0
VERTEX
  8
0
 62
7
  6
CONTINUOUS
 10
-55.407846681
 20
514.3838203176
  0
VERTEX
  8
0
 62
7
  6
CONTINUOUS
 10
-55.4149285298
 20
514.2020722266
  0
VERTEX
  8
0
 62
7
  6
CONTINUOUS
 10
-55.42106655
 20
514.0202255529
  0
VERTEX
  8
0
 62
7
  6
CONTINUOUS
 10
-55.4262596408
 20
513.8382814287
  0
VERTEX
  8
0
 62
7
  6
CONTINUOUS
 10
-55.4305066483
 20
513.6562409832
  0
VERTEX
  8
0
 62
7
  6
CONTINUOUS
 10
-55.4338063656
 20
513.4741053427
  0
VERTEX
  8
0
 62
7
  6
CONTINUOUS
 10
-55.4361575319
 20
513.2918756304
  0
VERTEX
  8
0
 62
7
  6
CONTINUOUS
 10
-55.4375588327
 20
513.1095529672
  0
VERTEX
  8
0
 62
7
  6
CONTINUOUS
 10
-55.4380088988
 20
512.9271384708
  0
VERTEX
  8
0
 62
7
  6
CONTINUOUS
 10
-55.4375063065
 20
512.7446332565
  0
VERTEX
  8
0
 62
7
  6
CONTINUOUS
 10
-55.4360495769
 20
512.5620384369
  0
VERTEX
  8
0
 62
7
  6
CONTINUOUS
 10
-55.4336371754
 20
512.3793551222
  0
VERTEX
  8
0
 62
7
  6
CONTINUOUS
 10
-55.4302675112
 20
512.1965844199
  0
VERTEX
  8
0
 62
7
  6
CONTINUOUS
 10
-55.425938937
 20
512.0137274352
  0
VERTEX
  8
0
 62
7
  6
CONTINUOUS
 10
-55.4206497485
 20
511.8307852711
  0
VERTEX
  8
0
 62
7
  6
CONTINUOUS
 10
-55.4143981836
 20
511.6477590282
  0
VERTEX
  8
0
 62
7
  6
CONTINUOUS
 10
-55.4071824221
 20
511.4646498046
  0
VERTEX
  8
0
 62
7
  6
CONTINUOUS
 10
-55.3990005849
 20
511.2814586967
  0
VERTEX
  8
0
 62
7
  6
CONTINUOUS
 10
-55.3898507337
 20
511.0981867984
  0
VERTEX
  8
0
 62
7
  6
CONTINUOUS
 10
-55.3797308699
 20
510.9148352017
  0
VERTEX
  8
0
 62
7
  6
CONTINUOUS
 10
-55.3686389344
 20
510.7314049965
  0
VERTEX
  8
0
 62
7
  6
CONTINUOUS
 10
-55.3565728066
 20
510.547897271
  0
VERTEX
  8
0
 62
7
  6
CONTINUOUS
 10
-55.3435303041
 20
510.3643131112
  0
VERTEX
  8
0
 62
7
  6
CONTINUOUS
 10
-55.3295091813
 20
510.1806536012
  0
VERTEX
  8
0
 62
7
  6
CONTINUOUS
 10
-55.3145071292
 20
509.9969198237
  0
VERTEX
  8
0
 62
7
  6
CONTINUOUS
 10
-55.2985217744
 20
509.8131128591
  0
VERTEX
  8
0
 62
7
  6
CONTINUOUS
 10
-55.2815506783
 20
509.6292337867
  0
SEQEND
  0
LINE
  8
0
 62
7
  6
CONTINUOUS
 10
-31.3001068328
 20
546.2502757887
 11
-36.6592433403
 21
543.9775449908
  0
POLYLINE
  8
0
 62
7
  6
CONTINUOUS
 66
1
 70
0
  0
VERTEX
  8
0
 62
7
  6
CONTINUOUS
 10
-31.4091685027
 20
546.2040243421
  0
VERTEX
  8
0
 62
7
  6
CONTINUOUS
 10
-31.4309837169
 20
546.1967992388
  0
VERTEX
  8
0
 62
7
  6
CONTINUOUS
 10
-31.6040724305
 20
546.1385461192
  0
VERTEX
  8
0
 62
7
  6
CONTINUOUS
 10
-31.7767862703
 20
546.079419299
  0
VERTEX
  8
0
 62
7
  6
CONTINUOUS
 10
-31.949124573
 20
546.0194201957
  0
VERTEX
  8
0
 62
7
  6
CONTINUOUS
 10
-32.1210866521
 20
545.958550177
  0
VERTEX
  8
0
 62
7
  6
CONTINUOUS
 10
-32.2926717976
 20
545.8968105617
  0
VERTEX
  8
0
 62
7
  6
CONTINUOUS
 10
-32.4638792762
 20
545.8342026194
  0
VERTEX
  8
0
 62
7
  6
CONTINUOUS
 10
-32.6347083316
 20
545.7707275713
  0
VERTEX
  8
0
 62
7
  6
CONTINUOUS
 10
-32.8051581843
 20
545.7063865907
  0
VERTEX
  8
0
 62
7
  6
CONTINUOUS
 10
-32.9752280316
 20
545.6411808027
  0
VERTEX
  8
0
 62
7
  6
CONTINUOUS
 10
-33.1449170481
 20
545.5751112853
  0
VERTEX
  8
0
 62
7
  6
CONTINUOUS
 10
-33.3142243851
 20
545.508179069
  0
VERTEX
  8
0
 62
7
  6
CONTINUOUS
 10
-33.4831491713
 20
545.4403851376
  0
VERTEX
  8
0
 62
7
  6
CONTINUOUS
 10
-33.6516905124
 20
545.371730428
  0
VERTEX
  8
0
 62
7
  6
CONTINUOUS
 10
-33.8198474913
 20
545.302215831
  0
VERTEX
  8
0
 62
7
  6
CONTINUOUS
 10
-33.9876191228
 20
545.2318422101
  0
VERTEX
  8
0
 62
7
  6
CONTINUOUS
 10
-34.1550044045
 20
545.1606103815
  0
VERTEX
  8
0
 62
7
  6
CONTINUOUS
 10
-34.3220023414
 20
545.0885211035
  0
VERTEX
  8
0
 62
7
  6
CONTINUOUS
 10
-34.4886119161
 20
545.0155750888
  0
VERTEX
  8
0
 62
7
  6
CONTINUOUS
 10
-34.6548320883
 20
544.9417730051
  0
VERTEX
  8
0
 62
7
  6
CONTINUOUS
 10
-34.820661795
 20
544.8671154745
  0
VERTEX
  8
0
 62
7
  6
CONTINUOUS
 10
-34.9860999501
 20
544.7916030747
  0
VERTEX
  8
0
 62
7
  6
CONTINUOUS
 10
-35.151145445
 20
544.715236338
  0
VERTEX
  8
0
 62
7
  6
CONTINUOUS
 10
-35.3157971479
 20
544.6380157521
  0
VERTEX
  8
0
 62
7
  6
CONTINUOUS
 10
-35.4800539041
 20
544.5599417601
  0
VERTEX
  8
0
 62
7
  6
CONTINUOUS
 10
-35.6439145357
 20
544.4810147602
  0
VERTEX
  8
0
 62
7
  6
CONTINUOUS
 10
-35.807377842
 20
544.4012351063
  0
VERTEX
  8
0
 62
7
  6
CONTINUOUS
 10
-35.9704425988
 20
544.3206031073
  0
VERTEX
  8
0
 62
7
  6
CONTINUOUS
 10
-36.1331075586
 20
544.2391190278
  0
VERTEX
  8
0
 62
7
  6
CONTINUOUS
 10
-36.2953714505
 20
544.1567830879
  0
VERTEX
  8
0
 62
7
  6
CONTINUOUS
 10
-36.4572329802
 20
544.073595463
  0
SEQEND
  0
LINE
  8
0
 62
7
  6
CONTINUOUS
 10
123.2397790573
 20
557.7343426775
 11
123.6216657496
 21
557.8469302312
  0
LINE
  8
0
 62
7
  6
CONTINUOUS
 10
125.5616040925
 20
558.4685321318
 11
123.6604907352
 21
557.9117755349
  0
LINE
  8
0
 62
7
  6
CONTINUOUS
 10
249.2687223486
 20
-247.7002604051
 11
136.2669909189
 21
-247.7002549721
  0
LINE
  8
0
 62
7
  6
CONTINUOUS
 10
136.2669909189
 20
-247.7002549721
 11
133.5419128553
 21
-247.7001496207
  0
LINE
  8
0
 62
7
  6
CONTINUOUS
 10
133.5419128553
 20
-247.7001496207
 11
131.4044629728
 21
-247.6999730036
  0
POLYLINE
  8
0
 62
7
  6
CONTINUOUS
 66
1
 70
0
  0
VERTEX
  8
0
 62
7
  6
CONTINUOUS
 10
131.4044629728
 20
-247.6999730036
  0
VERTEX
  8
0
 62
7
  6
CONTINUOUS
 10
129.2671530132
 20
-247.6997137807
  0
VERTEX
  8
0
 62
7
  6
CONTINUOUS
 10
126.5417112666
 20
-247.6992633838
  0
SEQEND
  0
LINE
  8
0
 62
7
  6
CONTINUOUS
 10
10.8155103129
 20
-247.6700731456
 11
123.0421145882
 21
-247.6984880589
  0
LINE
  8
0
 62
7
  6
CONTINUOUS
 10
126.5417112666
 20
-247.6992633838
 11
123.0421145882
 21
-247.6984880589
  0
LINE
  8
0
 62
7
  6
CONTINUOUS
 10
129.8213362418
 20
559.4700154503
 11
129.7138568162
 21
559.4158026228
  0
LINE
  8
0
 62
7
  6
CONTINUOUS
 10
129.7138568162
 20
559.4158026228
 11
129.5634752511
 21
559.3613242571
  0
LINE
  8
0
 62
7
  6
CONTINUOUS
 10
129.8838189824
 20
559.5223445857
 11
129.8213362418
 21
559.4700154503
  0
POLYLINE
  8
0
 62
7
  6
CONTINUOUS
 66
1
 70
0
  0
VERTEX
  8
0
 62
7
  6
CONTINUOUS
 10
129.3645080802
 20
559.3055346065
  0
VERTEX
  8
0
 62
7
  6
CONTINUOUS
 10
129.3850648493
 20
559.3223486894
  0
VERTEX
  8
0
 62
7
  6
CONTINUOUS
 10
129.402885327
 20
559.3649536449
  0
SEQEND
  0
LINE
  8
0
 62
7
  6
CONTINUOUS
 10
111.6344780314
 20
557.7343425144
 11
109.0011621754
 21
554.3368346614
  0
POLYLINE
  8
0
 62
7
  6
CONTINUOUS
 66
1
 70
0
  0
VERTEX
  8
0
 62
7
  6
CONTINUOUS
 10
121.2378749825
 20
554.3368340403
  0
VERTEX
  8
0
 62
7
  6
CONTINUOUS
 10
121.9442218057
 20
555.5434814445
  0
VERTEX
  8
0
 62
7
  6
CONTINUOUS
 10
122.6116428942
 20
556.676075536
  0
VERTEX
  8
0
 62
7
  6
CONTINUOUS
 10
123.2397790573
 20
557.7343426775
  0
SEQEND
  0
LINE
  8
0
 62
7
  6
CONTINUOUS
 10
122.6207446473
 20
556.1751966344
 11
121.4806108816
 21
554.2486531895
  0
LINE
  8
0
 62
7
  6
CONTINUOUS
 10
123.6604907352
 20
557.9117755349
 11
122.6207446473
 21
556.1751966344
  0
LINE
  8
0
 62
7
  6
CONTINUOUS
 10
20.1289418793
 20
-29.3577729039
 11
20.1288754205
 21
-29.3577077436
  0
POLYLINE
  8
0
 62
7
  6
CONTINUOUS
 66
1
 70
0
  0
VERTEX
  8
0
 62
7
  6
CONTINUOUS
 10
20.1301335723
 20
-29.3589413239
  0
VERTEX
  8
0
 62
7
  6
CONTINUOUS
 10
21.5331296568
 20
-31.0372529588
  0
VERTEX
  8
0
 62
7
  6
CONTINUOUS
 10
22.6493474507
 20
-33.1054053167
  0
VERTEX
  8
0
 62
7
  6
CONTINUOUS
 10
23.377226672
 20
-35.6890174654
  0
VERTEX
  8
0
 62
7
  6
CONTINUOUS
 10
23.4782680271
 20
-38.4884860946
  0
SEQEND
  0
POLYLINE
  8
0
 62
7
  6
CONTINUOUS
 66
1
 70
0
  0
VERTEX
  8
0
 62
7
  6
CONTINUOUS
 10
-38.563192517
 20
62.4291406201
  0
VERTEX
  8
0
 62
7
  6
CONTINUOUS
 10
-38.2805197815
 20
61.3416437849
  0
VERTEX
  8
0
 62
7
  6
CONTINUOUS
 10
-36.8533504249
 20
56.2071847255
  0
VERTEX
  8
0
 62
7
  6
CONTINUOUS
 10
-35.1843788334
 20
50.8338382296
  0
VERTEX
  8
0
 62
7
  6
CONTINUOUS
 10
-33.2411438081
 20
45.2785667671
  0
VERTEX
  8
0
 62
7
  6
CONTINUOUS
 10
-30.9689348587
 20
39.5813518326
  0
VERTEX
  8
0
 62
7
  6
CONTINUOUS
 10
-28.2777865734
 20
33.6675776594
  0
VERTEX
  8
0
 62
7
  6
CONTINUOUS
 10
-25.0774421408
 20
27.417694272
  0
VERTEX
  8
0
 62
7
  6
CONTINUOUS
 10
-21.2926422008
 20
20.7546733102
  0
VERTEX
  8
0
 62
7
  6
CONTINUOUS
 10
-16.7280382399
 20
13.5377170727
  0
VERTEX
  8
0
 62
7
  6
CONTINUOUS
 10
-11.0513233705
 20
5.5432853636
  0
VERTEX
  8
0
 62
7
  6
CONTINUOUS
 10
-4.2988394608
 20
-2.994076935
  0
VERTEX
  8
0
 62
7
  6
CONTINUOUS
 10
3.781867618
 20
-12.3323422065
  0
VERTEX
  8
0
 62
7
  6
CONTINUOUS
 10
13.0327129872
 20
-22.2239783956
  0
VERTEX
  8
0
 62
7
  6
CONTINUOUS
 10
20.1289385326
 20
-29.3573969686
  0
SEQEND
  0
LINE
  8
0
 62
7
  6
CONTINUOUS
 10
-38.5630497606
 20
62.4288520839
 11
-38.5630675961
 21
62.4289215763
  0
POLYLINE
  8
0
 62
7
  6
CONTINUOUS
 66
1
 70
0
  0
VERTEX
  8
0
 62
7
  6
CONTINUOUS
 10
-54.2981248392
 20
499.2731705958
  0
VERTEX
  8
0
 62
7
  6
CONTINUOUS
 10
-54.2932408765
 20
499.2243231018
  0
VERTEX
  8
0
 62
7
  6
CONTINUOUS
 10
-54.2856237159
 20
499.1563199747
  0
VERTEX
  8
0
 62
7
  6
CONTINUOUS
 10
-54.2770664665
 20
499.0884223928
  0
VERTEX
  8
0
 62
7
  6
CONTINUOUS
 10
-54.267571177
 20
499.0206342359
  0
VERTEX
  8
0
 62
7
  6
CONTINUOUS
 10
-54.2571394354
 20
498.9529594649
  0
VERTEX
  8
0
 62
7
  6
CONTINUOUS
 10
-54.2457723705
 20
498.8854021238
  0
VERTEX
  8
0
 62
7
  6
CONTINUOUS
 10
-54.233470653
 20
498.8179663412
  0
VERTEX
  8
0
 62
7
  6
CONTINUOUS
 10
-54.2202344947
 20
498.7506563332
  0
VERTEX
  8
0
 62
7
  6
CONTINUOUS
 10
-54.2060636468
 20
498.6834764056
  0
VERTEX
  8
0
 62
7
  6
CONTINUOUS
 10
-54.1909573965
 20
498.6164309562
  0
VERTEX
  8
0
 62
7
  6
CONTINUOUS
 10
-54.1749145632
 20
498.5495244787
  0
VERTEX
  8
0
 62
7
  6
CONTINUOUS
 10
-54.1664402761
 20
498.5157271548
  0
VERTEX
  8
0
 62
7
  6
CONTINUOUS
 10
-54.1489799015
 20
498.4490244901
  0
VERTEX
  8
0
 62
7
  6
CONTINUOUS
 10
-54.1306216665
 20
498.3826281772
  0
VERTEX
  8
0
 62
7
  6
CONTINUOUS
 10
-54.1113691563
 20
498.3165414049
  0
VERTEX
  8
0
 62
7
  6
CONTINUOUS
 10
-54.0912254946
 20
498.2507675439
  0
VERTEX
  8
0
 62
7
  6
CONTINUOUS
 10
-54.0701933525
 20
498.1853101453
  0
VERTEX
  8
0
 62
7
  6
CONTINUOUS
 10
-54.0482751856
 20
498.1201736127
  0
VERTEX
  8
0
 62
7
  6
CONTINUOUS
 10
-54.0254753607
 20
498.0553689561
  0
VERTEX
  8
0
 62
7
  6
CONTINUOUS
 10
-54.0017962933
 20
497.9909021498
  0
VERTEX
  8
0
 62
7
  6
CONTINUOUS
 10
-53.9772400668
 20
497.9267792854
  0
VERTEX
  8
0
 62
7
  6
CONTINUOUS
 10
-53.9518084318
 20
497.8630065698
  0
VERTEX
  8
0
 62
7
  6
CONTINUOUS
 10
-53.9255028042
 20
497.7995903228
  0
VERTEX
  8
0
 62
7
  6
CONTINUOUS
 10
-53.8983242627
 20
497.7365369753
  0
VERTEX
  8
0
 62
7
  6
CONTINUOUS
 10
-53.8702735445
 20
497.6738530685
  0
VERTEX
  8
0
 62
7
  6
CONTINUOUS
 10
-53.8413510404
 20
497.6115452529
  0
VERTEX
  8
0
 62
7
  6
CONTINUOUS
 10
-53.8115567878
 20
497.5496202887
  0
VERTEX
  8
0
 62
7
  6
CONTINUOUS
 10
-53.7808904635
 20
497.488085046
  0
VERTEX
  8
0
 62
7
  6
CONTINUOUS
 10
-53.7493480768
 20
497.4269388262
  0
VERTEX
  8
0
 62
7
  6
CONTINUOUS
 10
-53.716923865
 20
497.366172906
  0
VERTEX
  8
0
 62
7
  6
CONTINUOUS
 10
-53.683613345
 20
497.3057815548
  0
VERTEX
  8
0
 62
7
  6
CONTINUOUS
 10
-53.6494122845
 20
497.2457616738
  0
VERTEX
  8
0
 62
7
  6
CONTINUOUS
 10
-53.6143165617
 20
497.1861122472
  0
VERTEX
  8
0
 62
7
  6
CONTINUOUS
 10
-53.5783220604
 20
497.1268339408
  0
VERTEX
  8
0
 62
7
  6
CONTINUOUS
 10
-53.5414245876
 20
497.0679288051
  0
VERTEX
  8
0
 62
7
  6
CONTINUOUS
 10
-53.5036198081
 20
497.0094000535
  0
VERTEX
  8
0
 62
7
  6
CONTINUOUS
 10
-53.4829956533
 20
496.9782064111
  0
VERTEX
  8
0
 62
7
  6
CONTINUOUS
 10
-53.4443655747
 20
496.9211042235
  0
VERTEX
  8
0
 62
7
  6
CONTINUOUS
 10
-53.4049870326
 20
496.8645833986
  0
VERTEX
  8
0
 62
7
  6
CONTINUOUS
 10
-53.3648646453
 20
496.8086455822
  0
VERTEX
  8
0
 62
7
  6
CONTINUOUS
 10
-53.3240026558
 20
496.7532927469
  0
VERTEX
  8
0
 62
7
  6
CONTINUOUS
 10
-53.2824049391
 20
496.6985271883
  0
VERTEX
  8
0
 62
7
  6
CONTINUOUS
 10
-53.2400750088
 20
496.6443515222
  0
VERTEX
  8
0
 62
7
  6
CONTINUOUS
 10
-53.1970160217
 20
496.5907686828
  0
VERTEX
  8
0
 62
7
  6
CONTINUOUS
 10
-53.1532307829
 20
496.5377819217
  0
VERTEX
  8
0
 62
7
  6
CONTINUOUS
 10
-53.1087217485
 20
496.4853948079
  0
VERTEX
  8
0
 62
7
  6
CONTINUOUS
 10
-53.0634910279
 20
496.4336112287
  0
VERTEX
  8
0
 62
7
  6
CONTINUOUS
 10
-53.0175403855
 20
496.382435391
  0
VERTEX
  8
0
 62
7
  6
CONTINUOUS
 10
-52.9708734311
 20
496.3318741651
  0
VERTEX
  8
0
 62
7
  6
CONTINUOUS
 10
-52.9234995105
 20
496.2819408151
  0
VERTEX
  8
0
 62
7
  6
CONTINUOUS
 10
-52.8754212999
 20
496.2326416157
  0
VERTEX
  8
0
 62
7
  6
CONTINUOUS
 10
-52.8266411927
 20
496.1839830727
  0
VERTEX
  8
0
 62
7
  6
CONTINUOUS
 10
-52.7771612933
 20
496.1359719255
  0
VERTEX
  8
0
 62
7
  6
CONTINUOUS
 10
-52.7269834089
 20
496.0886151506
  0
VERTEX
  8
0
 62
7
  6
CONTINUOUS
 10
-52.676109041
 20
496.041919966
  0
VERTEX
  8
0
 62
7
  6
CONTINUOUS
 10
-52.6245388379
 20
495.9958933382
  0
VERTEX
  8
0
 62
7
  6
CONTINUOUS
 10
-52.5722656233
 20
495.9505339854
  0
VERTEX
  8
0
 62
7
  6
CONTINUOUS
 10
-52.5192822384
 20
495.9058383505
  0
VERTEX
  8
0
 62
7
  6
CONTINUOUS
 10
-52.4655827643
 20
495.8618049871
  0
VERTEX
  8
0
 62
7
  6
CONTINUOUS
 10
-52.4111620364
 20
495.8184343434
  0
VERTEX
  8
0
 62
7
  6
CONTINUOUS
 10
-52.356015434
 20
495.7757284574
  0
VERTEX
  8
0
 62
7
  6
CONTINUOUS
 10
-52.3270948191
 20
495.7538181991
  0
VERTEX
  8
0
 62
7
  6
CONTINUOUS
 10
-52.2717288309
 20
495.7127802527
  0
VERTEX
  8
0
 62
7
  6
CONTINUOUS
 10
-52.2158451802
 20
495.6725353469
  0
VERTEX
  8
0
 62
7
  6
CONTINUOUS
 10
-52.1594488646
 20
495.6330832791
  0
VERTEX
  8
0
 62
7
  6
CONTINUOUS
 10
-52.1025446367
 20
495.5944242804
  0
VERTEX
  8
0
 62
7
  6
CONTINUOUS
 10
-52.0451370101
 20
495.55655901
  0
VERTEX
  8
0
 62
7
  6
CONTINUOUS
 10
-51.9872302644
 20
495.5194885502
  0
VERTEX
  8
0
 62
7
  6
CONTINUOUS
 10
-51.9288284496
 20
495.4832144026
  0
VERTEX
  8
0
 62
7
  6
CONTINUOUS
 10
-51.8699353901
 20
495.447738486
  0
VERTEX
  8
0
 62
7
  6
CONTINUOUS
 10
-51.8105546875
 20
495.4130631349
  0
VERTEX
  8
0
 62
7
  6
CONTINUOUS
 10
-51.7506897232
 20
495.3791910993
  0
VERTEX
  8
0
 62
7
  6
CONTINUOUS
 10
-51.6903436604
 20
495.346125546
  0
VERTEX
  8
0
 62
7
  6
CONTINUOUS
 10
-51.6295194457
 20
495.3138700605
  0
VERTEX
  8
0
 62
7
  6
CONTINUOUS
 10
-51.5682198088
 20
495.2824286505
  0
VERTEX
  8
0
 62
7
  6
CONTINUOUS
 10
-51.5064472638
 20
495.2518057503
  0
VERTEX
  8
0
 62
7
  6
CONTINUOUS
 10
-51.4442041078
 20
495.2220062267
  0
VERTEX
  8
0
 62
7
  6
CONTINUOUS
 10
-51.3814924201
 20
495.1930353854
  0
VERTEX
  8
0
 62
7
  6
CONTINUOUS
 10
-51.3183140606
 20
495.1648989797
  0
VERTEX
  8
0
 62
7
  6
CONTINUOUS
 10
-51.254689182
 20
495.1376110092
  0
VERTEX
  8
0
 62
7
  6
CONTINUOUS
 10
-51.1906218437
 20
495.1111783195
  0
VERTEX
  8
0
 62
7
  6
CONTINUOUS
 10
-51.1261156167
 20
495.0856079787
  0
VERTEX
  8
0
 62
7
  6
CONTINUOUS
 10
-51.061173857
 20
495.0609074163
  0
VERTEX
  8
0
 62
7
  6
CONTINUOUS
 10
-50.9957968062
 20
495.0370831768
  0
VERTEX
  8
0
 62
7
  6
CONTINUOUS
 10
-50.929976183
 20
495.0141366747
  0
VERTEX
  8
0
 62
7
  6
CONTINUOUS
 10
-50.8637052385
 20
494.9920690649
  0
VERTEX
  8
0
 62
7
  6
CONTINUOUS
 10
-50.8292713467
 20
494.9810076747
  0
VERTEX
  8
0
 62
7
  6
CONTINUOUS
 10
-50.7635192255
 20
494.9606447913
  0
VERTEX
  8
0
 62
7
  6
CONTINUOUS
 10
-50.6975365594
 20
494.9411998442
  0
VERTEX
  8
0
 62
7
  6
CONTINUOUS
 10
-50.6313279882
 20
494.9226707695
  0
VERTEX
  8
0
 62
7
  6
CONTINUOUS
 10
-50.5648980659
 20
494.9050559931
  0
VERTEX
  8
0
 62
7
  6
CONTINUOUS
 10
-50.4982512644
 20
494.8883544228
  0
VERTEX
  8
0
 62
7
  6
CONTINUOUS
 10
-50.4313919766
 20
494.8725654423
  0
VERTEX
  8
0
 62
7
  6
CONTINUOUS
 10
-50.3643245193
 20
494.8576889057
  0
VERTEX
  8
0
 62
7
  6
CONTINUOUS
 10
-50.297053136
 20
494.8437251344
  0
VERTEX
  8
0
 62
7
  6
CONTINUOUS
 10
-50.2295819994
 20
494.8306749143
  0
VERTEX
  8
0
 62
7
  6
CONTINUOUS
 10
-50.1619152137
 20
494.8185394954
  0
VERTEX
  8
0
 62
7
  6
CONTINUOUS
 10
-50.0940568169
 20
494.8073205915
  0
VERTEX
  8
0
 62
7
  6
CONTINUOUS
 10
-50.0260107827
 20
494.7970203818
  0
VERTEX
  8
0
 62
7
  6
CONTINUOUS
 10
-49.9577810219
 20
494.7876415142
  0
VERTEX
  8
0
 62
7
  6
CONTINUOUS
 10
-49.8893713845
 20
494.7791871089
  0
VERTEX
  8
0
 62
7
  6
CONTINUOUS
 10
-49.8207856609
 20
494.7716607638
  0
VERTEX
  8
0
 62
7
  6
CONTINUOUS
 10
-49.752027583
 20
494.7650665618
  0
VERTEX
  8
0
 62
7
  6
CONTINUOUS
 10
-49.6831008256
 20
494.7594090784
  0
VERTEX
  8
0
 62
7
  6
CONTINUOUS
 10
-49.6140090067
 20
494.7546933917
  0
VERTEX
  8
0
 62
7
  6
CONTINUOUS
 10
-49.544755689
 20
494.7509250932
  0
VERTEX
  8
0
 62
7
  6
CONTINUOUS
 10
-49.4753443796
 20
494.7481103006
  0
VERTEX
  8
0
 62
7
  6
CONTINUOUS
 10
-49.4057785309
 20
494.7462556723
  0
VERTEX
  8
0
 62
7
  6
CONTINUOUS
 10
-49.3360679025
 20
494.7453684596
  0
VERTEX
  8
0
 62
7
  6
CONTINUOUS
 10
-49.2662360354
 20
494.7454560174
  0
VERTEX
  8
0
 62
7
  6
CONTINUOUS
 10
-49.1962884868
 20
494.7465255561
  0
SEQEND
  0
POLYLINE
  8
0
 62
7
  6
CONTINUOUS
 66
1
 70
0
  0
VERTEX
  8
0
 62
7
  6
CONTINUOUS
 10
-42.3634093296
 20
151.0973731824
  0
VERTEX
  8
0
 62
7
  6
CONTINUOUS
 10
-42.2781710327
 20
150.2251103495
  0
VERTEX
  8
0
 62
7
  6
CONTINUOUS
 10
-41.392312761
 20
148.3819548753
  0
VERTEX
  8
0
 62
7
  6
CONTINUOUS
 10
-40.3808418367
 20
147.4786714093
  0
VERTEX
  8
0
 62
7
  6
CONTINUOUS
 10
-39.5712344789
 20
147.0384162178
  0
VERTEX
  8
0
 62
7
  6
CONTINUOUS
 10
-38.8697428867
 20
146.768839601
  0
VERTEX
  8
0
 62
7
  6
CONTINUOUS
 10
-38.1734389289
 20
146.5630015377
  0
VERTEX
  8
0
 62
7
  6
CONTINUOUS
 10
-37.4229378985
 20
146.3832919356
  0
VERTEX
  8
0
 62
7
  6
CONTINUOUS
 10
-36.5811716795
 20
146.2144028956
  0
VERTEX
  8
0
 62
7
  6
CONTINUOUS
 10
-35.6224050627
 20
146.0493281256
  0
VERTEX
  8
0
 62
7
  6
CONTINUOUS
 10
-34.5268596674
 20
145.8845601297
  0
VERTEX
  8
0
 62
7
  6
CONTINUOUS
 10
-33.277946995
 20
145.7182072172
  0
VERTEX
  8
0
 62
7
  6
CONTINUOUS
 10
-31.8605761107
 20
145.5491433632
  0
VERTEX
  8
0
 62
7
  6
CONTINUOUS
 10
-30.2607111519
 20
145.3766995384
  0
VERTEX
  8
0
 62
7
  6
CONTINUOUS
 10
-28.4648458781
 20
145.2004699041
  0
VERTEX
  8
0
 62
7
  6
CONTINUOUS
 10
-26.7953687012
 20
145.0493474986
  0
SEQEND
  0
LINE
  8
0
 62
7
  6
CONTINUOUS
 10
-55.2815506783
 20
509.6292337867
 11
-54.2981248392
 21
499.2731705958
  0
LINE
  8
0
 62
7
  6
CONTINUOUS
 10
-25.182051529
 20
192.6634771105
 11
-53.3502956154
 21
489.2919610868
  0
POLYLINE
  8
0
 62
7
  6
CONTINUOUS
 66
1
 70
0
  0
VERTEX
  8
0
 62
7
  6
CONTINUOUS
 10
-53.3502956154
 20
489.2919610868
  0
VERTEX
  8
0
 62
7
  6
CONTINUOUS
 10
-53.3591087163
 20
489.3966100303
  0
VERTEX
  8
0
 62
7
  6
CONTINUOUS
 10
-53.3660813174
 20
489.5089435387
  0
VERTEX
  8
0
 62
7
  6
CONTINUOUS
 10
-53.3705006404
 20
489.6213678799
  0
VERTEX
  8
0
 62
7
  6
CONTINUOUS
 10
-53.3723756897
 20
489.7338649592
  0
VERTEX
  8
0
 62
7
  6
CONTINUOUS
 10
-53.3717120009
 20
489.8464165194
  0
VERTEX
  8
0
 62
7
  6
CONTINUOUS
 10
-53.3685116824
 20
489.9590041165
  0
VERTEX
  8
0
 62
7
  6
CONTINUOUS
 10
-53.3627734323
 20
490.0716090956
  0
VERTEX
  8
0
 62
7
  6
CONTINUOUS
 10
-53.3544925289
 20
490.1842125644
  0
VERTEX
  8
0
 62
7
  6
CONTINUOUS
 10
-53.3436607964
 20
490.2967953658
  0
VERTEX
  8
0
 62
7
  6
CONTINUOUS
 10
-53.3302665441
 20
490.4093380483
  0
VERTEX
  8
0
 62
7
  6
CONTINUOUS
 10
-53.3142944788
 20
490.5218208342
  0
VERTEX
  8
0
 62
7
  6
CONTINUOUS
 10
-53.2957255882
 20
490.6342235856
  0
VERTEX
  8
0
 62
7
  6
CONTINUOUS
 10
-53.2745369939
 20
490.7465257679
  0
VERTEX
  8
0
 62
7
  6
CONTINUOUS
 10
-53.2535139054
 20
490.8461036172
  0
VERTEX
  8
0
 62
7
  6
CONTINUOUS
 10
-53.2277554252
 20
490.9563208757
  0
VERTEX
  8
0
 62
7
  6
CONTINUOUS
 10
-53.1995642535
 20
491.0656857592
  0
VERTEX
  8
0
 62
7
  6
CONTINUOUS
 10
-53.1689546856
 20
491.1741746006
  0
VERTEX
  8
0
 62
7
  6
CONTINUOUS
 10
-53.1359383655
 20
491.2817633154
  0
VERTEX
  8
0
 62
7
  6
CONTINUOUS
 10
-53.1005141476
 20
491.388460073
  0
VERTEX
  8
0
 62
7
  6
CONTINUOUS
 10
-53.0626609537
 20
491.4943467433
  0
VERTEX
  8
0
 62
7
  6
CONTINUOUS
 10
-53.0223705213
 20
491.5994613036
  0
VERTEX
  8
0
 62
7
  6
CONTINUOUS
 10
-52.9796374423
 20
491.703813495
  0
VERTEX
  8
0
 62
7
  6
CONTINUOUS
 10
-52.9344566286
 20
491.8073976114
  0
VERTEX
  8
0
 62
7
  6
CONTINUOUS
 10
-52.8868451479
 20
491.9101503913
  0
VERTEX
  8
0
 62
7
  6
CONTINUOUS
 10
-52.8368081332
 20
492.0120337616
  0
VERTEX
  8
0
 62
7
  6
CONTINUOUS
 10
-52.7843357903
 20
492.1130335744
  0
VERTEX
  8
0
 62
7
  6
CONTINUOUS
 10
-52.7294148541
 20
492.2131325976
  0
VERTEX
  8
0
 62
7
  6
CONTINUOUS
 10
-52.6720284532
 20
492.3123107321
  0
VERTEX
  8
0
 62
7
  6
CONTINUOUS
 10
-52.6186061596
 20
492.4002014936
  0
VERTEX
  8
0
 62
7
  6
CONTINUOUS
 10
-52.5575139283
 20
492.4960042961
  0
VERTEX
  8
0
 62
7
  6
CONTINUOUS
 10
-52.4943754978
 20
492.5902503653
  0
VERTEX
  8
0
 62
7
  6
CONTINUOUS
 10
-52.4292130321
 20
492.6829206871
  0
VERTEX
  8
0
 62
7
  6
CONTINUOUS
 10
-52.3620464803
 20
492.7739947888
  0
VERTEX
  8
0
 62
7
  6
CONTINUOUS
 10
-52.2928935845
 20
492.8634507857
  0
VERTEX
  8
0
 62
7
  6
CONTINUOUS
 10
-52.2217698695
 20
492.9512654108
  0
VERTEX
  8
0
 62
7
  6
CONTINUOUS
 10
-52.1486886112
 20
493.0374140276
  0
VERTEX
  8
0
 62
7
  6
CONTINUOUS
 10
-52.0736546057
 20
493.1218778312
  0
VERTEX
  8
0
 62
7
  6
CONTINUOUS
 10
-51.9966308952
 20
493.2046906939
  0
VERTEX
  8
0
 62
7
  6
CONTINUOUS
 10
-51.9175911619
 20
493.2858790412
  0
VERTEX
  8
0
 62
7
  6
CONTINUOUS
 10
-51.8365181197
 20
493.3654498946
  0
VERTEX
  8
0
 62
7
  6
CONTINUOUS
 10
-51.7533990913
 20
493.443396957
  0
VERTEX
  8
0
 62
7
  6
CONTINUOUS
 10
-51.6682237385
 20
493.5197043739
  0
VERTEX
  8
0
 62
7
  6
CONTINUOUS
 10
-51.5809826322
 20
493.5943489743
  0
VERTEX
  8
0
 62
7
  6
CONTINUOUS
 10
-51.504022453
 20
493.6574109332
  0
VERTEX
  8
0
 62
7
  6
CONTINUOUS
 10
-51.4145262892
 20
493.7276351444
  0
VERTEX
  8
0
 62
7
  6
CONTINUOUS
 10
-51.3235705545
 20
493.7957504797
  0
VERTEX
  8
0
 62
7
  6
CONTINUOUS
 10
-51.2311748673
 20
493.861752057
  0
VERTEX
  8
0
 62
7
  6
CONTINUOUS
 10
-51.1373569791
 20
493.9256319633
  0
VERTEX
  8
0
 62
7
  6
CONTINUOUS
 10
-51.0421333831
 20
493.9873789343
  0
VERTEX
  8
0
 62
7
  6
CONTINUOUS
 10
-50.945547029
 20
494.0469618065
  0
VERTEX
  8
0
 62
7
  6
CONTINUOUS
 10
-50.8476199182
 20
494.1043608732
  0
VERTEX
  8
0
 62
7
  6
CONTINUOUS
 10
-50.7483725635
 20
494.1595542754
  0
VERTEX
  8
0
 62
7
  6
CONTINUOUS
 10
-50.6478239344
 20
494.2125179734
  0
VERTEX
  8
0
 62
7
  6
CONTINUOUS
 10
-50.5459913886
 20
494.2632256934
  0
VERTEX
  8
0
 62
7
  6
CONTINUOUS
 10
-50.4428890994
 20
494.3116495633
  0
VERTEX
  8
0
 62
7
  6
CONTINUOUS
 10
-50.3384870438
 20
494.3577843694
  0
VERTEX
  8
0
 62
7
  6
CONTINUOUS
 10
-50.2327513914
 20
494.4016339517
  0
VERTEX
  8
0
 62
7
  6
CONTINUOUS
 10
-50.1256597391
 20
494.443191183
  0
VERTEX
  8
0
 62
7
  6
CONTINUOUS
 10
-50.0336822448
 20
494.4766547866
  0
VERTEX
  8
0
 62
7
  6
CONTINUOUS
 10
-49.9261940081
 20
494.513220062
  0
VERTEX
  8
0
 62
7
  6
CONTINUOUS
 10
-49.8179992816
 20
494.547325592
  0
VERTEX
  8
0
 62
7
  6
CONTINUOUS
 10
-49.7091183918
 20
494.5789753497
  0
VERTEX
  8
0
 62
7
  6
CONTINUOUS
 10
-49.5995709265
 20
494.6081698229
  0
VERTEX
  8
0
 62
7
  6
CONTINUOUS
 10
-49.4893757727
 20
494.6349060655
  0
VERTEX
  8
0
 62
7
  6
CONTINUOUS
 10
-49.3785511479
 20
494.6591777226
  0
VERTEX
  8
0
 62
7
  6
CONTINUOUS
 10
-49.2671146268
 20
494.6809750296
  0
VERTEX
  8
0
 62
7
  6
CONTINUOUS
 10
-49.1550831632
 20
494.7002847861
  0
VERTEX
  8
0
 62
7
  6
CONTINUOUS
 10
-49.0424731067
 20
494.7170903038
  0
VERTEX
  8
0
 62
7
  6
CONTINUOUS
 10
-48.929300215
 20
494.7313713278
  0
VERTEX
  8
0
 62
7
  6
CONTINUOUS
 10
-48.8137787435
 20
494.7432686332
  0
SEQEND
  0
LINE
  8
0
 62
7
  6
CONTINUOUS
 10
-42.1088438706
 20
185.5846351557
 11
-42.1088425385
 21
185.5820637074
  0
LINE
  8
0
 62
7
  6
CONTINUOUS
 10
-42.1088438706
 20
185.5846351557
 11
-42.3634808541
 21
151.0936028517
  0
LINE
  8
0
 62
7
  6
CONTINUOUS
 10
-42.3634093296
 20
151.0973731824
 11
-42.3634808541
 21
151.0936028517
  0
POLYLINE
  8
0
 62
7
  6
CONTINUOUS
 66
1
 70
0
  0
VERTEX
  8
0
 62
7
  6
CONTINUOUS
 10
-44.2428003395
 20
140.0095955035
  0
VERTEX
  8
0
 62
7
  6
CONTINUOUS
 10
-44.3889836754
 20
136.2833771355
  0
VERTEX
  8
0
 62
7
  6
CONTINUOUS
 10
-44.7253284269
 20
125.1790333657
  0
VERTEX
  8
0
 62
7
  6
CONTINUOUS
 10
-44.8275134814
 20
114.9370201831
  0
VERTEX
  8
0
 62
7
  6
CONTINUOUS
 10
-44.6369548807
 20
104.9004800416
  0
VERTEX
  8
0
 62
7
  6
CONTINUOUS
 10
-44.0423683606
 20
94.6753834079
  0
VERTEX
  8
0
 62
7
  6
CONTINUOUS
 10
-42.8842126764
 20
84.0685058463
  0
VERTEX
  8
0
 62
7
  6
CONTINUOUS
 10
-40.9185453598
 20
72.6339124541
  0
VERTEX
  8
0
 62
7
  6
CONTINUOUS
 10
-38.5630675961
 20
62.4289215763
  0
SEQEND
  0
LINE
  8
0
 62
7
  6
CONTINUOUS
 10
-44.2428127651
 20
140.0093537121
 11
-44.2427976683
 21
140.0095961531
  0
LINE
  8
0
 62
7
  6
CONTINUOUS
 10
129.902885327
 20
559.5697835523
 11
129.8838189824
 21
559.5223445857
  0
POLYLINE
  8
0
 62
7
  6
CONTINUOUS
 66
1
 70
0
  0
VERTEX
  8
0
 62
7
  6
CONTINUOUS
 10
23.4782495707
 20
-38.4943814349
  0
VERTEX
  8
0
 62
7
  6
CONTINUOUS
 10
23.2129456913
 20
-41.9551243191
  0
VERTEX
  8
0
 62
7
  6
CONTINUOUS
 10
22.695423517
 20
-51.596673271
  0
VERTEX
  8
0
 62
7
  6
CONTINUOUS
 10
22.2173746933
 20
-60.9760359886
  0
VERTEX
  8
0
 62
7
  6
CONTINUOUS
 10
21.5915322565
 20
-69.5058595166
  0
VERTEX
  8
0
 62
7
  6
CONTINUOUS
 10
21.3542512511
 20
-72.1028153375
  0
SEQEND
  0
LINE
  8
0
 62
7
  6
CONTINUOUS
 10
23.4782610718
 20
-38.4942475521
 11
23.4786565994
 21
-38.4894199537
  0
POLYLINE
  8
0
 62
7
  6
CONTINUOUS
 66
1
 70
0
  0
VERTEX
  8
0
 62
7
  6
CONTINUOUS
 10
21.3528942888
 20
-72.1165146331
  0
VERTEX
  8
0
 62
7
  6
CONTINUOUS
 10
20.404003097
 20
-82.911663765
  0
VERTEX
  8
0
 62
7
  6
CONTINUOUS
 10
19.7296421975
 20
-92.2292644946
  0
VERTEX
  8
0
 62
7
  6
CONTINUOUS
 10
19.1577082181
 20
-102.3375121573
  0
VERTEX
  8
0
 62
7
  6
CONTINUOUS
 10
18.6385348356
 20
-114.5638888897
  0
VERTEX
  8
0
 62
7
  6
CONTINUOUS
 10
18.1053303627
 20
-129.266935847
  0
VERTEX
  8
0
 62
7
  6
CONTINUOUS
 10
17.4731135854
 20
-145.0370917472
  0
VERTEX
  8
0
 62
7
  6
CONTINUOUS
 10
16.7249846445
 20
-160.0289079291
  0
VERTEX
  8
0
 62
7
  6
CONTINUOUS
 10
15.9181759604
 20
-173.6502821883
  0
VERTEX
  8
0
 62
7
  6
CONTINUOUS
 10
15.0771312288
 20
-186.6268440919
  0
VERTEX
  8
0
 62
7
  6
CONTINUOUS
 10
14.2315014181
 20
-199.5369835886
  0
VERTEX
  8
0
 62
7
  6
CONTINUOUS
 10
13.4342264516
 20
-212.0421855817
  0
VERTEX
  8
0
 62
7
  6
CONTINUOUS
 10
12.6612877544
 20
-223.9217028019
  0
VERTEX
  8
0
 62
7
  6
CONTINUOUS
 10
11.7723567757
 20
-236.2216910032
  0
VERTEX
  8
0
 62
7
  6
CONTINUOUS
 10
10.815507848
 20
-247.6700731449
  0
SEQEND
  0
LINE
  8
0
 62
7
  6
CONTINUOUS
 10
21.3535843487
 20
-72.109307563
 11
21.3542064959
 21
-72.1028288067
  0
LINE
  8
0
 62
7
  6
CONTINUOUS
 10
137.0980176981
 20
193.8867894968
 11
137.0999835289
 21
193.8879535368
  0
LINE
  8
0
 62
7
  6
CONTINUOUS
 10
129.402885327
 20
559.3159993314
 11
129.402885327
 21
559.9864672881
  0
LINE
  8
0
 62
7
  6
CONTINUOUS
 10
129.902885327
 20
560.1896494518
 11
129.902885327
 21
559.5697834717
  0
POLYLINE
  8
0
 62
7
  6
CONTINUOUS
 66
1
 70
0
  0
VERTEX
  8
0
 62
7
  6
CONTINUOUS
 10
286.9790310774
 20
145.0096246383
  0
VERTEX
  8
0
 62
7
  6
CONTINUOUS
 10
288.6232335801
 20
145.1579557678
  0
VERTEX
  8
0
 62
7
  6
CONTINUOUS
 10
290.4235469465
 20
145.3339566739
  0
VERTEX
  8
0
 62
7
  6
CONTINUOUS
 10
292.0271984004
 20
145.5061984974
  0
VERTEX
  8
0
 62
7
  6
CONTINUOUS
 10
293.4477833823
 20
145.6750852418
  0
VERTEX
  8
0
 62
7
  6
CONTINUOUS
 10
294.6994135933
 20
145.8412833745
  0
VERTEX
  8
0
 62
7
  6
CONTINUOUS
 10
295.7972381846
 20
146.0059145204
  0
VERTEX
  8
0
 62
7
  6
CONTINUOUS
 10
296.7578927536
 20
146.1708634828
  0
VERTEX
  8
0
 62
7
  6
CONTINUOUS
 10
297.6011920592
 20
146.3396261152
  0
VERTEX
  8
0
 62
7
  6
CONTINUOUS
 10
298.3528899777
 20
146.5191858078
  0
VERTEX
  8
0
 62
7
  6
CONTINUOUS
 10
299.0500582883
 20
146.7248031672
  0
VERTEX
  8
0
 62
7
  6
CONTINUOUS
 10
299.7520909212
 20
146.9939862541
  0
VERTEX
  8
0
 62
7
  6
CONTINUOUS
 10
300.5618132107
 20
147.4333251782
  0
VERTEX
  8
0
 62
7
  6
CONTINUOUS
 10
301.5738996307
 20
148.3350008758
  0
VERTEX
  8
0
 62
7
  6
CONTINUOUS
 10
302.4624356706
 20
150.1780191003
  0
VERTEX
  8
0
 62
7
  6
CONTINUOUS
 10
302.5486045932
 20
151.0537264856
  0
SEQEND
  0
POLYLINE
  8
0
 62
7
  6
CONTINUOUS
 66
1
 70
0
  0
VERTEX
  8
0
 62
7
  6
CONTINUOUS
 10
265.798848963
 20
143.8363935598
  0
VERTEX
  8
0
 62
7
  6
CONTINUOUS
 10
278.4366523526
 20
144.4280419713
  0
VERTEX
  8
0
 62
7
  6
CONTINUOUS
 10
286.9809868913
 20
145.0097955586
  0
SEQEND
  0
LINE
  8
0
 62
7
  6
CONTINUOUS
 10
260.7244875199
 20
143.6421173695
 11
265.798848963
 21
143.8363935598
  0
LINE
  8
0
 62
7
  6
CONTINUOUS
 10
-39.6957966292
 20
143.8187704927
 11
-28.379877589
 21
143.9885938558
  0
POLYLINE
  8
0
 62
7
  6
CONTINUOUS
 66
1
 70
0
  0
VERTEX
  8
0
 62
7
  6
CONTINUOUS
 10
-37.9631393712
 20
143.90639247
  0
VERTEX
  8
0
 62
7
  6
CONTINUOUS
 10
-38.2985399152
 20
143.9017780656
  0
VERTEX
  8
0
 62
7
  6
CONTINUOUS
 10
-38.5856807315
 20
143.8975332858
  0
VERTEX
  8
0
 62
7
  6
CONTINUOUS
 10
-38.833323486
 20
143.8935992659
  0
VERTEX
  8
0
 62
7
  6
CONTINUOUS
 10
-39.0483736069
 20
143.8899266957
  0
VERTEX
  8
0
 62
7
  6
CONTINUOUS
 10
-39.2360571712
 20
143.8864774551
  0
VERTEX
  8
0
 62
7
  6
CONTINUOUS
 10
-39.4006703514
 20
143.8832167156
  0
VERTEX
  8
0
 62
7
  6
CONTINUOUS
 10
-39.5455993195
 20
143.880116689
  0
VERTEX
  8
0
 62
7
  6
CONTINUOUS
 10
-39.6737468592
 20
143.8771505113
  0
VERTEX
  8
0
 62
7
  6
CONTINUOUS
 10
-39.7875483809
 20
143.8742926671
  0
VERTEX
  8
0
 62
7
  6
CONTINUOUS
 10
-39.8890767054
 20
143.8715174542
  0
VERTEX
  8
0
 62
7
  6
CONTINUOUS
 10
-39.9802312771
 20
143.8687944149
  0
VERTEX
  8
0
 62
7
  6
CONTINUOUS
 10
-40.0626803115
 20
143.8660891733
  0
VERTEX
  8
0
 62
7
  6
CONTINUOUS
 10
-40.1380049604
 20
143.8633585177
  0
VERTEX
  8
0
 62
7
  6
CONTINUOUS
 10
-40.2078383459
 20
143.8605424908
  0
VERTEX
  8
0
 62
7
  6
CONTINUOUS
 10
-40.2739273037
 20
143.8575538929
  0
VERTEX
  8
0
 62
7
  6
CONTINUOUS
 10
-40.3383530114
 20
143.8542538474
  0
VERTEX
  8
0
 62
7
  6
CONTINUOUS
 10
-40.4038462861
 20
143.850405423
  0
VERTEX
  8
0
 62
7
  6
CONTINUOUS
 10
-40.474368201
 20
143.8455727381
  0
VERTEX
  8
0
 62
7
  6
CONTINUOUS
 10
-40.5562441815
 20
143.8388831495
  0
VERTEX
  8
0
 62
7
  6
CONTINUOUS
 10
-40.6609533712
 20
143.8283629507
  0
VERTEX
  8
0
 62
7
  6
CONTINUOUS
 10
-40.8134733665
 20
143.8086118593
  0
VERTEX
  8
0
 62
7
  6
CONTINUOUS
 10
-41.0667049303
 20
143.7631941152
  0
VERTEX
  8
0
 62
7
  6
CONTINUOUS
 10
-41.5109294249
 20
143.6423946337
  0
VERTEX
  8
0
 62
7
  6
CONTINUOUS
 10
-42.2074245574
 20
143.3333395682
  0
VERTEX
  8
0
 62
7
  6
CONTINUOUS
 10
-43.0529647243
 20
142.6967548457
  0
VERTEX
  8
0
 62
7
  6
CONTINUOUS
 10
-43.790187478
 20
141.701348484
  0
VERTEX
  8
0
 62
7
  6
CONTINUOUS
 10
-44.2024342939
 20
140.4361927062
  0
VERTEX
  8
0
 62
7
  6
CONTINUOUS
 10
-44.2428127717
 20
140.0093535491
  0
SEQEND
  0
POLYLINE
  8
0
 62
7
  6
CONTINUOUS
 66
1
 70
0
  0
VERTEX
  8
0
 62
7
  6
CONTINUOUS
 10
-37.0963821924
 20
143.917066593
  0
VERTEX
  8
0
 62
7
  6
CONTINUOUS
 10
-37.5678184621
 20
143.9114541714
  0
VERTEX
  8
0
 62
7
  6
CONTINUOUS
 10
-37.9631393712
 20
143.90639247
  0
SEQEND
  0
LINE
  8
0
 62
7
  6
CONTINUOUS
 10
299.8790493173
 20
143.7757820619
 11
295.1156062606
 21
143.7301472537
  0
POLYLINE
  8
0
 62
7
  6
CONTINUOUS
 66
1
 70
0
  0
VERTEX
  8
0
 62
7
  6
CONTINUOUS
 10
-28.4069850923
 20
143.988508227
  0
VERTEX
  8
0
 62
7
  6
CONTINUOUS
 10
-29.8541776798
 20
143.9786524018
  0
VERTEX
  8
0
 62
7
  6
CONTINUOUS
 10
-32.194495579
 20
143.9616728432
  0
VERTEX
  8
0
 62
7
  6
CONTINUOUS
 10
-33.7793714114
 20
143.9490373668
  0
VERTEX
  8
0
 62
7
  6
CONTINUOUS
 10
-34.9364476383
 20
143.9389583113
  0
VERTEX
  8
0
 62
7
  6
CONTINUOUS
 10
-35.8232881596
 20
143.9305657207
  0
VERTEX
  8
0
 62
7
  6
CONTINUOUS
 10
-36.5258646553
 20
143.9233699784
  0
VERTEX
  8
0
 62
7
  6
CONTINUOUS
 10
-37.0963821924
 20
143.917066593
  0
SEQEND
  0
LINE
  8
0
 62
7
  6
CONTINUOUS
 10
-28.379877589
 20
143.9885938558
 11
-16.3689357357
 21
144.0618494276
  0
LINE
  8
0
 62
7
  6
CONTINUOUS
 10
-16.3689356282
 20
144.0618494282
 11
-10.3881549943
 21
144.0953017408
  0
LINE
  8
0
 62
7
  6
CONTINUOUS
 10
295.1156062606
 20
143.7301472537
 11
291.6174409809
 21
143.7121979496
  0
LINE
  8
0
 62
7
  6
CONTINUOUS
 10
291.6174409809
 20
143.7121979496
 11
290.7305579237
 21
143.7083268901
  0
LINE
  8
0
 62
7
  6
CONTINUOUS
 10
291.6019378779
 20
143.7121677855
 11
290.7139890779
 21
143.7082973201
  0
POLYLINE
  8
0
 62
7
  6
CONTINUOUS
 66
1
 70
0
  0
VERTEX
  8
0
 62
7
  6
CONTINUOUS
 10
182.600432288
 20
143.5386456385
  0
VERTEX
  8
0
 62
7
  6
CONTINUOUS
 10
183.5104773682
 20
143.5425955814
  0
VERTEX
  8
0
 62
7
  6
CONTINUOUS
 10
184.417663175
 20
143.5464781666
  0
VERTEX
  8
0
 62
7
  6
CONTINUOUS
 10
185.3219790155
 20
143.5502666218
  0
VERTEX
  8
0
 62
7
  6
CONTINUOUS
 10
186.2234165032
 20
143.5539359026
  0
VERTEX
  8
0
 62
7
  6
CONTINUOUS
 10
187.1219667844
 20
143.5574617331
  0
VERTEX
  8
0
 62
7
  6
CONTINUOUS
 10
188.0176353734
 20
143.5608212876
  0
SEQEND
  0
POLYLINE
  8
0
 62
7
  6
CONTINUOUS
 66
1
 70
0
  0
VERTEX
  8
0
 62
7
  6
CONTINUOUS
 10
188.0176353734
 20
143.5608212876
  0
VERTEX
  8
0
 62
7
  6
CONTINUOUS
 10
189.182126307
 20
143.5649176044
  0
VERTEX
  8
0
 62
7
  6
CONTINUOUS
 10
190.0641696726
 20
143.5677858176
  0
VERTEX
  8
0
 62
7
  6
CONTINUOUS
 10
190.9432407977
 20
143.5704162297
  0
VERTEX
  8
0
 62
7
  6
CONTINUOUS
 10
191.8193067637
 20
143.5727856749
  0
VERTEX
  8
0
 62
7
  6
CONTINUOUS
 10
192.6922997167
 20
143.5748694319
  0
VERTEX
  8
0
 62
7
  6
CONTINUOUS
 10
193.5621390272
 20
143.5766396347
  0
VERTEX
  8
0
 62
7
  6
CONTINUOUS
 10
194.4287364533
 20
143.5780647997
  0
VERTEX
  8
0
 62
7
  6
CONTINUOUS
 10
195.2919922679
 20
143.5791093704
  0
VERTEX
  8
0
 62
7
  6
CONTINUOUS
 10
196.1521166059
 20
143.5797314826
  0
SEQEND
  0
LINE
  8
0
 62
7
  6
CONTINUOUS
 10
-0.4748270165
 20
143.6753775187
 11
-0.5411711756
 21
143.6751925979
  0
LINE
  8
0
 62
7
  6
CONTINUOUS
 10
290.7305579237
 20
143.7083268901
 11
262.2635960717
 21
143.6365019029
  0
LINE
  8
0
 62
7
  6
CONTINUOUS
 10
262.2635960717
 20
143.6365019029
 11
260.5299945529
 21
143.6338537107
  0
LINE
  8
0
 62
7
  6
CONTINUOUS
 10
260.5299945529
 20
143.6338537107
 11
254.5476706833
 21
143.6255327225
  0
LINE
  8
0
 62
7
  6
CONTINUOUS
 10
196.1520013307
 20
143.5797318671
 11
260.7259181765
 21
143.6421171535
  0
LINE
  8
0
 62
7
  6
CONTINUOUS
 10
254.5476706833
 20
143.6255327225
 11
196.1521319183
 21
143.5797314887
  0
POLYLINE
  8
0
 62
7
  6
CONTINUOUS
 66
1
 70
0
  0
VERTEX
  8
0
 62
7
  6
CONTINUOUS
 10
137.0995441414
 20
143.4868385815
  0
VERTEX
  8
0
 62
7
  6
CONTINUOUS
 10
137.4396764175
 20
143.4870498253
  0
VERTEX
  8
0
 62
7
  6
CONTINUOUS
 10
138.4067531842
 20
143.4876292644
  0
VERTEX
  8
0
 62
7
  6
CONTINUOUS
 10
139.3731320633
 20
143.4881680444
  0
VERTEX
  8
0
 62
7
  6
CONTINUOUS
 10
140.338795443
 20
143.4886550062
  0
VERTEX
  8
0
 62
7
  6
CONTINUOUS
 10
141.3037244507
 20
143.4890791934
  0
VERTEX
  8
0
 62
7
  6
CONTINUOUS
 10
142.2679362272
 20
143.4894307715
  0
VERTEX
  8
0
 62
7
  6
CONTINUOUS
 10
143.2314546694
 20
143.4897042861
  0
VERTEX
  8
0
 62
7
  6
CONTINUOUS
 10
144.1942818193
 20
143.489895354
  0
VERTEX
  8
0
 62
7
  6
CONTINUOUS
 10
145.156410108
 20
143.4899996354
  0
VERTEX
  8
0
 62
7
  6
CONTINUOUS
 10
146.1178499254
 20
143.4900138654
  0
VERTEX
  8
0
 62
7
  6
CONTINUOUS
 10
147.078619297
 20
143.4899394521
  0
VERTEX
  8
0
 62
7
  6
CONTINUOUS
 10
148.0387263946
 20
143.4897785211
  0
VERTEX
  8
0
 62
7
  6
CONTINUOUS
 10
148.9981883213
 20
143.4895354683
  0
VERTEX
  8
0
 62
7
  6
CONTINUOUS
 10
149.9570128754
 20
143.4892165785
  0
VERTEX
  8
0
 62
7
  6
CONTINUOUS
 10
150.915220052
 20
143.4888294065
  0
VERTEX
  8
0
 62
7
  6
CONTINUOUS
 10
151.8728316523
 20
143.4883860671
  0
VERTEX
  8
0
 62
7
  6
CONTINUOUS
 10
152.829861719
 20
143.4878995007
  0
VERTEX
  8
0
 62
7
  6
CONTINUOUS
 10
153.7863189482
 20
143.4873828864
  0
VERTEX
  8
0
 62
7
  6
CONTINUOUS
 10
155.6975940338
 20
143.4863235636
  0
SEQEND
  0
LINE
  8
0
 62
7
  6
CONTINUOUS
 10
137.0916394541
 20
143.5151850449
 11
136.9211152737
 21
143.5151142446
  0
POLYLINE
  8
0
 62
7
  6
CONTINUOUS
 66
1
 70
0
  0
VERTEX
  8
0
 62
7
  6
CONTINUOUS
 10
107.0560868631
 20
143.5217264447
  0
VERTEX
  8
0
 62
7
  6
CONTINUOUS
 10
105.1506015359
 20
143.5214934648
  0
VERTEX
  8
0
 62
7
  6
CONTINUOUS
 10
104.1988416079
 20
143.5213849436
  0
VERTEX
  8
0
 62
7
  6
CONTINUOUS
 10
103.2478120962
 20
143.5212995575
  0
VERTEX
  8
0
 62
7
  6
CONTINUOUS
 10
102.2975807011
 20
143.5212527289
  0
VERTEX
  8
0
 62
7
  6
CONTINUOUS
 10
101.3481469472
 20
143.5212603665
  0
VERTEX
  8
0
 62
7
  6
CONTINUOUS
 10
100.3995105567
 20
143.5213385434
  0
VERTEX
  8
0
 62
7
  6
CONTINUOUS
 10
99.4516715262
 20
143.5215035063
  0
VERTEX
  8
0
 62
7
  6
CONTINUOUS
 10
98.5046301338
 20
143.5217718099
  0
VERTEX
  8
0
 62
7
  6
CONTINUOUS
 10
97.5583872855
 20
143.5221585136
  0
VERTEX
  8
0
 62
7
  6
CONTINUOUS
 10
96.612943564
 20
143.5226774503
  0
VERTEX
  8
0
 62
7
  6
CONTINUOUS
 10
95.6682991142
 20
143.52334184
  0
VERTEX
  8
0
 62
7
  6
CONTINUOUS
 10
94.7244541876
 20
143.524164317
  0
VERTEX
  8
0
 62
7
  6
CONTINUOUS
 10
93.7814098912
 20
143.5251542101
  0
VERTEX
  8
0
 62
7
  6
CONTINUOUS
 10
92.8391684388
 20
143.5263179728
  0
VERTEX
  8
0
 62
7
  6
CONTINUOUS
 10
91.8977329542
 20
143.5276611878
  0
VERTEX
  8
0
 62
7
  6
CONTINUOUS
 10
90.9571075123
 20
143.5291883396
  0
VERTEX
  8
0
 62
7
  6
CONTINUOUS
 10
90.0172977047
 20
143.5308999038
  0
VERTEX
  8
0
 62
7
  6
CONTINUOUS
 10
89.0783106508
 20
143.5327933322
  0
VERTEX
  8
0
 62
7
  6
CONTINUOUS
 10
88.1401548434
 20
143.5348642875
  0
VERTEX
  8
0
 62
7
  6
CONTINUOUS
 10
87.2028404441
 20
143.5371048869
  0
SEQEND
  0
POLYLINE
  8
0
 62
7
  6
CONTINUOUS
 66
1
 70
0
  0
VERTEX
  8
0
 62
7
  6
CONTINUOUS
 10
158.8330425968
 20
143.4848671226
  0
VERTEX
  8
0
 62
7
  6
CONTINUOUS
 10
159.7862293879
 20
143.4845886714
  0
VERTEX
  8
0
 62
7
  6
CONTINUOUS
 10
160.7383724018
 20
143.4844264165
  0
VERTEX
  8
0
 62
7
  6
CONTINUOUS
 10
161.689462717
 20
143.484402518
  0
VERTEX
  8
0
 62
7
  6
CONTINUOUS
 10
162.6394925356
 20
143.4845391416
  0
VERTEX
  8
0
 62
7
  6
CONTINUOUS
 10
163.588465949
 20
143.4848563742
  0
VERTEX
  8
0
 62
7
  6
CONTINUOUS
 10
164.5363876379
 20
143.4853709977
  0
VERTEX
  8
0
 62
7
  6
CONTINUOUS
 10
165.4832574433
 20
143.4860991962
  0
VERTEX
  8
0
 62
7
  6
CONTINUOUS
 10
166.4290706262
 20
143.4870565732
  0
VERTEX
  8
0
 62
7
  6
CONTINUOUS
 10
167.3738176897
 20
143.4882561094
  0
VERTEX
  8
0
 62
7
  6
CONTINUOUS
 10
168.3174831856
 20
143.4897047864
  0
VERTEX
  8
0
 62
7
  6
CONTINUOUS
 10
169.2600471562
 20
143.4914078494
  0
VERTEX
  8
0
 62
7
  6
CONTINUOUS
 10
170.2014866036
 20
143.4933694735
  0
VERTEX
  8
0
 62
7
  6
CONTINUOUS
 10
171.1417758557
 20
143.495590821
  0
VERTEX
  8
0
 62
7
  6
CONTINUOUS
 10
172.0808864248
 20
143.4980668439
  0
VERTEX
  8
0
 62
7
  6
CONTINUOUS
 10
173.018787176
 20
143.5007907535
  0
VERTEX
  8
0
 62
7
  6
CONTINUOUS
 10
173.9554447922
 20
143.5037507144
  0
VERTEX
  8
0
 62
7
  6
CONTINUOUS
 10
174.2860512706
 20
143.5048500461
  0
VERTEX
  8
0
 62
7
  6
CONTINUOUS
 10
175.2203148627
 20
143.5081019015
  0
VERTEX
  8
0
 62
7
  6
CONTINUOUS
 10
176.1521164071
 20
143.5115424916
  0
VERTEX
  8
0
 62
7
  6
CONTINUOUS
 10
177.081386147
 20
143.5151477233
  0
VERTEX
  8
0
 62
7
  6
CONTINUOUS
 10
178.008049203
 20
143.5188907192
  0
VERTEX
  8
0
 62
7
  6
CONTINUOUS
 10
178.9320453472
 20
143.5227429818
  0
VERTEX
  8
0
 62
7
  6
CONTINUOUS
 10
179.8533198265
 20
143.5266748236
  0
VERTEX
  8
0
 62
7
  6
CONTINUOUS
 10
180.7718302104
 20
143.5306558869
  0
VERTEX
  8
0
 62
7
  6
CONTINUOUS
 10
182.600432288
 20
143.5386456385
  0
SEQEND
  0
POLYLINE
  8
0
 62
7
  6
CONTINUOUS
 66
1
 70
0
  0
VERTEX
  8
0
 62
7
  6
CONTINUOUS
 10
155.6975940338
 20
143.4863235636
  0
VERTEX
  8
0
 62
7
  6
CONTINUOUS
 10
156.6524057759
 20
143.4858197486
  0
VERTEX
  8
0
 62
7
  6
CONTINUOUS
 10
157.6065338733
 20
143.485359992
  0
VERTEX
  8
0
 62
7
  6
CONTINUOUS
 10
158.8330425968
 20
143.4848671226
  0
SEQEND
  0
POLYLINE
  8
0
 62
7
  6
CONTINUOUS
 66
1
 70
0
  0
VERTEX
  8
0
 62
7
  6
CONTINUOUS
 10
123.0916442162
 20
143.5169623492
  0
VERTEX
  8
0
 62
7
  6
CONTINUOUS
 10
122.4096880434
 20
143.5174312267
  0
VERTEX
  8
0
 62
7
  6
CONTINUOUS
 10
121.4438585639
 20
143.5180756634
  0
VERTEX
  8
0
 62
7
  6
CONTINUOUS
 10
120.4789044951
 20
143.5186884169
  0
VERTEX
  8
0
 62
7
  6
CONTINUOUS
 10
119.5148093619
 20
143.5192611059
  0
VERTEX
  8
0
 62
7
  6
CONTINUOUS
 10
118.5515529076
 20
143.5197878539
  0
VERTEX
  8
0
 62
7
  6
CONTINUOUS
 10
117.5891382505
 20
143.5202635343
  0
VERTEX
  8
0
 62
7
  6
CONTINUOUS
 10
116.6275763066
 20
143.5206831543
  0
VERTEX
  8
0
 62
7
  6
CONTINUOUS
 10
115.6668572154
 20
143.5210425255
  0
VERTEX
  8
0
 62
7
  6
CONTINUOUS
 10
114.7069646786
 20
143.5213403913
  0
VERTEX
  8
0
 62
7
  6
CONTINUOUS
 10
113.7478923839
 20
143.5215759727
  0
VERTEX
  8
0
 62
7
  6
CONTINUOUS
 10
112.789623613
 20
143.5217501036
  0
VERTEX
  8
0
 62
7
  6
CONTINUOUS
 10
111.8321488125
 20
143.5218649577
  0
VERTEX
  8
0
 62
7
  6
CONTINUOUS
 10
110.8754493517
 20
143.521924037
  0
VERTEX
  8
0
 62
7
  6
CONTINUOUS
 10
109.9195112726
 20
143.5219326135
  0
VERTEX
  8
0
 62
7
  6
CONTINUOUS
 10
108.964316479
 20
143.5218970134
  0
VERTEX
  8
0
 62
7
  6
CONTINUOUS
 10
108.0098468153
 20
143.5218252901
  0
VERTEX
  8
0
 62
7
  6
CONTINUOUS
 10
107.0560868631
 20
143.5217264447
  0
SEQEND
  0
LINE
  8
0
 62
7
  6
CONTINUOUS
 10
123.083728495
 20
143.4886052705
 11
123.1717839256
 21
143.4885296142
  0
LINE
  8
0
 62
7
  6
CONTINUOUS
 10
64.0311681261
 20
143.5964574946
 11
5.6336492028
 21
143.6570442445
  0
LINE
  8
0
 62
7
  6
CONTINUOUS
 10
-0.5411711756
 20
143.6751925979
 11
64.031376621
 21
143.596458046
  0
LINE
  8
0
 62
7
  6
CONTINUOUS
 10
5.6336492028
 20
143.6570442445
 11
-1.2168497083
 21
143.6684148602
  0
LINE
  8
0
 62
7
  6
CONTINUOUS
 10
-1.2168497083
 20
143.6684148602
 11
-2.3174189552
 21
143.670398107
  0
POLYLINE
  8
0
 62
7
  6
CONTINUOUS
 66
1
 70
0
  0
VERTEX
  8
0
 62
7
  6
CONTINUOUS
 10
70.1430638669
 20
143.5871284014
  0
VERTEX
  8
0
 62
7
  6
CONTINUOUS
 10
69.2614927311
 20
143.5890158539
  0
VERTEX
  8
0
 62
7
  6
CONTINUOUS
 10
68.3826615326
 20
143.5907359195
  0
VERTEX
  8
0
 62
7
  6
CONTINUOUS
 10
67.5066186328
 20
143.5922787764
  0
VERTEX
  8
0
 62
7
  6
CONTINUOUS
 10
66.6334114801
 20
143.593634036
  0
VERTEX
  8
0
 62
7
  6
CONTINUOUS
 10
65.7630961605
 20
143.5947907728
  0
VERTEX
  8
0
 62
7
  6
CONTINUOUS
 10
64.8957435986
 20
143.5957367095
  0
VERTEX
  8
0
 62
7
  6
CONTINUOUS
 10
64.031376621
 20
143.596458046
  0
SEQEND
  0
POLYLINE
  8
0
 62
7
  6
CONTINUOUS
 66
1
 70
0
  0
VERTEX
  8
0
 62
7
  6
CONTINUOUS
 10
87.2028404441
 20
143.5371048869
  0
VERTEX
  8
0
 62
7
  6
CONTINUOUS
 10
85.9358492094
 20
143.5403882085
  0
VERTEX
  8
0
 62
7
  6
CONTINUOUS
 10
85.001703464
 20
143.5429781004
  0
VERTEX
  8
0
 62
7
  6
CONTINUOUS
 10
84.0699457994
 20
143.5456863155
  0
VERTEX
  8
0
 62
7
  6
CONTINUOUS
 10
83.14063931
 20
143.5484927036
  0
VERTEX
  8
0
 62
7
  6
CONTINUOUS
 10
82.2138475426
 20
143.5513762967
  0
SEQEND
  0
LINE
  8
0
 62
7
  6
CONTINUOUS
 10
260.7259181765
 20
143.6421171535
 11
260.6581450604
 21
143.6423190891
  0
LINE
  8
0
 62
7
  6
CONTINUOUS
 10
-2.3174189552
 20
143.670398107
 11
-35.2103383238
 21
143.7736834991
  0
POLYLINE
  8
0
 62
7
  6
CONTINUOUS
 66
1
 70
0
  0
VERTEX
  8
0
 62
7
  6
CONTINUOUS
 10
82.2138475426
 20
143.5513762967
  0
VERTEX
  8
0
 62
7
  6
CONTINUOUS
 10
80.368018581
 20
143.5572864329
  0
VERTEX
  8
0
 62
7
  6
CONTINUOUS
 10
79.4490603347
 20
143.5602684542
  0
VERTEX
  8
0
 62
7
  6
CONTINUOUS
 10
78.5327768779
 20
143.5632394771
  0
VERTEX
  8
0
 62
7
  6
CONTINUOUS
 10
77.6191847878
 20
143.5661788965
  0
VERTEX
  8
0
 62
7
  6
CONTINUOUS
 10
76.7082956813
 20
143.5690673066
  0
VERTEX
  8
0
 62
7
  6
CONTINUOUS
 10
75.8001122908
 20
143.5718866951
  0
VERTEX
  8
0
 62
7
  6
CONTINUOUS
 10
74.8946358047
 20
143.5746206658
  0
VERTEX
  8
0
 62
7
  6
CONTINUOUS
 10
73.9918620502
 20
143.5772541632
  0
VERTEX
  8
0
 62
7
  6
CONTINUOUS
 10
73.0917867781
 20
143.5797738482
  0
VERTEX
  8
0
 62
7
  6
CONTINUOUS
 10
72.1943918908
 20
143.5821673976
  0
VERTEX
  8
0
 62
7
  6
CONTINUOUS
 10
71.2996319336
 20
143.5844237584
  0
VERTEX
  8
0
 62
7
  6
CONTINUOUS
 10
70.1430638669
 20
143.5871284014
  0
SEQEND
  0
LINE
  8
0
 62
7
  6
CONTINUOUS
 10
270.5697023007
 20
144.0597447002
 11
276.5531081324
 21
144.0247668347
  0
LINE
  8
0
 62
7
  6
CONTINUOUS
 10
276.5531081323
 20
144.0247668347
 11
277.2785036359
 21
144.020466937
  0
LINE
  8
0
 62
7
  6
CONTINUOUS
 10
283.5200991358
 20
143.9819406233
 11
277.3005420999
 21
144.0203998642
  0
LINE
  8
0
 62
7
  6
CONTINUOUS
 10
277.2785036359
 20
144.020466937
 11
283.4956444213
 21
143.982018807
  0
LINE
  8
0
 62
7
  6
CONTINUOUS
 10
283.4956444213
 20
143.982018807
 11
284.4446436841
 21
143.9759182308
  0
LINE
  8
0
 62
7
  6
CONTINUOUS
 10
284.4446436841
 20
143.9759182308
 11
284.8691592681
 21
143.9731698835
  0
LINE
  8
0
 62
7
  6
CONTINUOUS
 10
284.8942018286
 20
143.9730886339
 11
284.4696039295
 21
143.9758379575
  0
LINE
  8
0
 62
7
  6
CONTINUOUS
 10
284.8691592681
 20
143.9731698835
 11
289.4756238021
 21
143.9420739311
  0
LINE
  8
0
 62
7
  6
CONTINUOUS
 10
289.4756238021
 20
143.9420739311
 11
292.3643217968
 21
143.9205680611
  0
POLYLINE
  8
0
 62
7
  6
CONTINUOUS
 66
1
 70
0
  0
VERTEX
  8
0
 62
7
  6
CONTINUOUS
 10
292.8651618154
 20
143.9166935879
  0
VERTEX
  8
0
 62
7
  6
CONTINUOUS
 10
290.5780516503
 20
143.9342260965
  0
VERTEX
  8
0
 62
7
  6
CONTINUOUS
 10
289.5032553678
 20
143.9419768667
  0
SEQEND
  0
LINE
  8
0
 62
7
  6
CONTINUOUS
 10
292.4752102586
 20
143.9196905306
 11
293.1284273233
 21
143.9144208981
  0
LINE
  8
0
 62
7
  6
CONTINUOUS
 10
293.1284273233
 20
143.9144208981
 11
293.5699502551
 21
143.9107512549
  0
LINE
  8
0
 62
7
  6
CONTINUOUS
 10
294.3970955798
 20
143.9037506839
 11
292.8651618154
 21
143.9166935879
  0
LINE
  8
0
 62
7
  6
CONTINUOUS
 10
-35.2103383238
 20
143.7736834991
 11
-39.6957966027
 21
143.8187704921
  0
POLYLINE
  8
0
 62
7
  6
CONTINUOUS
 66
1
 70
0
  0
VERTEX
  8
0
 62
7
  6
CONTINUOUS
 10
123.1793640142
 20
143.4897131187
  0
VERTEX
  8
0
 62
7
  6
CONTINUOUS
 10
123.5723828731
 20
143.4853882174
  0
VERTEX
  8
0
 62
7
  6
CONTINUOUS
 10
124.4386899805
 20
143.4764942106
  0
VERTEX
  8
0
 62
7
  6
CONTINUOUS
 10
125.3065937815
 20
143.4685838641
  0
VERTEX
  8
0
 62
7
  6
CONTINUOUS
 10
126.1759746541
 20
143.4617851648
  0
VERTEX
  8
0
 62
7
  6
CONTINUOUS
 10
127.046714929
 20
143.4562022466
  0
VERTEX
  8
0
 62
7
  6
CONTINUOUS
 10
127.3915237695
 20
143.4543481569
  0
VERTEX
  8
0
 62
7
  6
CONTINUOUS
 10
128.2713287999
 20
143.4505695738
  0
VERTEX
  8
0
 62
7
  6
CONTINUOUS
 10
129.1516378066
 20
143.4481959325
  0
VERTEX
  8
0
 62
7
  6
CONTINUOUS
 10
130.0323556621
 20
143.4472609778
  0
VERTEX
  8
0
 62
7
  6
CONTINUOUS
 10
130.9133886857
 20
143.4477787715
  0
VERTEX
  8
0
 62
7
  6
CONTINUOUS
 10
131.4018779135
 20
143.4486894582
  0
VERTEX
  8
0
 62
7
  6
CONTINUOUS
 10
132.2830285834
 20
143.4514407512
  0
VERTEX
  8
0
 62
7
  6
CONTINUOUS
 10
133.1632400775
 20
143.455578066
  0
VERTEX
  8
0
 62
7
  6
CONTINUOUS
 10
134.0422412182
 20
143.4610366481
  0
VERTEX
  8
0
 62
7
  6
CONTINUOUS
 10
134.9197475703
 20
143.4677298449
  0
VERTEX
  8
0
 62
7
  6
CONTINUOUS
 10
135.1828969015
 20
143.4699647279
  0
VERTEX
  8
0
 62
7
  6
CONTINUOUS
 10
136.0535501716
 20
143.4780503931
  0
VERTEX
  8
0
 62
7
  6
CONTINUOUS
 10
136.9213446758
 20
143.4870617825
  0
SEQEND
  0
POLYLINE
  8
0
 62
7
  6
CONTINUOUS
 66
1
 70
0
  0
VERTEX
  8
0
 62
7
  6
CONTINUOUS
 10
297.0236209638
 20
143.8776894896
  0
VERTEX
  8
0
 62
7
  6
CONTINUOUS
 10
296.3552929077
 20
143.8849672755
  0
VERTEX
  8
0
 62
7
  6
CONTINUOUS
 10
295.5083476911
 20
143.893482525
  0
VERTEX
  8
0
 62
7
  6
CONTINUOUS
 10
294.3970955798
 20
143.9037506839
  0
SEQEND
  0
POLYLINE
  8
0
 62
7
  6
CONTINUOUS
 66
1
 70
0
  0
VERTEX
  8
0
 62
7
  6
CONTINUOUS
 10
298.0089303039
 20
143.8656805854
  0
VERTEX
  8
0
 62
7
  6
CONTINUOUS
 10
297.5639613672
 20
143.8713303042
  0
VERTEX
  8
0
 62
7
  6
CONTINUOUS
 10
297.0236209638
 20
143.8776894896
  0
SEQEND
  0
LINE
  8
0
 62
7
  6
CONTINUOUS
 10
293.5699502551
 20
143.9107512549
 11
299.8790493173
 21
143.7757820619
  0
POLYLINE
  8
0
 62
7
  6
CONTINUOUS
 66
1
 70
0
  0
VERTEX
  8
0
 62
7
  6
CONTINUOUS
 10
-18.2986131507
 20
144.468151502
  0
VERTEX
  8
0
 62
7
  6
CONTINUOUS
 10
-5.67618772
 20
143.8732089317
  0
VERTEX
  8
0
 62
7
  6
CONTINUOUS
 10
-0.541169638
 20
143.6751925978
  0
SEQEND
  0
LINE
  8
0
 62
7
  6
CONTINUOUS
 10
-26.7974922558
 20
145.0495336695
 11
-18.2986131507
 21
144.468151502
  0
LINE
  8
0
 62
7
  6
CONTINUOUS
 10
123.0980178103
 20
193.888561843
 11
123.0960523646
 21
193.8897393073
  0
POLYLINE
  8
0
 62
7
  6
CONTINUOUS
 66
1
 70
0
  0
VERTEX
  8
0
 62
7
  6
CONTINUOUS
 10
-34.637243657
 20
191.4800239392
  0
VERTEX
  8
0
 62
7
  6
CONTINUOUS
 10
-35.3376057802
 20
191.3693288394
  0
VERTEX
  8
0
 62
7
  6
CONTINUOUS
 10
-36.1516088064
 20
191.2221101973
  0
VERTEX
  8
0
 62
7
  6
CONTINUOUS
 10
-36.8896493338
 20
191.0641146996
  0
VERTEX
  8
0
 62
7
  6
CONTINUOUS
 10
-37.5820584372
 20
190.8843806014
  0
VERTEX
  8
0
 62
7
  6
CONTINUOUS
 10
-38.2754010659
 20
190.6584798275
  0
VERTEX
  8
0
 62
7
  6
CONTINUOUS
 10
-39.0352908994
 20
190.3313704906
  0
VERTEX
  8
0
 62
7
  6
CONTINUOUS
 10
-39.9708919158
 20
189.7556554866
  0
VERTEX
  8
0
 62
7
  6
CONTINUOUS
 10
-41.1117599763
 20
188.6011555669
  0
VERTEX
  8
0
 62
7
  6
CONTINUOUS
 10
-42.0144702402
 20
186.5281736988
  0
VERTEX
  8
0
 62
7
  6
CONTINUOUS
 10
-42.1088425385
 20
185.5820637074
  0
SEQEND
  0
LINE
  8
0
 62
7
  6
CONTINUOUS
 10
-34.6382362309
 20
191.4798754827
 11
-34.6372425177
 21
191.4800241096
  0
POLYLINE
  8
0
 62
7
  6
CONTINUOUS
 66
1
 70
0
  0
VERTEX
  8
0
 62
7
  6
CONTINUOUS
 10
-3.8640876027
 20
194.5652940374
  0
VERTEX
  8
0
 62
7
  6
CONTINUOUS
 10
-15.9423556951
 20
193.5867473382
  0
VERTEX
  8
0
 62
7
  6
CONTINUOUS
 10
-26.3907992461
 20
192.5426938293
  0
VERTEX
  8
0
 62
7
  6
CONTINUOUS
 10
-34.6382362309
 20
191.4798754827
  0
SEQEND
  0
LINE
  8
0
 62
7
  6
CONTINUOUS
 10
251.8594598222
 20
194.660334425
 11
137.099983526
 21
193.8879535368
  0
LINE
  8
0
 62
7
  6
CONTINUOUS
 10
137.1000258918
 20
193.8879668799
 11
136.9727005056
 21
193.8871183331
  0
POLYLINE
  8
0
 62
7
  6
CONTINUOUS
 66
1
 70
0
  0
VERTEX
  8
0
 62
7
  6
CONTINUOUS
 10
136.9727007148
 20
193.8871183345
  0
VERTEX
  8
0
 62
7
  6
CONTINUOUS
 10
132.7712446214
 20
193.8680352626
  0
VERTEX
  8
0
 62
7
  6
CONTINUOUS
 10
127.3097410331
 20
193.8690341165
  0
VERTEX
  8
0
 62
7
  6
CONTINUOUS
 10
123.2233349486
 20
193.8888589508
  0
SEQEND
  0
POLYLINE
  8
0
 62
7
  6
CONTINUOUS
 66
1
 70
0
  0
VERTEX
  8
0
 62
7
  6
CONTINUOUS
 10
8.3367790845
 20
194.6911634288
  0
VERTEX
  8
0
 62
7
  6
CONTINUOUS
 10
5.823037842
 20
194.7032030904
  0
VERTEX
  8
0
 62
7
  6
CONTINUOUS
 10
2.3480940216
 20
194.6998476014
  0
VERTEX
  8
0
 62
7
  6
CONTINUOUS
 10
-0.6194144087
 20
194.6712765368
  0
VERTEX
  8
0
 62
7
  6
CONTINUOUS
 10
-2.8110703086
 20
194.6189952209
  0
VERTEX
  8
0
 62
7
  6
CONTINUOUS
 10
-3.9138035178
 20
194.5613556748
  0
SEQEND
  0
LINE
  8
0
 62
7
  6
CONTINUOUS
 10
123.0960522785
 20
193.8897263806
 11
8.3367752203
 21
194.6911634602
  0
LINE
  8
0
 62
7
  6
CONTINUOUS
 10
123.223334949
 20
193.8888589508
 11
123.0960099165
 21
193.8897397344
  0
POLYLINE
  8
0
 62
7
  6
CONTINUOUS
 66
1
 70
0
  0
VERTEX
  8
0
 62
7
  6
CONTINUOUS
 10
264.1069352582
 20
194.5276843502
  0
VERTEX
  8
0
 62
7
  6
CONTINUOUS
 10
263.1732305558
 20
194.5790005366
  0
VERTEX
  8
0
 62
7
  6
CONTINUOUS
 10
261.0796382542
 20
194.6338060275
  0
VERTEX
  8
0
 62
7
  6
CONTINUOUS
 10
258.102219241
 20
194.6661071904
  0
VERTEX
  8
0
 62
7
  6
CONTINUOUS
 10
254.5332140682
 20
194.6720816421
  0
VERTEX
  8
0
 62
7
  6
CONTINUOUS
 10
251.8594551258
 20
194.6603343869
  0
SEQEND
  0
LINE
  8
0
 62
7
  6
CONTINUOUS
 10
264.1069352582
 20
194.5276843502
 11
264.0603020249
 21
194.5313749791
  0
LINE
  8
0
 62
7
  6
CONTINUOUS
 10
276.163254491
 20
193.5475334657
 11
264.0603020249
 21
194.5313749791
  0
POLYLINE
  8
0
 62
7
  6
CONTINUOUS
 66
1
 70
0
  0
VERTEX
  8
0
 62
7
  6
CONTINUOUS
 10
294.833700382
 20
191.4381590772
  0
VERTEX
  8
0
 62
7
  6
CONTINUOUS
 10
286.6068894824
 20
192.5007647078
  0
VERTEX
  8
0
 62
7
  6
CONTINUOUS
 10
276.163254491
 20
193.5475334657
  0
SEQEND
  0
LINE
  8
0
 62
7
  6
CONTINUOUS
 10
294.8326880107
 20
191.4383107641
 11
294.833700382
 21
191.4381590772
  0
POLYLINE
  8
0
 62
7
  6
CONTINUOUS
 66
1
 70
0
  0
VERTEX
  8
0
 62
7
  6
CONTINUOUS
 10
238.7750803191
 20
-72.1371278565
  0
VERTEX
  8
0
 62
7
  6
CONTINUOUS
 10
238.5378105581
 20
-69.533324081
  0
VERTEX
  8
0
 62
7
  6
CONTINUOUS
 10
237.914127827
 20
-61.0033423679
  0
VERTEX
  8
0
 62
7
  6
CONTINUOUS
 10
237.4384538011
 20
-51.6238589127
  0
VERTEX
  8
0
 62
7
  6
CONTINUOUS
 10
236.9233728093
 20
-41.9821792372
  0
VERTEX
  8
0
 62
7
  6
CONTINUOUS
 10
236.6589451717
 20
-38.5213692884
  0
SEQEND
  0
POLYLINE
  8
0
 62
7
  6
CONTINUOUS
 66
1
 70
0
  0
VERTEX
  8
0
 62
7
  6
CONTINUOUS
 10
249.2687248135
 20
-247.7002604051
  0
VERTEX
  8
0
 62
7
  6
CONTINUOUS
 10
248.3147745587
 20
-236.2516363635
  0
VERTEX
  8
0
 62
7
  6
CONTINUOUS
 10
247.4289578709
 20
-223.951423486
  0
VERTEX
  8
0
 62
7
  6
CONTINUOUS
 10
246.6590270008
 20
-212.0717109444
  0
VERTEX
  8
0
 62
7
  6
CONTINUOUS
 10
245.8649182807
 20
-199.5663074883
  0
VERTEX
  8
0
 62
7
  6
CONTINUOUS
 10
245.0225572451
 20
-186.6559542984
  0
VERTEX
  8
0
 62
7
  6
CONTINUOUS
 10
244.184798106
 20
-173.6791798647
  0
VERTEX
  8
0
 62
7
  6
CONTINUOUS
 10
243.3814382749
 20
-160.0576017643
  0
VERTEX
  8
0
 62
7
  6
CONTINUOUS
 10
242.6371051705
 20
-145.0655966425
  0
VERTEX
  8
0
 62
7
  6
CONTINUOUS
 10
242.0088812955
 20
-129.2952811754
  0
VERTEX
  8
0
 62
7
  6
CONTINUOUS
 10
241.479399538
 20
-114.5920996861
  0
VERTEX
  8
0
 62
7
  6
CONTINUOUS
 10
240.9633217967
 20
-102.3655918949
  0
VERTEX
  8
0
 62
7
  6
CONTINUOUS
 10
240.3939471661
 20
-92.2571997469
  0
VERTEX
  8
0
 62
7
  6
CONTINUOUS
 10
239.721945433
 20
-82.9394285729
  0
VERTEX
  8
0
 62
7
  6
CONTINUOUS
 10
238.7757875207
 20
-72.1440395393
  0
SEQEND
  0
LINE
  8
0
 62
7
  6
CONTINUOUS
 10
236.6593510101
 20
-38.5208665343
 11
236.6589820807
 21
-38.5161044709
  0
POLYLINE
  8
0
 62
7
  6
CONTINUOUS
 66
1
 70
0
  0
VERTEX
  8
0
 62
7
  6
CONTINUOUS
 10
236.6589282082
 20
-38.5154739469
  0
VERTEX
  8
0
 62
7
  6
CONTINUOUS
 10
236.7606783639
 20
-35.7160309897
  0
VERTEX
  8
0
 62
7
  6
CONTINUOUS
 10
237.4892117126
 20
-33.1326032172
  0
VERTEX
  8
0
 62
7
  6
CONTINUOUS
 10
238.605953111
 20
-31.0647335434
  0
VERTEX
  8
0
 62
7
  6
CONTINUOUS
 10
240.0093740826
 20
-29.3867771935
  0
SEQEND
  0
POLYLINE
  8
0
 62
7
  6
CONTINUOUS
 66
1
 70
0
  0
VERTEX
  8
0
 62
7
  6
CONTINUOUS
 10
315.5575235763
 20
509.5822869779
  0
VERTEX
  8
0
 62
7
  6
CONTINUOUS
 10
315.5649964946
 20
509.6617316975
  0
VERTEX
  8
0
 62
7
  6
CONTINUOUS
 10
315.5813645298
 20
509.8430253294
  0
VERTEX
  8
0
 62
7
  6
CONTINUOUS
 10
315.5967824845
 20
510.024339843
  0
VERTEX
  8
0
 62
7
  6
CONTINUOUS
 10
315.6112512254
 20
510.2056740377
  0
VERTEX
  8
0
 62
7
  6
CONTINUOUS
 10
315.6247715654
 20
510.3870267125
  0
VERTEX
  8
0
 62
7
  6
CONTINUOUS
 10
315.6373442635
 20
510.568396666
  0
VERTEX
  8
0
 62
7
  6
CONTINUOUS
 10
315.6489700258
 20
510.7497826958
  0
VERTEX
  8
0
 62
7
  6
CONTINUOUS
 10
315.6596495055
 20
510.931183599
  0
VERTEX
  8
0
 62
7
  6
CONTINUOUS
 10
315.669383303
 20
511.1125981721
  0
VERTEX
  8
0
 62
7
  6
CONTINUOUS
 10
315.6781719665
 20
511.2940252104
  0
VERTEX
  8
0
 62
7
  6
CONTINUOUS
 10
315.686015992
 20
511.4754635083
  0
VERTEX
  8
0
 62
7
  6
CONTINUOUS
 10
315.6929158237
 20
511.6569118593
  0
VERTEX
  8
0
 62
7
  6
CONTINUOUS
 10
315.698871854
 20
511.8383690558
  0
VERTEX
  8
0
 62
7
  6
CONTINUOUS
 10
315.703884424
 20
512.0198338888
  0
VERTEX
  8
0
 62
7
  6
CONTINUOUS
 10
315.7079538233
 20
512.2013051482
  0
VERTEX
  8
0
 62
7
  6
CONTINUOUS
 10
315.7110802906
 20
512.3827816223
  0
VERTEX
  8
0
 62
7
  6
CONTINUOUS
 10
315.7132640132
 20
512.5642620981
  0
VERTEX
  8
0
 62
7
  6
CONTINUOUS
 10
315.7145051278
 20
512.7457453612
  0
VERTEX
  8
0
 62
7
  6
CONTINUOUS
 10
315.71480372
 20
512.9272301952
  0
VERTEX
  8
0
 62
7
  6
CONTINUOUS
 10
315.714159825
 20
513.1087153822
  0
VERTEX
  8
0
 62
7
  6
CONTINUOUS
 10
315.7125734271
 20
513.2901997024
  0
VERTEX
  8
0
 62
7
  6
CONTINUOUS
 10
315.7100444599
 20
513.4716819344
  0
VERTEX
  8
0
 62
7
  6
CONTINUOUS
 10
315.7065728064
 20
513.6531608543
  0
VERTEX
  8
0
 62
7
  6
CONTINUOUS
 10
315.7021582993
 20
513.8346352366
  0
VERTEX
  8
0
 62
7
  6
CONTINUOUS
 10
315.6968007201
 20
514.0161038533
  0
VERTEX
  8
0
 62
7
  6
CONTINUOUS
 10
315.6904998002
 20
514.1975654743
  0
VERTEX
  8
0
 62
7
  6
CONTINUOUS
 10
315.6832552199
 20
514.3790188671
  0
VERTEX
  8
0
 62
7
  6
CONTINUOUS
 10
315.675066609
 20
514.5604627968
  0
VERTEX
  8
0
 62
7
  6
CONTINUOUS
 10
315.6659335462
 20
514.7418960259
  0
VERTEX
  8
0
 62
7
  6
CONTINUOUS
 10
315.6558555593
 20
514.9233173144
  0
VERTEX
  8
0
 62
7
  6
CONTINUOUS
 10
315.6448321252
 20
515.1047254193
  0
VERTEX
  8
0
 62
7
  6
CONTINUOUS
 10
315.6328626692
 20
515.2861190951
  0
VERTEX
  8
0
 62
7
  6
CONTINUOUS
 10
315.6199465657
 20
515.4674970931
  0
VERTEX
  8
0
 62
7
  6
CONTINUOUS
 10
315.6060831371
 20
515.6488581618
  0
VERTEX
  8
0
 62
7
  6
CONTINUOUS
 10
315.5912716543
 20
515.8302010464
  0
VERTEX
  8
0
 62
7
  6
CONTINUOUS
 10
315.575511336
 20
516.0115244889
  0
VERTEX
  8
0
 62
7
  6
CONTINUOUS
 10
315.558801349
 20
516.1928272281
  0
VERTEX
  8
0
 62
7
  6
CONTINUOUS
 10
315.5411408074
 20
516.3741079993
  0
VERTEX
  8
0
 62
7
  6
CONTINUOUS
 10
315.5225287725
 20
516.5553655341
  0
VERTEX
  8
0
 62
7
  6
CONTINUOUS
 10
315.5029642529
 20
516.7365985608
  0
VERTEX
  8
0
 62
7
  6
CONTINUOUS
 10
315.4824462036
 20
516.9178058036
  0
VERTEX
  8
0
 62
7
  6
CONTINUOUS
 10
315.460973526
 20
517.0989859831
  0
VERTEX
  8
0
 62
7
  6
CONTINUOUS
 10
315.4385450674
 20
517.2801378157
  0
VERTEX
  8
0
 62
7
  6
CONTINUOUS
 10
315.4151596208
 20
517.4612600139
  0
VERTEX
  8
0
 62
7
  6
CONTINUOUS
 10
315.3908159245
 20
517.6423512859
  0
VERTEX
  8
0
 62
7
  6
CONTINUOUS
 10
315.3655126613
 20
517.8234103357
  0
VERTEX
  8
0
 62
7
  6
CONTINUOUS
 10
315.3392484587
 20
518.0044358628
  0
VERTEX
  8
0
 62
7
  6
CONTINUOUS
 10
315.3120218878
 20
518.185426562
  0
VERTEX
  8
0
 62
7
  6
CONTINUOUS
 10
315.2838314634
 20
518.3663811237
  0
VERTEX
  8
0
 62
7
  6
CONTINUOUS
 10
315.2546756428
 20
518.5472982333
  0
VERTEX
  8
0
 62
7
  6
CONTINUOUS
 10
315.2245528262
 20
518.7281765715
  0
VERTEX
  8
0
 62
7
  6
CONTINUOUS
 10
315.1934613552
 20
518.9090148137
  0
VERTEX
  8
0
 62
7
  6
CONTINUOUS
 10
315.1613995129
 20
519.0898116303
  0
VERTEX
  8
0
 62
7
  6
CONTINUOUS
 10
315.1283655229
 20
519.2705656863
  0
VERTEX
  8
0
 62
7
  6
CONTINUOUS
 10
315.094357549
 20
519.4512756413
  0
VERTEX
  8
0
 62
7
  6
CONTINUOUS
 10
315.0597095248
 20
519.6302297264
  0
VERTEX
  8
0
 62
7
  6
CONTINUOUS
 10
315.0241570429
 20
519.8088656024
  0
VERTEX
  8
0
 62
7
  6
CONTINUOUS
 10
314.9876899958
 20
519.9872426712
  0
VERTEX
  8
0
 62
7
  6
CONTINUOUS
 10
314.9503097191
 20
520.1653601028
  0
VERTEX
  8
0
 62
7
  6
CONTINUOUS
 10
314.9120174962
 20
520.3432170502
  0
VERTEX
  8
0
 62
7
  6
CONTINUOUS
 10
314.8728145583
 20
520.5208126497
  0
VERTEX
  8
0
 62
7
  6
CONTINUOUS
 10
314.8327020856
 20
520.6981460208
  0
VERTEX
  8
0
 62
7
  6
CONTINUOUS
 10
314.7916812068
 20
520.8752162661
  0
VERTEX
  8
0
 62
7
  6
CONTINUOUS
 10
314.7497530001
 20
521.0520224714
  0
VERTEX
  8
0
 62
7
  6
CONTINUOUS
 10
314.7069184932
 20
521.2285637061
  0
VERTEX
  8
0
 62
7
  6
CONTINUOUS
 10
314.6631786639
 20
521.4048390226
  0
VERTEX
  8
0
 62
7
  6
CONTINUOUS
 10
314.61853444
 20
521.5808474568
  0
VERTEX
  8
0
 62
7
  6
CONTINUOUS
 10
314.5729867
 20
521.7565880278
  0
VERTEX
  8
0
 62
7
  6
CONTINUOUS
 10
314.5265362731
 20
521.9320597381
  0
VERTEX
  8
0
 62
7
  6
CONTINUOUS
 10
314.4791839398
 20
522.1072615734
  0
VERTEX
  8
0
 62
7
  6
CONTINUOUS
 10
314.4309304315
 20
522.2821925029
  0
VERTEX
  8
0
 62
7
  6
CONTINUOUS
 10
314.3817764313
 20
522.4568514789
  0
VERTEX
  8
0
 62
7
  6
CONTINUOUS
 10
314.3317225741
 20
522.6312374371
  0
VERTEX
  8
0
 62
7
  6
CONTINUOUS
 10
314.2807694463
 20
522.8053492963
  0
VERTEX
  8
0
 62
7
  6
CONTINUOUS
 10
314.2289175867
 20
522.9791859586
  0
VERTEX
  8
0
 62
7
  6
CONTINUOUS
 10
314.1761674861
 20
523.1527463091
  0
VERTEX
  8
0
 62
7
  6
CONTINUOUS
 10
314.1225195876
 20
523.3260292162
  0
VERTEX
  8
0
 62
7
  6
CONTINUOUS
 10
314.0679742867
 20
523.4990335311
  0
VERTEX
  8
0
 62
7
  6
CONTINUOUS
 10
314.0125319314
 20
523.6717580881
  0
VERTEX
  8
0
 62
7
  6
CONTINUOUS
 10
313.9561928222
 20
523.8442017046
  0
VERTEX
  8
0
 62
7
  6
CONTINUOUS
 10
313.8989572124
 20
524.0163631804
  0
VERTEX
  8
0
 62
7
  6
CONTINUOUS
 10
313.8408253078
 20
524.1882412984
  0
VERTEX
  8
0
 62
7
  6
CONTINUOUS
 10
313.7817972669
 20
524.3598348241
  0
VERTEX
  8
0
 62
7
  6
CONTINUOUS
 10
313.721873201
 20
524.5311425055
  0
VERTEX
  8
0
 62
7
  6
CONTINUOUS
 10
313.661053174
 20
524.702163073
  0
VERTEX
  8
0
 62
7
  6
CONTINUOUS
 10
313.5993372025
 20
524.8728952397
  0
VERTEX
  8
0
 62
7
  6
CONTINUOUS
 10
313.5367252557
 20
525.0433377005
  0
VERTEX
  8
0
 62
7
  6
CONTINUOUS
 10
313.4732172553
 20
525.2134891328
  0
VERTEX
  8
0
 62
7
  6
CONTINUOUS
 10
313.4088130756
 20
525.3833481959
  0
VERTEX
  8
0
 62
7
  6
CONTINUOUS
 10
313.3435125432
 20
525.552913531
  0
VERTEX
  8
0
 62
7
  6
CONTINUOUS
 10
313.2773154371
 20
525.7221837609
  0
VERTEX
  8
0
 62
7
  6
CONTINUOUS
 10
313.2102214881
 20
525.8911574902
  0
VERTEX
  8
0
 62
7
  6
CONTINUOUS
 10
313.1422303795
 20
526.059833305
  0
VERTEX
  8
0
 62
7
  6
CONTINUOUS
 10
313.073341746
 20
526.2282097723
  0
VERTEX
  8
0
 62
7
  6
CONTINUOUS
 10
313.0035551741
 20
526.3962854408
  0
VERTEX
  8
0
 62
7
  6
CONTINUOUS
 10
312.932870202
 20
526.5640588396
  0
VERTEX
  8
0
 62
7
  6
CONTINUOUS
 10
312.8612863188
 20
526.731528479
  0
VERTEX
  8
0
 62
7
  6
CONTINUOUS
 10
312.7888029648
 20
526.8986928498
  0
VERTEX
  8
0
 62
7
  6
CONTINUOUS
 10
312.7154195309
 20
527.065550423
  0
VERTEX
  8
0
 62
7
  6
CONTINUOUS
 10
312.6411353587
 20
527.2320996501
  0
VERTEX
  8
0
 62
7
  6
CONTINUOUS
 10
312.5659497399
 20
527.3983389624
  0
VERTEX
  8
0
 62
7
  6
CONTINUOUS
 10
312.4898619159
 20
527.5642667709
  0
VERTEX
  8
0
 62
7
  6
CONTINUOUS
 10
312.412871078
 20
527.7298814665
  0
VERTEX
  8
0
 62
7
  6
CONTINUOUS
 10
312.3349763665
 20
527.8951814191
  0
VERTEX
  8
0
 62
7
  6
CONTINUOUS
 10
312.2561768706
 20
528.0601649778
  0
VERTEX
  8
0
 62
7
  6
CONTINUOUS
 10
312.1764716279
 20
528.2248304707
  0
VERTEX
  8
0
 62
7
  6
CONTINUOUS
 10
312.0958596242
 20
528.3891762041
  0
VERTEX
  8
0
 62
7
  6
CONTINUOUS
 10
312.0143397927
 20
528.5532004631
  0
VERTEX
  8
0
 62
7
  6
CONTINUOUS
 10
311.931911014
 20
528.7169015105
  0
VERTEX
  8
0
 62
7
  6
CONTINUOUS
 10
311.8485721153
 20
528.880277587
  0
VERTEX
  8
0
 62
7
  6
CONTINUOUS
 10
311.76432187
 20
529.0433269108
  0
VERTEX
  8
0
 62
7
  6
CONTINUOUS
 10
311.6791589972
 20
529.2060476772
  0
VERTEX
  8
0
 62
7
  6
CONTINUOUS
 10
311.5930821613
 20
529.3684380584
  0
VERTEX
  8
0
 62
7
  6
CONTINUOUS
 10
311.506089971
 20
529.5304962033
  0
VERTEX
  8
0
 62
7
  6
CONTINUOUS
 10
311.4181809793
 20
529.6922202367
  0
VERTEX
  8
0
 62
7
  6
CONTINUOUS
 10
311.3293536825
 20
529.8536082596
  0
VERTEX
  8
0
 62
7
  6
CONTINUOUS
 10
311.2396065196
 20
530.0146583484
  0
VERTEX
  8
0
 62
7
  6
CONTINUOUS
 10
311.1489378718
 20
530.1753685545
  0
VERTEX
  8
0
 62
7
  6
CONTINUOUS
 10
311.0573460617
 20
530.3357369045
  0
VERTEX
  8
0
 62
7
  6
CONTINUOUS
 10
310.9648293525
 20
530.4957613991
  0
VERTEX
  8
0
 62
7
  6
CONTINUOUS
 10
310.8717007992
 20
530.6549052156
  0
VERTEX
  8
0
 62
7
  6
CONTINUOUS
 10
310.7787732413
 20
530.8118179746
  0
VERTEX
  8
0
 62
7
  6
CONTINUOUS
 10
310.6850687593
 20
530.9681832212
  0
VERTEX
  8
0
 62
7
  6
CONTINUOUS
 10
310.5905888871
 20
531.1240006113
  0
VERTEX
  8
0
 62
7
  6
CONTINUOUS
 10
310.4953351146
 20
531.2792697674
  0
VERTEX
  8
0
 62
7
  6
CONTINUOUS
 10
310.3993088884
 20
531.4339902788
  0
VERTEX
  8
0
 62
7
  6
CONTINUOUS
 10
310.3025116123
 20
531.5881617022
  0
VERTEX
  8
0
 62
7
  6
CONTINUOUS
 10
310.2049446473
 20
531.7417835613
  0
VERTEX
  8
0
 62
7
  6
CONTINUOUS
 10
310.1066093119
 20
531.8948553471
  0
VERTEX
  8
0
 62
7
  6
CONTINUOUS
 10
310.007506883
 20
532.0473765184
  0
VERTEX
  8
0
 62
7
  6
CONTINUOUS
 10
309.9076385955
 20
532.1993465013
  0
VERTEX
  8
0
 62
7
  6
CONTINUOUS
 10
309.8070056429
 20
532.35076469
  0
VERTEX
  8
0
 62
7
  6
CONTINUOUS
 10
309.7056091778
 20
532.5016304463
  0
VERTEX
  8
0
 62
7
  6
CONTINUOUS
 10
309.6034503116
 20
532.6519431001
  0
VERTEX
  8
0
 62
7
  6
CONTINUOUS
 10
309.5005301152
 20
532.8017019491
  0
VERTEX
  8
0
 62
7
  6
CONTINUOUS
 10
309.396849619
 20
532.9509062593
  0
VERTEX
  8
0
 62
7
  6
CONTINUOUS
 10
309.2924098132
 20
533.0995552648
  0
VERTEX
  8
0
 62
7
  6
CONTINUOUS
 10
309.187211648
 20
533.2476481678
  0
VERTEX
  8
0
 62
7
  6
CONTINUOUS
 10
309.0812560337
 20
533.3951841388
  0
VERTEX
  8
0
 62
7
  6
CONTINUOUS
 10
308.9745438408
 20
533.5421623162
  0
VERTEX
  8
0
 62
7
  6
CONTINUOUS
 10
308.8670759003
 20
533.6885818072
  0
VERTEX
  8
0
 62
7
  6
CONTINUOUS
 10
308.758853004
 20
533.8344416866
  0
VERTEX
  8
0
 62
7
  6
CONTINUOUS
 10
308.649875904
 20
533.9797409978
  0
VERTEX
  8
0
 62
7
  6
CONTINUOUS
 10
308.5401453136
 20
534.1244787522
  0
VERTEX
  8
0
 62
7
  6
CONTINUOUS
 10
308.4296619067
 20
534.2686539294
  0
VERTEX
  8
0
 62
7
  6
CONTINUOUS
 10
308.3184263184
 20
534.4122654771
  0
VERTEX
  8
0
 62
7
  6
CONTINUOUS
 10
308.2064391448
 20
534.5553123109
  0
VERTEX
  8
0
 62
7
  6
CONTINUOUS
 10
308.0937009429
 20
534.6977933144
  0
VERTEX
  8
0
 62
7
  6
CONTINUOUS
 10
307.980212231
 20
534.8397073391
  0
VERTEX
  8
0
 62
7
  6
CONTINUOUS
 10
307.8659734886
 20
534.9810532041
  0
VERTEX
  8
0
 62
7
  6
CONTINUOUS
 10
307.7509851562
 20
535.1218296963
  0
VERTEX
  8
0
 62
7
  6
CONTINUOUS
 10
307.6352476357
 20
535.2620355701
  0
VERTEX
  8
0
 62
7
  6
CONTINUOUS
 10
307.5187612898
 20
535.4016695473
  0
VERTEX
  8
0
 62
7
  6
CONTINUOUS
 10
307.4015264426
 20
535.5407303168
  0
VERTEX
  8
0
 62
7
  6
CONTINUOUS
 10
307.2835433792
 20
535.6792165348
  0
VERTEX
  8
0
 62
7
  6
CONTINUOUS
 10
307.1648123456
 20
535.8171268243
  0
VERTEX
  8
0
 62
7
  6
CONTINUOUS
 10
307.0453335488
 20
535.954459775
  0
VERTEX
  8
0
 62
7
  6
CONTINUOUS
 10
306.9251071566
 20
536.0912139433
  0
VERTEX
  8
0
 62
7
  6
CONTINUOUS
 10
306.8041332975
 20
536.2273878519
  0
VERTEX
  8
0
 62
7
  6
CONTINUOUS
 10
306.6824120608
 20
536.3629799896
  0
VERTEX
  8
0
 62
7
  6
CONTINUOUS
 10
306.5599434961
 20
536.4979888111
  0
VERTEX
  8
0
 62
7
  6
CONTINUOUS
 10
306.4367276134
 20
536.6324127368
  0
VERTEX
  8
0
 62
7
  6
CONTINUOUS
 10
306.3127643829
 20
536.7662501525
  0
VERTEX
  8
0
 62
7
  6
CONTINUOUS
 10
306.1880537348
 20
536.8994994091
  0
VERTEX
  8
0
 62
7
  6
CONTINUOUS
 10
306.0625955591
 20
537.0321588224
  0
VERTEX
  8
0
 62
7
  6
CONTINUOUS
 10
305.9363897054
 20
537.1642266728
  0
VERTEX
  8
0
 62
7
  6
CONTINUOUS
 10
305.8094359827
 20
537.295701205
  0
VERTEX
  8
0
 62
7
  6
CONTINUOUS
 10
305.6817341593
 20
537.4265806275
  0
VERTEX
  8
0
 62
7
  6
CONTINUOUS
 10
305.553283962
 20
537.5568631125
  0
VERTEX
  8
0
 62
7
  6
CONTINUOUS
 10
305.4240850768
 20
537.6865467955
  0
VERTEX
  8
0
 62
7
  6
CONTINUOUS
 10
305.2941371475
 20
537.8156297748
  0
VERTEX
  8
0
 62
7
  6
CONTINUOUS
 10
305.1634397763
 20
537.9441101114
  0
VERTEX
  8
0
 62
7
  6
CONTINUOUS
 10
305.031992523
 20
538.0719858283
  0
VERTEX
  8
0
 62
7
  6
CONTINUOUS
 10
304.8997949048
 20
538.1992549101
  0
VERTEX
  8
0
 62
7
  6
CONTINUOUS
 10
304.7668463961
 20
538.3259153029
  0
VERTEX
  8
0
 62
7
  6
CONTINUOUS
 10
304.6331464276
 20
538.4519649137
  0
VERTEX
  8
0
 62
7
  6
CONTINUOUS
 10
304.4986943866
 20
538.5774016097
  0
VERTEX
  8
0
 62
7
  6
CONTINUOUS
 10
304.3634896163
 20
538.7022232181
  0
VERTEX
  8
0
 62
7
  6
CONTINUOUS
 10
304.2275314151
 20
538.8264275256
  0
VERTEX
  8
0
 62
7
  6
CONTINUOUS
 10
304.0908190367
 20
538.9500122779
  0
VERTEX
  8
0
 62
7
  6
CONTINUOUS
 10
303.9533516891
 20
539.0729751789
  0
VERTEX
  8
0
 62
7
  6
CONTINUOUS
 10
303.8151285344
 20
539.1953138905
  0
VERTEX
  8
0
 62
7
  6
CONTINUOUS
 10
303.6761486884
 20
539.317026032
  0
VERTEX
  8
0
 62
7
  6
CONTINUOUS
 10
303.5364112197
 20
539.4381091792
  0
VERTEX
  8
0
 62
7
  6
CONTINUOUS
 10
303.3959151497
 20
539.5585608641
  0
VERTEX
  8
0
 62
7
  6
CONTINUOUS
 10
303.2629981165
 20
539.6713409269
  0
VERTEX
  8
0
 62
7
  6
CONTINUOUS
 10
303.1232044135
 20
539.7887404387
  0
VERTEX
  8
0
 62
7
  6
CONTINUOUS
 10
302.9828593342
 20
539.905365641
  0
VERTEX
  8
0
 62
7
  6
CONTINUOUS
 10
302.8419644373
 20
540.0212167106
  0
VERTEX
  8
0
 62
7
  6
CONTINUOUS
 10
302.7005212513
 20
540.1362937785
  0
VERTEX
  8
0
 62
7
  6
CONTINUOUS
 10
302.5585312744
 20
540.2505969301
  0
VERTEX
  8
0
 62
7
  6
CONTINUOUS
 10
302.4159959758
 20
540.3641262053
  0
VERTEX
  8
0
 62
7
  6
CONTINUOUS
 10
302.2729167947
 20
540.4768815992
  0
VERTEX
  8
0
 62
7
  6
CONTINUOUS
 10
302.1292951416
 20
540.5888630619
  0
VERTEX
  8
0
 62
7
  6
CONTINUOUS
 10
301.985132398
 20
540.7000704993
  0
VERTEX
  8
0
 62
7
  6
CONTINUOUS
 10
301.8404299169
 20
540.8105037724
  0
VERTEX
  8
0
 62
7
  6
CONTINUOUS
 10
301.6951890227
 20
540.9201626987
  0
VERTEX
  8
0
 62
7
  6
CONTINUOUS
 10
301.5494110119
 20
541.0290470512
  0
VERTEX
  8
0
 62
7
  6
CONTINUOUS
 10
301.4030971527
 20
541.1371565593
  0
SEQEND
  0
POLYLINE
  8
0
 62
7
  6
CONTINUOUS
 66
1
 70
0
  0
VERTEX
  8
0
 62
7
  6
CONTINUOUS
 10
301.4030971527
 20
541.1371565593
  0
VERTEX
  8
0
 62
7
  6
CONTINUOUS
 10
301.256248686
 20
541.2444909089
  0
VERTEX
  8
0
 62
7
  6
CONTINUOUS
 10
301.1088668247
 20
541.351049742
  0
VERTEX
  8
0
 62
7
  6
CONTINUOUS
 10
300.9609527545
 20
541.4568326576
  0
VERTEX
  8
0
 62
7
  6
CONTINUOUS
 10
300.812507634
 20
541.5618392112
  0
VERTEX
  8
0
 62
7
  6
CONTINUOUS
 10
300.6635325943
 20
541.666068915
  0
VERTEX
  8
0
 62
7
  6
CONTINUOUS
 10
300.5140287401
 20
541.7695212382
  0
VERTEX
  8
0
 62
7
  6
CONTINUOUS
 10
300.363997149
 20
541.8721956067
  0
VERTEX
  8
0
 62
7
  6
CONTINUOUS
 10
300.2134388719
 20
541.9740914036
  0
VERTEX
  8
0
 62
7
  6
CONTINUOUS
 10
300.0623549333
 20
542.0752079686
  0
VERTEX
  8
0
 62
7
  6
CONTINUOUS
 10
299.9107463313
 20
542.1755445987
  0
VERTEX
  8
0
 62
7
  6
CONTINUOUS
 10
299.7586140375
 20
542.2751005476
  0
VERTEX
  8
0
 62
7
  6
CONTINUOUS
 10
299.6059589973
 20
542.373875026
  0
VERTEX
  8
0
 62
7
  6
CONTINUOUS
 10
299.45278213
 20
542.4718672016
  0
VERTEX
  8
0
 62
7
  6
CONTINUOUS
 10
299.2990843289
 20
542.5690761986
  0
VERTEX
  8
0
 62
7
  6
CONTINUOUS
 10
299.144866461
 20
542.6655010984
  0
VERTEX
  8
0
 62
7
  6
CONTINUOUS
 10
298.9901293675
 20
542.7611409386
  0
VERTEX
  8
0
 62
7
  6
CONTINUOUS
 10
298.8348738636
 20
542.8559947138
  0
VERTEX
  8
0
 62
7
  6
CONTINUOUS
 10
298.6791007388
 20
542.9500613746
  0
VERTEX
  8
0
 62
7
  6
CONTINUOUS
 10
298.5228107563
 20
543.0433398282
  0
VERTEX
  8
0
 62
7
  6
CONTINUOUS
 10
298.3660046538
 20
543.135828938
  0
VERTEX
  8
0
 62
7
  6
CONTINUOUS
 10
298.2086831431
 20
543.2275275232
  0
VERTEX
  8
0
 62
7
  6
CONTINUOUS
 10
298.05084691
 20
543.3184343588
  0
VERTEX
  8
0
 62
7
  6
CONTINUOUS
 10
297.8924966145
 20
543.4085481757
  0
VERTEX
  8
0
 62
7
  6
CONTINUOUS
 10
297.7336328908
 20
543.4978676599
  0
VERTEX
  8
0
 62
7
  6
CONTINUOUS
 10
297.574256347
 20
543.5863914528
  0
VERTEX
  8
0
 62
7
  6
CONTINUOUS
 10
297.4143675654
 20
543.6741181505
  0
VERTEX
  8
0
 62
7
  6
CONTINUOUS
 10
297.2539671022
 20
543.761046304
  0
VERTEX
  8
0
 62
7
  6
CONTINUOUS
 10
297.0930554876
 20
543.8471744186
  0
VERTEX
  8
0
 62
7
  6
CONTINUOUS
 10
296.9316332255
 20
543.9325009535
  0
SEQEND
  0
LINE
  8
0
 62
7
  6
CONTINUOUS
 10
313.6211193353
 20
489.2455039172
 11
285.3777530592
 21
192.6239614308
  0
LINE
  8
0
 62
7
  6
CONTINUOUS
 10
314.5714756941
 20
499.2264731231
 11
315.5575235771
 21
509.5822869862
  0
POLYLINE
  8
0
 62
7
  6
CONTINUOUS
 66
1
 70
0
  0
VERTEX
  8
0
 62
7
  6
CONTINUOUS
 10
302.302769772
 20
185.5384813243
  0
VERTEX
  8
0
 62
7
  6
CONTINUOUS
 10
302.2096397566
 20
186.4793989992
  0
VERTEX
  8
0
 62
7
  6
CONTINUOUS
 10
301.3113346728
 20
188.551069219
  0
VERTEX
  8
0
 62
7
  6
CONTINUOUS
 10
300.1723680788
 20
189.7077158645
  0
VERTEX
  8
0
 62
7
  6
CONTINUOUS
 10
299.2370904584
 20
190.2852009672
  0
VERTEX
  8
0
 62
7
  6
CONTINUOUS
 10
298.4776402174
 20
190.6132522291
  0
VERTEX
  8
0
 62
7
  6
CONTINUOUS
 10
297.7853322322
 20
190.8396132251
  0
VERTEX
  8
0
 62
7
  6
CONTINUOUS
 10
297.0945155747
 20
191.0195894524
  0
VERTEX
  8
0
 62
7
  6
CONTINUOUS
 10
296.3586519018
 20
191.1777187118
  0
VERTEX
  8
0
 62
7
  6
CONTINUOUS
 10
295.5473999258
 20
191.3250245985
  0
VERTEX
  8
0
 62
7
  6
CONTINUOUS
 10
294.8326880107
 20
191.4383107641
  0
SEQEND
  0
LINE
  8
0
 62
7
  6
CONTINUOUS
 10
304.4251869193
 20
139.9654559075
 11
304.425202195
 21
139.9652050487
  0
LINE
  8
0
 62
7
  6
CONTINUOUS
 10
302.5486757048
 20
151.0499382993
 11
302.5486045932
 21
151.0537264856
  0
LINE
  8
0
 62
7
  6
CONTINUOUS
 10
302.5486757048
 20
151.0499382993
 11
302.3027715933
 21
185.5410339699
  0
LINE
  8
0
 62
7
  6
CONTINUOUS
 10
302.302769772
 20
185.5384813243
 11
302.3027715933
 21
185.5410339699
  0
POLYLINE
  8
0
 62
7
  6
CONTINUOUS
 66
1
 70
0
  0
VERTEX
  8
0
 62
7
  6
CONTINUOUS
 10
304.4252021739
 20
139.9652055718
  0
VERTEX
  8
0
 62
7
  6
CONTINUOUS
 10
304.3537647879
 20
140.5729582983
  0
VERTEX
  8
0
 62
7
  6
CONTINUOUS
 10
303.8115239704
 20
141.9378744728
  0
VERTEX
  8
0
 62
7
  6
CONTINUOUS
 10
302.9211206472
 20
142.9322347284
  0
VERTEX
  8
0
 62
7
  6
CONTINUOUS
 10
302.002393983
 20
143.4815892095
  0
VERTEX
  8
0
 62
7
  6
CONTINUOUS
 10
301.3956811368
 20
143.6861696407
  0
VERTEX
  8
0
 62
7
  6
CONTINUOUS
 10
301.0783109151
 20
143.7524695962
  0
VERTEX
  8
0
 62
7
  6
CONTINUOUS
 10
300.8949148235
 20
143.7791667935
  0
VERTEX
  8
0
 62
7
  6
CONTINUOUS
 10
300.7724679855
 20
143.7926158729
  0
VERTEX
  8
0
 62
7
  6
CONTINUOUS
 10
300.6804952382
 20
143.8006449747
  0
VERTEX
  8
0
 62
7
  6
CONTINUOUS
 10
300.6046590217
 20
143.8061088157
  0
VERTEX
  8
0
 62
7
  6
CONTINUOUS
 10
300.5363579119
 20
143.8102852881
  0
VERTEX
  8
0
 62
7
  6
CONTINUOUS
 10
300.4702831097
 20
143.8137835258
  0
VERTEX
  8
0
 62
7
  6
CONTINUOUS
 10
300.4029737237
 20
143.8169139751
  0
VERTEX
  8
0
 62
7
  6
CONTINUOUS
 10
300.3318585682
 20
143.8198512447
  0
VERTEX
  8
0
 62
7
  6
CONTINUOUS
 10
300.2549393171
 20
143.8226968954
  0
VERTEX
  8
0
 62
7
  6
CONTINUOUS
 10
300.1704972694
 20
143.8255150304
  0
VERTEX
  8
0
 62
7
  6
CONTINUOUS
 10
300.0768763769
 20
143.8283516123
  0
VERTEX
  8
0
 62
7
  6
CONTINUOUS
 10
299.9721296488
 20
143.8312484445
  0
VERTEX
  8
0
 62
7
  6
CONTINUOUS
 10
299.8541400475
 20
143.8342395851
  0
VERTEX
  8
0
 62
7
  6
CONTINUOUS
 10
299.7205182242
 20
143.8373555691
  0
VERTEX
  8
0
 62
7
  6
CONTINUOUS
 10
299.568403774
 20
143.8406273374
  0
VERTEX
  8
0
 62
7
  6
CONTINUOUS
 10
299.3944874718
 20
143.8440848069
  0
VERTEX
  8
0
 62
7
  6
CONTINUOUS
 10
299.1946443895
 20
143.8477642503
  0
VERTEX
  8
0
 62
7
  6
CONTINUOUS
 10
298.9638219249
 20
143.8517063621
  0
VERTEX
  8
0
 62
7
  6
CONTINUOUS
 10
298.6954295164
 20
143.855962116
  0
VERTEX
  8
0
 62
7
  6
CONTINUOUS
 10
298.3808957143
 20
143.8605936507
  0
VERTEX
  8
0
 62
7
  6
CONTINUOUS
 10
298.0089303039
 20
143.8656805854
  0
SEQEND
  0
POLYLINE
  8
0
 62
7
  6
CONTINUOUS
 66
1
 70
0
  0
VERTEX
  8
0
 62
7
  6
CONTINUOUS
 10
298.7263411493
 20
62.3882775119
  0
VERTEX
  8
0
 62
7
  6
CONTINUOUS
 10
301.083874867
 20
72.5906162631
  0
VERTEX
  8
0
 62
7
  6
CONTINUOUS
 10
303.0524372716
 20
84.024711597
  0
VERTEX
  8
0
 62
7
  6
CONTINUOUS
 10
304.2132784985
 20
94.6312955825
  0
VERTEX
  8
0
 62
7
  6
CONTINUOUS
 10
304.8104539152
 20
104.8562413437
  0
VERTEX
  8
0
 62
7
  6
CONTINUOUS
 10
305.0035536846
 20
114.8927329155
  0
VERTEX
  8
0
 62
7
  6
CONTINUOUS
 10
304.9039618323
 20
125.1347716423
  0
VERTEX
  8
0
 62
7
  6
CONTINUOUS
 10
304.5704286259
 20
136.2392002161
  0
VERTEX
  8
0
 62
7
  6
CONTINUOUS
 10
304.4251887828
 20
139.9654545325
  0
SEQEND
  0
POLYLINE
  8
0
 62
7
  6
CONTINUOUS
 66
1
 70
0
  0
VERTEX
  8
0
 62
7
  6
CONTINUOUS
 10
240.0105695168
 20
-29.3852331374
  0
VERTEX
  8
0
 62
7
  6
CONTINUOUS
 10
247.1086009614
 20
-22.2536115027
  0
VERTEX
  8
0
 62
7
  6
CONTINUOUS
 10
256.3619505203
 20
-12.3643178735
  0
VERTEX
  8
0
 62
7
  6
CONTINUOUS
 10
264.4450217169
 20
-3.0280988741
  0
VERTEX
  8
0
 62
7
  6
CONTINUOUS
 10
271.1996670046
 20
5.5075534738
  0
VERTEX
  8
0
 62
7
  6
CONTINUOUS
 10
276.8784058206
 20
13.5005476262
  0
VERTEX
  8
0
 62
7
  6
CONTINUOUS
 10
281.444836913
 20
20.7163479097
  0
VERTEX
  8
0
 62
7
  6
CONTINUOUS
 10
285.2313237573
 20
27.3784103757
  0
VERTEX
  8
0
 62
7
  6
CONTINUOUS
 10
288.4332505097
 20
33.6274832603
  0
VERTEX
  8
0
 62
7
  6
CONTINUOUS
 10
291.1258960309
 20
39.5405758659
  0
VERTEX
  8
0
 62
7
  6
CONTINUOUS
 10
293.3995473984
 20
45.2372153119
  0
VERTEX
  8
0
 62
7
  6
CONTINUOUS
 10
295.3441889134
 20
50.7919945842
  0
VERTEX
  8
0
 62
7
  6
CONTINUOUS
 10
297.0145209414
 20
56.1649183371
  0
VERTEX
  8
0
 62
7
  6
CONTINUOUS
 10
298.4429902577
 20
61.2990158837
  0
VERTEX
  8
0
 62
7
  6
CONTINUOUS
 10
298.7264064251
 20
62.3882618621
  0
SEQEND
  0
LINE
  8
0
 62
7
  6
CONTINUOUS
 10
240.0093547293
 20
-29.386423247
 11
240.0094213178
 21
-29.3863582227
  0
LINE
  8
0
 62
7
  6
CONTINUOUS
 10
148.7674120172
 20
557.9117562655
 11
151.6061644082
 21
554.2491939037
  0
LINE
  8
0
 62
7
  6
CONTINUOUS
 10
-41.4522907164
 20
495.4154220517
 11
-48.813778749
 21
494.7432686934
  0
POLYLINE
  8
0
 62
7
  6
CONTINUOUS
 66
1
 70
0
  0
VERTEX
  8
0
 62
7
  6
CONTINUOUS
 10
-27.2774156187
 20
495.8888489917
  0
VERTEX
  8
0
 62
7
  6
CONTINUOUS
 10
-32.2098182411
 20
495.751635059
  0
VERTEX
  8
0
 62
7
  6
CONTINUOUS
 10
-36.532087362
 20
495.620935926
  0
VERTEX
  8
0
 62
7
  6
CONTINUOUS
 10
-38.9771909166
 20
495.5373856981
  0
VERTEX
  8
0
 62
7
  6
CONTINUOUS
 10
-40.2916627871
 20
495.4845335262
  0
VERTEX
  8
0
 62
7
  6
CONTINUOUS
 10
-41.0301361725
 20
495.4468725587
  0
VERTEX
  8
0
 62
7
  6
CONTINUOUS
 10
-41.4553470466
 20
495.4151943552
  0
SEQEND
  0
POLYLINE
  8
0
 62
7
  6
CONTINUOUS
 66
1
 70
0
  0
VERTEX
  8
0
 62
7
  6
CONTINUOUS
 10
-27.254153915
 20
495.8893627293
  0
VERTEX
  8
0
 62
7
  6
CONTINUOUS
 10
-27.1116260342
 20
495.8932055175
  0
VERTEX
  8
0
 62
7
  6
CONTINUOUS
 10
-26.5883524231
 20
495.9072650688
  0
VERTEX
  8
0
 62
7
  6
CONTINUOUS
 10
-26.0576800091
 20
495.9214477082
  0
VERTEX
  8
0
 62
7
  6
CONTINUOUS
 10
-25.5196181533
 20
495.93575328
  0
VERTEX
  8
0
 62
7
  6
CONTINUOUS
 10
-24.9741679857
 20
495.9501817653
  0
VERTEX
  8
0
 62
7
  6
CONTINUOUS
 10
-24.4213287726
 20
495.9647331764
  0
VERTEX
  8
0
 62
7
  6
CONTINUOUS
 10
-23.861090935
 20
495.9794076726
  0
VERTEX
  8
0
 62
7
  6
CONTINUOUS
 10
-23.2934406744
 20
495.9942054835
  0
VERTEX
  8
0
 62
7
  6
CONTINUOUS
 10
-22.7183596885
 20
496.0091269136
  0
VERTEX
  8
0
 62
7
  6
CONTINUOUS
 10
-22.1890877437
 20
496.0227995038
  0
VERTEX
  8
0
 62
7
  6
CONTINUOUS
 10
-21.6536305667
 20
496.0365749929
  0
VERTEX
  8
0
 62
7
  6
CONTINUOUS
 10
-21.1119605768
 20
496.0504538397
  0
VERTEX
  8
0
 62
7
  6
CONTINUOUS
 10
-20.5640452206
 20
496.0644365857
  0
VERTEX
  8
0
 62
7
  6
CONTINUOUS
 10
-20.0098504089
 20
496.0785237982
  0
VERTEX
  8
0
 62
7
  6
CONTINUOUS
 10
-19.4493365752
 20
496.0927161263
  0
VERTEX
  8
0
 62
7
  6
CONTINUOUS
 10
-18.883802159
 20
496.1069805034
  0
VERTEX
  8
0
 62
7
  6
CONTINUOUS
 10
-18.2688590429
 20
496.1224299881
  0
VERTEX
  8
0
 62
7
  6
CONTINUOUS
 10
-17.6498262457
 20
496.1379195702
  0
VERTEX
  8
0
 62
7
  6
CONTINUOUS
 10
-17.0267301848
 20
496.1534489907
  0
VERTEX
  8
0
 62
7
  6
CONTINUOUS
 10
-16.3995937035
 20
496.1690180255
  0
VERTEX
  8
0
 62
7
  6
CONTINUOUS
 10
-15.7569226246
 20
496.184910647
  0
VERTEX
  8
0
 62
7
  6
CONTINUOUS
 10
-15.1101005118
 20
496.2008439675
  0
VERTEX
  8
0
 62
7
  6
CONTINUOUS
 10
-14.459140457
 20
496.2168178584
  0
VERTEX
  8
0
 62
7
  6
CONTINUOUS
 10
-13.8040535117
 20
496.2328322116
  0
VERTEX
  8
0
 62
7
  6
CONTINUOUS
 10
-13.1448478403
 20
496.2488869468
  0
VERTEX
  8
0
 62
7
  6
CONTINUOUS
 10
-12.4815270079
 20
496.2649820293
  0
VERTEX
  8
0
 62
7
  6
CONTINUOUS
 10
-11.8140935421
 20
496.2811174341
  0
VERTEX
  8
0
 62
7
  6
CONTINUOUS
 10
-11.142545062
 20
496.2972931846
  0
VERTEX
  8
0
 62
7
  6
CONTINUOUS
 10
-10.4668768554
 20
496.3135093271
  0
VERTEX
  8
0
 62
7
  6
CONTINUOUS
 10
-9.7870817275
 20
496.329765932
  0
VERTEX
  8
0
 62
7
  6
CONTINUOUS
 10
-9.1654947746
 20
496.3445798755
  0
VERTEX
  8
0
 62
7
  6
CONTINUOUS
 10
-8.5404774179
 20
496.3594274525
  0
VERTEX
  8
0
 62
7
  6
CONTINUOUS
 10
-7.9120166832
 20
496.3743087902
  0
VERTEX
  8
0
 62
7
  6
CONTINUOUS
 10
-7.2800968953
 20
496.3892240422
  0
VERTEX
  8
0
 62
7
  6
CONTINUOUS
 10
-6.6447017195
 20
496.4041733695
  0
VERTEX
  8
0
 62
7
  6
CONTINUOUS
 10
-6.0058107846
 20
496.4191569715
  0
SEQEND
  0
POLYLINE
  8
0
 62
7
  6
CONTINUOUS
 66
1
 70
0
  0
VERTEX
  8
0
 62
7
  6
CONTINUOUS
 10
-6.0058107846
 20
496.4191569715
  0
VERTEX
  8
0
 62
7
  6
CONTINUOUS
 10
-3.5522916319
 20
496.4764219885
  0
VERTEX
  8
0
 62
7
  6
CONTINUOUS
 10
-1.7407687799
 20
496.5186265635
  0
VERTEX
  8
0
 62
7
  6
CONTINUOUS
 10
0.0711606371
 20
496.5607893787
  0
VERTEX
  8
0
 62
7
  6
CONTINUOUS
 10
1.8834907094
 20
496.6029110271
  0
VERTEX
  8
0
 62
7
  6
CONTINUOUS
 10
3.7291777814
 20
496.6457568405
  0
VERTEX
  8
0
 62
7
  6
CONTINUOUS
 10
5.5752678587
 20
496.6885612176
  0
VERTEX
  8
0
 62
7
  6
CONTINUOUS
 10
7.4217547535
 20
496.7313247843
  0
VERTEX
  8
0
 62
7
  6
CONTINUOUS
 10
9.2686323205
 20
496.7740481632
  0
VERTEX
  8
0
 62
7
  6
CONTINUOUS
 10
11.115894413
 20
496.816731976
  0
VERTEX
  8
0
 62
7
  6
CONTINUOUS
 10
12.9635348896
 20
496.8593768446
  0
VERTEX
  8
0
 62
7
  6
CONTINUOUS
 10
14.8115476131
 20
496.901983391
  0
VERTEX
  8
0
 62
7
  6
CONTINUOUS
 10
16.6599264518
 20
496.9445522374
  0
VERTEX
  8
0
 62
7
  6
CONTINUOUS
 10
18.5086652973
 20
496.987084004
  0
VERTEX
  8
0
 62
7
  6
CONTINUOUS
 10
20.3577580782
 20
497.0295793081
  0
VERTEX
  8
0
 62
7
  6
CONTINUOUS
 10
22.3192970905
 20
497.0746109286
  0
VERTEX
  8
0
 62
7
  6
CONTINUOUS
 10
24.2812201919
 20
497.1196029631
  0
VERTEX
  8
0
 62
7
  6
CONTINUOUS
 10
26.2435201614
 20
497.1645561478
  0
VERTEX
  8
0
 62
7
  6
CONTINUOUS
 10
28.2061897883
 20
497.209471219
  0
VERTEX
  8
0
 62
7
  6
CONTINUOUS
 10
30.1692219076
 20
497.2543489088
  0
SEQEND
  0
POLYLINE
  8
0
 62
7
  6
CONTINUOUS
 66
1
 70
0
  0
VERTEX
  8
0
 62
7
  6
CONTINUOUS
 10
30.1692219076
 20
497.2543489088
  0
VERTEX
  8
0
 62
7
  6
CONTINUOUS
 10
33.9841223653
 20
497.3414357269
  0
VERTEX
  8
0
 62
7
  6
CONTINUOUS
 10
35.8359389459
 20
497.3836501854
  0
VERTEX
  8
0
 62
7
  6
CONTINUOUS
 10
37.689105513
 20
497.4258578946
  0
VERTEX
  8
0
 62
7
  6
CONTINUOUS
 10
39.5460283485
 20
497.4681143224
  0
VERTEX
  8
0
 62
7
  6
CONTINUOUS
 10
41.4032339658
 20
497.5103410905
  0
VERTEX
  8
0
 62
7
  6
CONTINUOUS
 10
43.7673500848
 20
497.5640423242
  0
VERTEX
  8
0
 62
7
  6
CONTINUOUS
 10
46.1319030188
 20
497.6176977786
  0
VERTEX
  8
0
 62
7
  6
CONTINUOUS
 10
48.4968808641
 20
497.6713087213
  0
VERTEX
  8
0
 62
7
  6
CONTINUOUS
 10
50.8622717353
 20
497.7248764178
  0
VERTEX
  8
0
 62
7
  6
CONTINUOUS
 10
53.2280638181
 20
497.7784021253
  0
VERTEX
  8
0
 62
7
  6
CONTINUOUS
 10
55.5942453081
 20
497.8318870993
  0
VERTEX
  8
0
 62
7
  6
CONTINUOUS
 10
57.9608043963
 20
497.8853325954
  0
VERTEX
  8
0
 62
7
  6
CONTINUOUS
 10
60.3277292712
 20
497.9387398687
  0
VERTEX
  8
0
 62
7
  6
CONTINUOUS
 10
62.6950081708
 20
497.9921101683
  0
VERTEX
  8
0
 62
7
  6
CONTINUOUS
 10
65.0626293783
 20
498.0454447384
  0
VERTEX
  8
0
 62
7
  6
CONTINUOUS
 10
67.5741037703
 20
498.1019740496
  0
VERTEX
  8
0
 62
7
  6
CONTINUOUS
 10
70.0859360481
 20
498.1584660516
  0
SEQEND
  0
LINE
  8
0
 62
7
  6
CONTINUOUS
 10
-49.1962884868
 20
494.7465255561
 11
-48.6427458796
 21
494.7588851445
  0
POLYLINE
  8
0
 62
7
  6
CONTINUOUS
 66
1
 70
0
  0
VERTEX
  8
0
 62
7
  6
CONTINUOUS
 10
70.0859360481
 20
498.1584660516
  0
VERTEX
  8
0
 62
7
  6
CONTINUOUS
 10
75.1106184727
 20
498.2713440424
  0
VERTEX
  8
0
 62
7
  6
CONTINUOUS
 10
77.6234408321
 20
498.3277329738
  0
VERTEX
  8
0
 62
7
  6
CONTINUOUS
 10
80.1365654281
 20
498.3840904896
  0
SEQEND
  0
LINE
  8
0
 62
7
  6
CONTINUOUS
 10
80.1365655952
 20
498.3854071741
 11
80.9596429242
 21
498.4036325699
  0
LINE
  8
0
 62
7
  6
CONTINUOUS
 10
80.9596429242
 20
498.4036325699
 11
81.4152039656
 21
498.4135890171
  0
LINE
  8
0
 62
7
  6
CONTINUOUS
 10
80.1365654285
 20
498.3840904895
 11
81.6938105334
 21
498.4174731179
  0
LINE
  8
0
 62
7
  6
CONTINUOUS
 10
81.4152039656
 20
498.4135890171
 11
113.7446837696
 21
498.8642997104
  0
LINE
  8
0
 62
7
  6
CONTINUOUS
 10
113.7446837696
 20
498.8642997104
 11
146.533056556
 21
498.8601185407
  0
LINE
  8
0
 62
7
  6
CONTINUOUS
 10
146.533056556
 20
498.8601185407
 11
178.8579646065
 21
498.4012524599
  0
POLYLINE
  8
0
 62
7
  6
CONTINUOUS
 66
1
 70
0
  0
VERTEX
  8
0
 62
7
  6
CONTINUOUS
 10
309.4684933935
 20
494.7011199743
  0
VERTEX
  8
0
 62
7
  6
CONTINUOUS
 10
309.5395275845
 20
494.7000235907
  0
VERTEX
  8
0
 62
7
  6
CONTINUOUS
 10
309.6082132925
 20
494.6999271617
  0
VERTEX
  8
0
 62
7
  6
CONTINUOUS
 10
309.6769018643
 20
494.7007761308
  0
VERTEX
  8
0
 62
7
  6
CONTINUOUS
 10
309.7455891762
 20
494.7025690431
  0
VERTEX
  8
0
 62
7
  6
CONTINUOUS
 10
309.8142710765
 20
494.705304911
  0
VERTEX
  8
0
 62
7
  6
CONTINUOUS
 10
309.882943383
 20
494.7089832138
  0
VERTEX
  8
0
 62
7
  6
CONTINUOUS
 10
309.9516018817
 20
494.7136038969
  0
VERTEX
  8
0
 62
7
  6
CONTINUOUS
 10
310.0202423238
 20
494.7191673732
  0
VERTEX
  8
0
 62
7
  6
CONTINUOUS
 10
310.0888604236
 20
494.7256745256
  0
VERTEX
  8
0
 62
7
  6
CONTINUOUS
 10
310.1574518566
 20
494.7331267105
  0
VERTEX
  8
0
 62
7
  6
CONTINUOUS
 10
310.2260122564
 20
494.7415257635
  0
VERTEX
  8
0
 62
7
  6
CONTINUOUS
 10
310.257579248
 20
494.7457134559
  0
VERTEX
  8
0
 62
7
  6
CONTINUOUS
 10
310.3260834849
 20
494.7554993721
  0
VERTEX
  8
0
 62
7
  6
CONTINUOUS
 10
310.3943839078
 20
494.7662121509
  0
VERTEX
  8
0
 62
7
  6
CONTINUOUS
 10
310.4624768954
 20
494.7778486568
  0
VERTEX
  8
0
 62
7
  6
CONTINUOUS
 10
310.5303586982
 20
494.7904062336
  0
VERTEX
  8
0
 62
7
  6
CONTINUOUS
 10
310.5980215457
 20
494.8038818936
  0
VERTEX
  8
0
 62
7
  6
CONTINUOUS
 10
310.6654575482
 20
494.8182728933
  0
VERTEX
  8
0
 62
7
  6
CONTINUOUS
 10
310.7326604912
 20
494.8335771471
  0
VERTEX
  8
0
 62
7
  6
CONTINUOUS
 10
310.7996240817
 20
494.8497929126
  0
VERTEX
  8
0
 62
7
  6
CONTINUOUS
 10
310.8663419512
 20
494.8669187897
  0
VERTEX
  8
0
 62
7
  6
CONTINUOUS
 10
310.9328076582
 20
494.8849537209
  0
VERTEX
  8
0
 62
7
  6
CONTINUOUS
 10
310.9990146905
 20
494.9038969929
  0
VERTEX
  8
0
 62
7
  6
CONTINUOUS
 10
311.0649564676
 20
494.9237482397
  0
VERTEX
  8
0
 62
7
  6
CONTINUOUS
 10
311.1306263417
 20
494.9445074461
  0
VERTEX
  8
0
 62
7
  6
CONTINUOUS
 10
311.1960175991
 20
494.9661749537
  0
VERTEX
  8
0
 62
7
  6
CONTINUOUS
 10
311.261123461
 20
494.9887514669
  0
VERTEX
  8
0
 62
7
  6
CONTINUOUS
 10
311.3259376559
 20
495.0122382613
  0
VERTEX
  8
0
 62
7
  6
CONTINUOUS
 10
311.3904662619
 20
495.0366402566
  0
VERTEX
  8
0
 62
7
  6
CONTINUOUS
 10
311.4547179349
 20
495.0619615018
  0
VERTEX
  8
0
 62
7
  6
CONTINUOUS
 10
311.5186981593
 20
495.0882056868
  0
VERTEX
  8
0
 62
7
  6
CONTINUOUS
 10
311.5824098949
 20
495.1153765647
  0
VERTEX
  8
0
 62
7
  6
CONTINUOUS
 10
311.6458541113
 20
495.1434780253
  0
VERTEX
  8
0
 62
7
  6
CONTINUOUS
 10
311.7090301791
 20
495.1725141524
  0
VERTEX
  8
0
 62
7
  6
CONTINUOUS
 10
311.771936159
 20
495.2024892697
  0
VERTEX
  8
0
 62
7
  6
CONTINUOUS
 10
311.8345690191
 20
495.23340798
  0
VERTEX
  8
0
 62
7
  6
CONTINUOUS
 10
311.8607647633
 20
495.2466622771
  0
VERTEX
  8
0
 62
7
  6
CONTINUOUS
 10
311.9221019174
 20
495.2784540139
  0
VERTEX
  8
0
 62
7
  6
CONTINUOUS
 10
311.9829455196
 20
495.3110556028
  0
VERTEX
  8
0
 62
7
  6
CONTINUOUS
 10
312.0432933441
 20
495.3444627015
  0
VERTEX
  8
0
 62
7
  6
CONTINUOUS
 10
312.1031428837
 20
495.378671378
  0
VERTEX
  8
0
 62
7
  6
CONTINUOUS
 10
312.1624913523
 20
495.4136781034
  0
VERTEX
  8
0
 62
7
  6
CONTINUOUS
 10
312.221335687
 20
495.4494797453
  0
VERTEX
  8
0
 62
7
  6
CONTINUOUS
 10
312.2796725489
 20
495.4860735625
  0
VERTEX
  8
0
 62
7
  6
CONTINUOUS
 10
312.3374983236
 20
495.5234572009
  0
VERTEX
  8
0
 62
7
  6
CONTINUOUS
 10
312.3948091207
 20
495.5616286904
  0
VERTEX
  8
0
 62
7
  6
CONTINUOUS
 10
312.4515937368
 20
495.6005815455
  0
VERTEX
  8
0
 62
7
  6
CONTINUOUS
 10
312.5078439425
 20
495.6403114149
  0
VERTEX
  8
0
 62
7
  6
CONTINUOUS
 10
312.5635535801
 20
495.6808157286
  0
VERTEX
  8
0
 62
7
  6
CONTINUOUS
 10
312.6187162988
 20
495.7220922153
  0
VERTEX
  8
0
 62
7
  6
CONTINUOUS
 10
312.6733255546
 20
495.7641389074
  0
VERTEX
  8
0
 62
7
  6
CONTINUOUS
 10
312.727374609
 20
495.8069541469
  0
VERTEX
  8
0
 62
7
  6
CONTINUOUS
 10
312.7808565276
 20
495.8505365929
  0
VERTEX
  8
0
 62
7
  6
CONTINUOUS
 10
312.8337641769
 20
495.8948852298
  0
VERTEX
  8
0
 62
7
  6
CONTINUOUS
 10
312.886090221
 20
495.9399993766
  0
VERTEX
  8
0
 62
7
  6
CONTINUOUS
 10
312.9378287962
 20
495.9858800756
  0
VERTEX
  8
0
 62
7
  6
CONTINUOUS
 10
312.9889838323
 20
496.0325350391
  0
VERTEX
  8
0
 62
7
  6
CONTINUOUS
 10
313.0395594615
 20
496.0799706338
  0
VERTEX
  8
0
 62
7
  6
CONTINUOUS
 10
313.0895575158
 20
496.1281924119
  0
VERTEX
  8
0
 62
7
  6
CONTINUOUS
 10
313.1389778977
 20
496.177205415
  0
VERTEX
  8
0
 62
7
  6
CONTINUOUS
 10
313.1878188999
 20
496.2270143456
  0
VERTEX
  8
0
 62
7
  6
CONTINUOUS
 10
313.2071939606
 20
496.2471633934
  0
VERTEX
  8
0
 62
7
  6
CONTINUOUS
 10
313.2544622387
 20
496.2972811569
  0
VERTEX
  8
0
 62
7
  6
CONTINUOUS
 10
313.3010012582
 20
496.34800424
  0
VERTEX
  8
0
 62
7
  6
CONTINUOUS
 10
313.3468105891
 20
496.399327693
  0
VERTEX
  8
0
 62
7
  6
CONTINUOUS
 10
313.3918893992
 20
496.4512468595
  0
VERTEX
  8
0
 62
7
  6
CONTINUOUS
 10
313.4362364591
 20
496.50375737
  0
VERTEX
  8
0
 62
7
  6
CONTINUOUS
 10
313.4798501463
 20
496.5568551366
  0
VERTEX
  8
0
 62
7
  6
CONTINUOUS
 10
313.5227284483
 20
496.6105363481
  0
VERTEX
  8
0
 62
7
  6
CONTINUOUS
 10
313.5648689644
 20
496.6647974661
  0
VERTEX
  8
0
 62
7
  6
CONTINUOUS
 10
313.6062689061
 20
496.7196352222
  0
VERTEX
  8
0
 62
7
  6
CONTINUOUS
 10
313.6469250971
 20
496.775046615
  0
VERTEX
  8
0
 62
7
  6
CONTINUOUS
 10
313.6868339719
 20
496.8310289088
  0
VERTEX
  8
0
 62
7
  6
CONTINUOUS
 10
313.7259915731
 20
496.8875796329
  0
VERTEX
  8
0
 62
7
  6
CONTINUOUS
 10
313.7643935481
 20
496.9446965811
  0
VERTEX
  8
0
 62
7
  6
CONTINUOUS
 10
313.8020351441
 20
497.0023778121
  0
VERTEX
  8
0
 62
7
  6
CONTINUOUS
 10
313.8389087012
 20
497.0606176397
  0
VERTEX
  8
0
 62
7
  6
CONTINUOUS
 10
313.875001837
 20
497.1194030113
  0
VERTEX
  8
0
 62
7
  6
CONTINUOUS
 10
313.9103081077
 20
497.1787305232
  0
VERTEX
  8
0
 62
7
  6
CONTINUOUS
 10
313.9448207605
 20
497.2385970035
  0
VERTEX
  8
0
 62
7
  6
CONTINUOUS
 10
313.9785327259
 20
497.2989995213
  0
VERTEX
  8
0
 62
7
  6
CONTINUOUS
 10
314.0114366092
 20
497.3599353951
  0
VERTEX
  8
0
 62
7
  6
CONTINUOUS
 10
314.0435246811
 20
497.4214022033
  0
VERTEX
  8
0
 62
7
  6
CONTINUOUS
 10
314.0747909727
 20
497.483401326
  0
VERTEX
  8
0
 62
7
  6
CONTINUOUS
 10
314.1052354559
 20
497.5459413268
  0
VERTEX
  8
0
 62
7
  6
CONTINUOUS
 10
314.1348577314
 20
497.6090289879
  0
VERTEX
  8
0
 62
7
  6
CONTINUOUS
 10
314.1477851861
 20
497.6373034726
  0
VERTEX
  8
0
 62
7
  6
CONTINUOUS
 10
314.1757031937
 20
497.7000204506
  0
VERTEX
  8
0
 62
7
  6
CONTINUOUS
 10
314.2027356383
 20
497.7630726884
  0
VERTEX
  8
0
 62
7
  6
CONTINUOUS
 10
314.2288840092
 20
497.8264553611
  0
VERTEX
  8
0
 62
7
  6
CONTINUOUS
 10
314.2541493201
 20
497.890163786
  0
VERTEX
  8
0
 62
7
  6
CONTINUOUS
 10
314.2785321165
 20
497.9541934181
  0
VERTEX
  8
0
 62
7
  6
CONTINUOUS
 10
314.3020324812
 20
498.0185398462
  0
VERTEX
  8
0
 62
7
  6
CONTINUOUS
 10
314.3246500391
 20
498.0831987893
  0
VERTEX
  8
0
 62
7
  6
CONTINUOUS
 10
314.3463839604
 20
498.1481660936
  0
VERTEX
  8
0
 62
7
  6
CONTINUOUS
 10
314.3672329621
 20
498.21343773
  0
VERTEX
  8
0
 62
7
  6
CONTINUOUS
 10
314.3871953093
 20
498.2790097912
  0
VERTEX
  8
0
 62
7
  6
CONTINUOUS
 10
314.406268814
 20
498.3448784901
  0
VERTEX
  8
0
 62
7
  6
CONTINUOUS
 10
314.4244508338
 20
498.4110401578
  0
VERTEX
  8
0
 62
7
  6
CONTINUOUS
 10
314.4417382685
 20
498.4774912421
  0
VERTEX
  8
0
 62
7
  6
CONTINUOUS
 10
314.4581275559
 20
498.544228307
  0
VERTEX
  8
0
 62
7
  6
CONTINUOUS
 10
314.4736146663
 20
498.6112480312
  0
VERTEX
  8
0
 62
7
  6
CONTINUOUS
 10
314.4881950951
 20
498.6785472085
  0
VERTEX
  8
0
 62
7
  6
CONTINUOUS
 10
314.5018638553
 20
498.7461227469
  0
VERTEX
  8
0
 62
7
  6
CONTINUOUS
 10
314.5146154669
 20
498.8139716696
  0
VERTEX
  8
0
 62
7
  6
CONTINUOUS
 10
314.5264439465
 20
498.8820911153
  0
VERTEX
  8
0
 62
7
  6
CONTINUOUS
 10
314.537342794
 20
498.9504783389
  0
VERTEX
  8
0
 62
7
  6
CONTINUOUS
 10
314.5473041091
 20
499.0191244101
  0
VERTEX
  8
0
 62
7
  6
CONTINUOUS
 10
314.556318339
 20
499.0880086803
  0
VERTEX
  8
0
 62
7
  6
CONTINUOUS
 10
314.5643781334
 20
499.157126442
  0
VERTEX
  8
0
 62
7
  6
CONTINUOUS
 10
314.5714756941
 20
499.2264731231
  0
SEQEND
  0
LINE
  8
0
 62
7
  6
CONTINUOUS
 10
178.5975756373
 20
498.4049487942
 11
180.1365646272
 21
498.3714308742
  0
LINE
  8
0
 62
7
  6
CONTINUOUS
 10
178.8579646065
 20
498.4012524599
 11
179.3134921058
 21
498.3911813509
  0
LINE
  8
0
 62
7
  6
CONTINUOUS
 10
179.3134921058
 20
498.3911813509
 11
180.1365647939
 21
498.3727475588
  0
LINE
  8
0
 62
7
  6
CONTINUOUS
 10
308.9149539334
 20
494.7136197149
 11
309.4684933935
 21
494.7011199743
  0
POLYLINE
  8
0
 62
7
  6
CONTINUOUS
 66
1
 70
0
  0
VERTEX
  8
0
 62
7
  6
CONTINUOUS
 10
180.1365646276
 20
498.3714308743
  0
VERTEX
  8
0
 62
7
  6
CONTINUOUS
 10
182.9069145375
 20
498.3086022511
  0
VERTEX
  8
0
 62
7
  6
CONTINUOUS
 10
185.6769106631
 20
498.2457348571
  0
VERTEX
  8
0
 62
7
  6
CONTINUOUS
 10
188.446534145
 20
498.1828267321
  0
VERTEX
  8
0
 62
7
  6
CONTINUOUS
 10
191.2157660981
 20
498.1198759164
  0
VERTEX
  8
0
 62
7
  6
CONTINUOUS
 10
193.9845875665
 20
498.0568804446
  0
VERTEX
  8
0
 62
7
  6
CONTINUOUS
 10
196.7529794708
 20
497.9938383422
  0
VERTEX
  8
0
 62
7
  6
CONTINUOUS
 10
199.0780827177
 20
497.9408454948
  0
VERTEX
  8
0
 62
7
  6
CONTINUOUS
 10
201.4028580296
 20
497.8878171807
  0
VERTEX
  8
0
 62
7
  6
CONTINUOUS
 10
203.7272940259
 20
497.8347522273
  0
VERTEX
  8
0
 62
7
  6
CONTINUOUS
 10
206.0513792441
 20
497.7816494552
  0
VERTEX
  8
0
 62
7
  6
CONTINUOUS
 10
208.4173482789
 20
497.7275411018
  0
VERTEX
  8
0
 62
7
  6
CONTINUOUS
 10
210.7829296128
 20
497.6733910727
  0
VERTEX
  8
0
 62
7
  6
CONTINUOUS
 10
213.1481110885
 20
497.6191981221
  0
VERTEX
  8
0
 62
7
  6
CONTINUOUS
 10
215.5128804785
 20
497.564960999
  0
VERTEX
  8
0
 62
7
  6
CONTINUOUS
 10
217.8772254867
 20
497.5106784469
  0
VERTEX
  8
0
 62
7
  6
CONTINUOUS
 10
219.7346193991
 20
497.467995182
  0
VERTEX
  8
0
 62
7
  6
CONTINUOUS
 10
221.5917377413
 20
497.4252824866
  0
VERTEX
  8
0
 62
7
  6
CONTINUOUS
 10
223.4474872887
 20
497.3825647916
  0
VERTEX
  8
0
 62
7
  6
CONTINUOUS
 10
225.2993676399
 20
497.3398990945
  0
VERTEX
  8
0
 62
7
  6
CONTINUOUS
 10
227.1509542026
 20
497.2972024011
  0
VERTEX
  8
0
 62
7
  6
CONTINUOUS
 10
229.1144306091
 20
497.2518834735
  0
VERTEX
  8
0
 62
7
  6
CONTINUOUS
 10
231.0775630505
 20
497.2065282547
  0
VERTEX
  8
0
 62
7
  6
CONTINUOUS
 10
233.0403445884
 20
497.1611360117
  0
VERTEX
  8
0
 62
7
  6
CONTINUOUS
 10
235.002768281
 20
497.1157060109
  0
VERTEX
  8
0
 62
7
  6
CONTINUOUS
 10
236.9648271467
 20
497.0702375143
  0
VERTEX
  8
0
 62
7
  6
CONTINUOUS
 10
238.9265141879
 20
497.0247297817
  0
VERTEX
  8
0
 62
7
  6
CONTINUOUS
 10
240.8878224087
 20
496.979182073
  0
VERTEX
  8
0
 62
7
  6
CONTINUOUS
 10
242.8487448158
 20
496.9335936479
  0
VERTEX
  8
0
 62
7
  6
CONTINUOUS
 10
244.8092744178
 20
496.8879637662
  0
VERTEX
  8
0
 62
7
  6
CONTINUOUS
 10
246.7694042014
 20
496.842291685
  0
VERTEX
  8
0
 62
7
  6
CONTINUOUS
 10
248.7291271192
 20
496.7965766575
  0
VERTEX
  8
0
 62
7
  6
CONTINUOUS
 10
250.6884361228
 20
496.7508179366
  0
VERTEX
  8
0
 62
7
  6
CONTINUOUS
 10
252.3339306579
 20
496.7123462981
  0
VERTEX
  8
0
 62
7
  6
CONTINUOUS
 10
253.9791239882
 20
496.6738428593
  0
SEQEND
  0
POLYLINE
  8
0
 62
7
  6
CONTINUOUS
 66
1
 70
0
  0
VERTEX
  8
0
 62
7
  6
CONTINUOUS
 10
253.9791239882
 20
496.6738428593
  0
VERTEX
  8
0
 62
7
  6
CONTINUOUS
 10
257.2685903435
 20
496.5967388069
  0
VERTEX
  8
0
 62
7
  6
CONTINUOUS
 10
258.9427477698
 20
496.5574351467
  0
VERTEX
  8
0
 62
7
  6
CONTINUOUS
 10
260.6165754628
 20
496.5180966646
  0
VERTEX
  8
0
 62
7
  6
CONTINUOUS
 10
262.2900689694
 20
496.4787228893
  0
VERTEX
  8
0
 62
7
  6
CONTINUOUS
 10
263.9632238377
 20
496.4393133497
  0
SEQEND
  0
POLYLINE
  8
0
 62
7
  6
CONTINUOUS
 66
1
 70
0
  0
VERTEX
  8
0
 62
7
  6
CONTINUOUS
 10
263.9632238377
 20
496.4393133497
  0
VERTEX
  8
0
 62
7
  6
CONTINUOUS
 10
266.3299094065
 20
496.38346849
  0
VERTEX
  8
0
 62
7
  6
CONTINUOUS
 10
267.0196793506
 20
496.3671106775
  0
VERTEX
  8
0
 62
7
  6
CONTINUOUS
 10
267.7053732265
 20
496.3507938619
  0
VERTEX
  8
0
 62
7
  6
CONTINUOUS
 10
268.3870155471
 20
496.3345177964
  0
VERTEX
  8
0
 62
7
  6
CONTINUOUS
 10
269.0769094879
 20
496.3179874603
  0
VERTEX
  8
0
 62
7
  6
CONTINUOUS
 10
269.7626441949
 20
496.3014989567
  0
VERTEX
  8
0
 62
7
  6
CONTINUOUS
 10
270.4442343662
 20
496.2850521377
  0
VERTEX
  8
0
 62
7
  6
CONTINUOUS
 10
271.1216926437
 20
496.2686468762
  0
VERTEX
  8
0
 62
7
  6
CONTINUOUS
 10
271.7950287642
 20
496.2522830742
  0
VERTEX
  8
0
 62
7
  6
CONTINUOUS
 10
272.4642478463
 20
496.2359606803
  0
VERTEX
  8
0
 62
7
  6
CONTINUOUS
 10
273.1293539687
 20
496.2196796535
  0
VERTEX
  8
0
 62
7
  6
CONTINUOUS
 10
273.7903462994
 20
496.2034400021
  0
VERTEX
  8
0
 62
7
  6
CONTINUOUS
 10
274.4472216789
 20
496.1872417579
  0
VERTEX
  8
0
 62
7
  6
CONTINUOUS
 10
275.099974473
 20
496.1710849776
  0
VERTEX
  8
0
 62
7
  6
CONTINUOUS
 10
275.6897998195
 20
496.1564330654
  0
VERTEX
  8
0
 62
7
  6
CONTINUOUS
 10
276.276200853
 20
496.141815594
  0
VERTEX
  8
0
 62
7
  6
CONTINUOUS
 10
276.8591658233
 20
496.1272326817
  0
VERTEX
  8
0
 62
7
  6
CONTINUOUS
 10
277.4386803082
 20
496.1126844734
  0
VERTEX
  8
0
 62
7
  6
CONTINUOUS
 10
278.0147292936
 20
496.0981711201
  0
VERTEX
  8
0
 62
7
  6
CONTINUOUS
 10
278.5872936969
 20
496.0836928139
  0
VERTEX
  8
0
 62
7
  6
CONTINUOUS
 10
279.1563524941
 20
496.0692497661
  0
VERTEX
  8
0
 62
7
  6
CONTINUOUS
 10
279.7671578685
 20
496.0536864046
  0
VERTEX
  8
0
 62
7
  6
CONTINUOUS
 10
280.3718850898
 20
496.0382142074
  0
VERTEX
  8
0
 62
7
  6
CONTINUOUS
 10
280.9692436753
 20
496.0228664627
  0
VERTEX
  8
0
 62
7
  6
CONTINUOUS
 10
281.5592831257
 20
496.0076423343
  0
VERTEX
  8
0
 62
7
  6
CONTINUOUS
 10
282.1525740403
 20
495.9922676783
  0
VERTEX
  8
0
 62
7
  6
CONTINUOUS
 10
282.7383627
 20
495.9770197314
  0
VERTEX
  8
0
 62
7
  6
CONTINUOUS
 10
283.3166810985
 20
495.9618979534
  0
VERTEX
  8
0
 62
7
  6
CONTINUOUS
 10
283.8875574668
 20
495.9469018674
  0
VERTEX
  8
0
 62
7
  6
CONTINUOUS
 10
284.4510147335
 20
495.9320310862
  0
VERTEX
  8
0
 62
7
  6
CONTINUOUS
 10
285.0070674324
 20
495.9172853643
  0
VERTEX
  8
0
 62
7
  6
CONTINUOUS
 10
285.555728213
 20
495.9026644881
  0
VERTEX
  8
0
 62
7
  6
CONTINUOUS
 10
286.0970008592
 20
495.8881683936
  0
VERTEX
  8
0
 62
7
  6
CONTINUOUS
 10
286.6308849703
 20
495.8737970876
  0
VERTEX
  8
0
 62
7
  6
CONTINUOUS
 10
287.1573757085
 20
495.8595506519
  0
VERTEX
  8
0
 62
7
  6
CONTINUOUS
 10
287.6295765346
 20
495.8467078974
  0
VERTEX
  8
0
 62
7
  6
CONTINUOUS
 10
287.7221582045
 20
495.8441824159
  0
SEQEND
  0
POLYLINE
  8
0
 62
7
  6
CONTINUOUS
 66
1
 70
0
  0
VERTEX
  8
0
 62
7
  6
CONTINUOUS
 10
301.7277215015
 20
495.3717486988
  0
VERTEX
  8
0
 62
7
  6
CONTINUOUS
 10
301.3025186481
 20
495.4035345622
  0
VERTEX
  8
0
 62
7
  6
CONTINUOUS
 10
300.5640547854
 20
495.4413825057
  0
VERTEX
  8
0
 62
7
  6
CONTINUOUS
 10
299.2495962497
 20
495.494567493
  0
VERTEX
  8
0
 62
7
  6
CONTINUOUS
 10
296.8045137048
 20
495.5787368061
  0
VERTEX
  8
0
 62
7
  6
CONTINUOUS
 10
292.4822776991
 20
495.7105303023
  0
VERTEX
  8
0
 62
7
  6
CONTINUOUS
 10
287.7457024947
 20
495.8436550798
  0
SEQEND
  0
POLYLINE
  8
0
 62
7
  6
CONTINUOUS
 66
1
 70
0
  0
VERTEX
  8
0
 62
7
  6
CONTINUOUS
 10
301.7246652285
 20
495.3719771692
  0
VERTEX
  8
0
 62
7
  6
CONTINUOUS
 10
309.0986028106
 20
494.6967883625
  0
VERTEX
  8
0
 62
7
  6
CONTINUOUS
 10
309.2109151708
 20
494.6849422936
  0
VERTEX
  8
0
 62
7
  6
CONTINUOUS
 10
309.3229788629
 20
494.6705703183
  0
VERTEX
  8
0
 62
7
  6
CONTINUOUS
 10
309.4347755947
 20
494.6536760841
  0
VERTEX
  8
0
 62
7
  6
CONTINUOUS
 10
309.546286453
 20
494.6342598696
  0
VERTEX
  8
0
 62
7
  6
CONTINUOUS
 10
309.6574918764
 20
494.6123185743
  0
VERTEX
  8
0
 62
7
  6
CONTINUOUS
 10
309.768371622
 20
494.5878456828
  0
VERTEX
  8
0
 62
7
  6
CONTINUOUS
 10
309.8789047277
 20
494.5608312035
  0
VERTEX
  8
0
 62
7
  6
CONTINUOUS
 10
309.9890694695
 20
494.5312615798
  0
VERTEX
  8
0
 62
7
  6
CONTINUOUS
 10
310.0988433122
 20
494.4991195731
  0
VERTEX
  8
0
 62
7
  6
CONTINUOUS
 10
310.2082028539
 20
494.4643841144
  0
VERTEX
  8
0
 62
7
  6
CONTINUOUS
 10
310.3005487158
 20
494.4328948087
  0
VERTEX
  8
0
 62
7
  6
CONTINUOUS
 10
310.4072031
 20
494.3940069041
  0
VERTEX
  8
0
 62
7
  6
CONTINUOUS
 10
310.5127084578
 20
494.3528097339
  0
VERTEX
  8
0
 62
7
  6
CONTINUOUS
 10
310.6170427906
 20
494.3093204569
  0
VERTEX
  8
0
 62
7
  6
CONTINUOUS
 10
310.7201833963
 20
494.2635536534
  0
VERTEX
  8
0
 62
7
  6
CONTINUOUS
 10
310.8221597797
 20
494.2154982204
  0
VERTEX
  8
0
 62
7
  6
CONTINUOUS
 10
310.9230489039
 20
494.1651260301
  0
VERTEX
  8
0
 62
7
  6
CONTINUOUS
 10
311.0228806934
 20
494.1124266867
  0
VERTEX
  8
0
 62
7
  6
CONTINUOUS
 10
311.121659976
 20
494.057395089
  0
VERTEX
  8
0
 62
7
  6
CONTINUOUS
 10
311.2193777064
 20
494.0000278789
  0
VERTEX
  8
0
 62
7
  6
CONTINUOUS
 10
311.3159830988
 20
493.9403427543
  0
VERTEX
  8
0
 62
7
  6
CONTINUOUS
 10
311.4114319928
 20
493.8783524986
  0
VERTEX
  8
0
 62
7
  6
CONTINUOUS
 10
311.5057083819
 20
493.8140486967
  0
VERTEX
  8
0
 62
7
  6
CONTINUOUS
 10
311.5987928002
 20
493.7474198473
  0
VERTEX
  8
0
 62
7
  6
CONTINUOUS
 10
311.6906625219
 20
493.6784511908
  0
VERTEX
  8
0
 62
7
  6
CONTINUOUS
 10
311.7650379956
 20
493.6201648207
  0
VERTEX
  8
0
 62
7
  6
CONTINUOUS
 10
311.853113775
 20
493.5481572512
  0
VERTEX
  8
0
 62
7
  6
CONTINUOUS
 10
311.9393893462
 20
493.4743111004
  0
VERTEX
  8
0
 62
7
  6
CONTINUOUS
 10
312.0238484827
 20
493.3986507857
  0
VERTEX
  8
0
 62
7
  6
CONTINUOUS
 10
312.1064732701
 20
493.3211986829
  0
VERTEX
  8
0
 62
7
  6
CONTINUOUS
 10
312.1872441515
 20
493.2419751272
  0
VERTEX
  8
0
 62
7
  6
CONTINUOUS
 10
312.2661399541
 20
493.160998397
  0
VERTEX
  8
0
 62
7
  6
CONTINUOUS
 10
312.3431378961
 20
493.0782846804
  0
VERTEX
  8
0
 62
7
  6
CONTINUOUS
 10
312.4182250349
 20
492.9938358035
  0
VERTEX
  8
0
 62
7
  6
CONTINUOUS
 10
312.4914352926
 20
492.9076085923
  0
VERTEX
  8
0
 62
7
  6
CONTINUOUS
 10
312.5627898972
 20
492.8195758262
  0
VERTEX
  8
0
 62
7
  6
CONTINUOUS
 10
312.6322922058
 20
492.7297208089
  0
VERTEX
  8
0
 62
7
  6
CONTINUOUS
 10
312.6999333138
 20
492.6380326809
  0
VERTEX
  8
0
 62
7
  6
CONTINUOUS
 10
312.7656953894
 20
492.5445038104
  0
VERTEX
  8
0
 62
7
  6
CONTINUOUS
 10
312.8295536444
 20
492.4491281654
  0
VERTEX
  8
0
 62
7
  6
CONTINUOUS
 10
312.878854251
 20
492.3721236832
  0
VERTEX
  8
0
 62
7
  6
CONTINUOUS
 10
312.9381650737
 20
492.2751878543
  0
VERTEX
  8
0
 62
7
  6
CONTINUOUS
 10
312.9952057014
 20
492.1770543296
  0
VERTEX
  8
0
 62
7
  6
CONTINUOUS
 10
313.0499733662
 20
492.0777430295
  0
VERTEX
  8
0
 62
7
  6
CONTINUOUS
 10
313.1024576866
 20
491.9772810068
  0
VERTEX
  8
0
 62
7
  6
CONTINUOUS
 10
313.1526410402
 20
491.875704318
  0
VERTEX
  8
0
 62
7
  6
CONTINUOUS
 10
313.2005089692
 20
491.7730381663
  0
VERTEX
  8
0
 62
7
  6
CONTINUOUS
 10
313.2460447123
 20
491.6693065469
  0
VERTEX
  8
0
 62
7
  6
CONTINUOUS
 10
313.2892291908
 20
491.5645322052
  0
VERTEX
  8
0
 62
7
  6
CONTINUOUS
 10
313.330040972
 20
491.458736585
  0
VERTEX
  8
0
 62
7
  6
CONTINUOUS
 10
313.3684562068
 20
491.3519397665
  0
VERTEX
  8
0
 62
7
  6
CONTINUOUS
 10
313.404449483
 20
491.2441576817
  0
VERTEX
  8
0
 62
7
  6
CONTINUOUS
 10
313.4380141266
 20
491.1353578894
  0
VERTEX
  8
0
 62
7
  6
CONTINUOUS
 10
313.4691500325
 20
491.0255069975
  0
VERTEX
  8
0
 62
7
  6
CONTINUOUS
 10
313.4978472187
 20
490.9145839267
  0
VERTEX
  8
0
 62
7
  6
CONTINUOUS
 10
313.5190942354
 20
490.8248107792
  0
VERTEX
  8
0
 62
7
  6
CONTINUOUS
 10
313.5428924228
 20
490.7141479422
  0
VERTEX
  8
0
 62
7
  6
CONTINUOUS
 10
313.5641634145
 20
490.6030738863
  0
VERTEX
  8
0
 62
7
  6
CONTINUOUS
 10
313.5829135056
 20
490.4916082371
  0
VERTEX
  8
0
 62
7
  6
CONTINUOUS
 10
313.5991454486
 20
490.3797702956
  0
VERTEX
  8
0
 62
7
  6
CONTINUOUS
 10
313.6128585084
 20
490.2675790688
  0
VERTEX
  8
0
 62
7
  6
CONTINUOUS
 10
313.6240484902
 20
490.1550532978
  0
VERTEX
  8
0
 62
7
  6
CONTINUOUS
 10
313.6327077416
 20
490.0422114846
  0
VERTEX
  8
0
 62
7
  6
CONTINUOUS
 10
313.6388251292
 20
489.9290719163
  0
VERTEX
  8
0
 62
7
  6
CONTINUOUS
 10
313.6423859881
 20
489.8156526875
  0
VERTEX
  8
0
 62
7
  6
CONTINUOUS
 10
313.6433720459
 20
489.7019717221
  0
VERTEX
  8
0
 62
7
  6
CONTINUOUS
 10
313.6417619427
 20
489.5880712562
  0
VERTEX
  8
0
 62
7
  6
CONTINUOUS
 10
313.6375334614
 20
489.4740085633
  0
VERTEX
  8
0
 62
7
  6
CONTINUOUS
 10
313.6306619102
 20
489.3598105969
  0
VERTEX
  8
0
 62
7
  6
CONTINUOUS
 10
313.6211193353
 20
489.2455039172
  0
SEQEND
  0
LINE
  8
0
 62
7
  6
CONTINUOUS
 10
129.5634752511
 20
559.3613242571
 11
129.3721759416
 21
559.3072993952
  0
LINE
  8
0
 62
7
  6
CONTINUOUS
 10
109.0011621754
 20
554.3368346614
 11
103.0651868485
 21
552.7160108933
  0
LINE
  8
0
 62
7
  6
CONTINUOUS
 10
-25.514996343
 20
547.6969985291
 11
-31.3001068328
 21
546.2502757887
  0
LINE
  8
0
 62
7
  6
CONTINUOUS
 10
127.3022879994
 20
558.8913244862
 11
125.5616040925
 21
558.4685321318
  0
LINE
  8
0
 62
7
  6
CONTINUOUS
 10
129.3721759416
 20
559.3072993952
 11
129.1420614188
 21
559.2543556987
  0
LINE
  8
0
 62
7
  6
CONTINUOUS
 10
128.8777590612
 20
559.2034838168
 11
127.3022879994
 21
558.8913244862
  0
LINE
  8
0
 62
7
  6
CONTINUOUS
 10
129.1420614188
 20
559.2543556987
 11
128.8777590612
 21
559.2034859344
  0
LINE
  8
0
 62
7
  6
CONTINUOUS
 10
-20.5717046349
 20
548.1909232862
 11
-25.514996343
 21
547.6969985291
  0
LINE
  8
0
 62
7
  6
CONTINUOUS
 10
80.1447420686
 20
551.5634436083
 11
-20.5737340405
 21
548.1905542549
  0
LINE
  8
0
 62
7
  6
CONTINUOUS
 10
121.4778783347
 20
554.2491939037
 11
151.6061644082
 21
554.2491939037
  0
LINE
  8
0
 62
7
  6
CONTINUOUS
 10
109.0011621754
 20
554.3368346614
 11
121.5327969218
 21
554.3368346614
  0
LINE
  8
0
 62
7
  6
CONTINUOUS
 10
111.6344780314
 20
557.7343425144
 11
123.2397813292
 21
557.7343425144
  0
LINE
  8
0
 62
7
  6
CONTINUOUS
 10
123.6605973787
 20
557.9117562655
 11
148.7674120172
 21
557.9117562655
  0
POLYLINE
  8
0
 62
7
  6
CONTINUOUS
 66
1
 70
0
  0
VERTEX
  8
0
 62
7
  6
CONTINUOUS
 10
147.0504741834
 20
552.3025467555
  0
VERTEX
  8
0
 62
7
  6
CONTINUOUS
 10
113.2194015885
 20
552.3066356641
  0
VERTEX
  8
0
 62
7
  6
CONTINUOUS
 10
80.1447404741
 20
551.5634784415
  0
SEQEND
  0
LINE
  8
0
 62
7
  6
CONTINUOUS
 10
180.1418541945
 20
551.5508191915
 11
147.0504741834
 21
552.3025467555
  0
LINE
  8
0
 62
7
  6
CONTINUOUS
 10
280.8577147184
 20
548.1527542643
 11
280.8594808228
 21
548.1526951343
  0
LINE
  8
0
 62
7
  6
CONTINUOUS
 10
280.8594714813
 20
548.1523939704
 11
180.1418525902
 21
551.5507843587
  0
POLYLINE
  8
0
 62
7
  6
CONTINUOUS
 66
1
 70
0
  0
VERTEX
  8
0
 62
7
  6
CONTINUOUS
 10
291.5615971298
 20
546.2173815684
  0
VERTEX
  8
0
 62
7
  6
CONTINUOUS
 10
285.7503019014
 20
547.6659803056
  0
VERTEX
  8
0
 62
7
  6
CONTINUOUS
 10
280.8573623238
 20
548.1527661553
  0
SEQEND
  0
LINE
  8
0
 62
7
  6
CONTINUOUS
 10
151.6061644082
 20
554.2491939037
 11
157.2211712339
 21
552.7160108933
  0
LINE
  8
0
 62
7
  6
CONTINUOUS
 10
296.9439166613
 20
543.93531051
 11
291.5615971298
 21
546.2173815684
  0
POLYLINE
  8
0
 62
7
  6
CONTINUOUS
 66
1
 70
0
  0
VERTEX
  8
0
 62
7
  6
CONTINUOUS
 10
296.9316332255
 20
543.9325009535
  0
VERTEX
  8
0
 62
7
  6
CONTINUOUS
 10
296.7697007938
 20
544.0170243221
  0
VERTEX
  8
0
 62
7
  6
CONTINUOUS
 10
296.6072586439
 20
544.1007428909
  0
VERTEX
  8
0
 62
7
  6
CONTINUOUS
 10
296.444307201
 20
544.1836549796
  0
VERTEX
  8
0
 62
7
  6
CONTINUOUS
 10
296.2808468636
 20
544.2657588607
  0
VERTEX
  8
0
 62
7
  6
CONTINUOUS
 10
296.1168780037
 20
544.347052759
  0
VERTEX
  8
0
 62
7
  6
CONTINUOUS
 10
295.9524009664
 20
544.4275348513
  0
VERTEX
  8
0
 62
7
  6
CONTINUOUS
 10
295.7874160701
 20
544.5072032658
  0
VERTEX
  8
0
 62
7
  6
CONTINUOUS
 10
295.6219236059
 20
544.586056082
  0
VERTEX
  8
0
 62
7
  6
CONTINUOUS
 10
295.455923838
 20
544.6640913299
  0
VERTEX
  8
0
 62
7
  6
CONTINUOUS
 10
295.2894170028
 20
544.7413069896
  0
VERTEX
  8
0
 62
7
  6
CONTINUOUS
 10
295.1224033096
 20
544.817700991
  0
VERTEX
  8
0
 62
7
  6
CONTINUOUS
 10
294.9548829396
 20
544.893271213
  0
VERTEX
  8
0
 62
7
  6
CONTINUOUS
 10
294.7868560462
 20
544.9680154832
  0
VERTEX
  8
0
 62
7
  6
CONTINUOUS
 10
294.6183227545
 20
545.0419315772
  0
VERTEX
  8
0
 62
7
  6
CONTINUOUS
 10
294.4492831613
 20
545.115017218
  0
VERTEX
  8
0
 62
7
  6
CONTINUOUS
 10
294.2797373348
 20
545.1872700754
  0
VERTEX
  8
0
 62
7
  6
CONTINUOUS
 10
294.109685314
 20
545.2586877656
  0
VERTEX
  8
0
 62
7
  6
CONTINUOUS
 10
293.9391271091
 20
545.3292678501
  0
VERTEX
  8
0
 62
7
  6
CONTINUOUS
 10
293.7680627006
 20
545.3990078355
  0
VERTEX
  8
0
 62
7
  6
CONTINUOUS
 10
293.5964920394
 20
545.4679051723
  0
VERTEX
  8
0
 62
7
  6
CONTINUOUS
 10
293.4244150461
 20
545.5359572549
  0
VERTEX
  8
0
 62
7
  6
CONTINUOUS
 10
293.2518316112
 20
545.6031614198
  0
VERTEX
  8
0
 62
7
  6
CONTINUOUS
 10
293.0915107164
 20
545.6646556562
  0
VERTEX
  8
0
 62
7
  6
CONTINUOUS
 10
292.9206738086
 20
545.7291983519
  0
VERTEX
  8
0
 62
7
  6
CONTINUOUS
 10
292.7495735108
 20
545.7928276136
  0
VERTEX
  8
0
 62
7
  6
CONTINUOUS
 10
292.5782112332
 20
545.8555441139
  0
VERTEX
  8
0
 62
7
  6
CONTINUOUS
 10
292.4065883875
 20
545.9173484669
  0
VERTEX
  8
0
 62
7
  6
CONTINUOUS
 10
292.2347063754
 20
545.9782412331
  0
VERTEX
  8
0
 62
7
  6
CONTINUOUS
 10
292.0625665779
 20
546.0382229234
  0
VERTEX
  8
0
 62
7
  6
CONTINUOUS
 10
291.8901703633
 20
546.097293997
  0
VERTEX
  8
0
 62
7
  6
CONTINUOUS
 10
291.7175190871
 20
546.1554548613
  0
VERTEX
  8
0
 62
7
  6
CONTINUOUS
 10
291.6724803421
 20
546.1703677544
  0
SEQEND
  0
ARC
  8
0
 62
7
  6
CONTINUOUS
 10
130.1431790412
 20
482.926783842
 40
77.2632392753
 50
76.0515336486
 51
90.1781938991
  0
ARC
  8
0
 62
7
  6
CONTINUOUS
 10
130.1431790412
 20
482.926783842
 40
77.0632392753
 50
90.5504097442
 51
103.8968979651
  0
ARC
  8
0
 62
7
  6
CONTINUOUS
 10
156.9577632007
 20
551.7513263812
 40
1.0
 50
20.0
 51
74.7276206907
  0
ARC
  8
0
 62
7
  6
CONTINUOUS
 10
103.3285948817
 20
551.7513263812
 40
1.0
 50
105.2723793093
 51
160.0
  0
ENDSEC
  0
EOF
