999
DXF file: k:\Client\125_Heirloom\001\00\Creo\ASM WITH VIEWS\centrocc-372100_50_4.dxf
999
Pro/ENGINEER 2017110 by Parametric Technology Corporation
  0
SECTION
  2
HEADER
  9
$EXTMAX
 10
420.0
 20
297.0
 30
0.0
  9
$EXTMIN
 10
0.0
 20
0.0
 30
0.0
  9
$LIMMIN
 10
0.0
 20
0.0
  9
$LIMMAX
 10
420.0
 20
297.0
  9
$VIEWCTR
 10
210.0
 20
148.5
  9
$VIEWSIZE
 40
297.0
  9
$CLAYER
  8
0
  9
$LTSCALE
 40
23.1
  9
$CELTYPE
  6
BYLAYER
  9
$DIMSCALE
 40
1.0
  9
$DIMASZ
 40
3.0
  9
$DIMEXO
 40
1.0
  9
$DIMDLI
 40
15.96
  9
$DIMEXE
 40
1.0
  9
$DIMCEN
 40
3.78
  9
$DIMLFAC
 40
1.0
  9
$DIMBLK
  1
_FILLED
  9
$DIMALT
 70
0
  9
$DIMALTF
 40
0.0393700787
  9
$DIMTXT
 40
3.0
  9
$AUNITS
 70
0
  9
$PDMODE
 70
3
  9
$PDSIZE
 40
5.0
  9
$TILEMODE
 70
1
  0
ENDSEC
  0
SECTION
  2
TABLES
  0
TABLE
  2
LTYPE
 70
6
  0
LTYPE
  2
BYBLOCK
 70
0
  3

 72
65
 73
0
 40
0.0
  0
LTYPE
  2
BYLAYER
 70
0
  3

 72
65
 73
0
 40
0.0
  0
LTYPE
  2
CONTINUOUS
 70
64
  3
Solid line
 72
65
 73
0
 40
0.0
  0
LTYPE
  2
CENTER
 70
64
  3
____ _ ____ _ ____ _ ____ _ ____ _ ____ _ ____
 72
65
 73
4
 40
0.6
 49
0.375
 49
-0.075
 49
0.075
 49
-0.075
  0
LTYPE
  2
HIDDEN
 70
64
  3
- - - - - - - - - - - - - - - - - - - -
 72
65
 73
2
 40
0.2
 49
0.1
 49
-0.1
  0
LTYPE
  2
PHANTOM
 70
64
  3
_____ _ _ _____ _ _ _____ _ _ _____
 72
65
 73
6
 40
0.8
 49
0.45
 49
-0.05
 49
0.1
 49
-0.05
 49
0.1
 49
-0.05
  0
LTYPE
  2
DOT
 70
64
  3
. . . . . . . . . . . . . . . . . . . .
 72
65
 73
2
 40
0.2
 49
0.1
 49
-0.1
  0
LTYPE
  2
DASHED
 70
64
  3
- - - - - - - - - - - - - - - - - - - -
 72
65
 73
2
 40
0.2
 49
0.1
 49
-0.1
  0
ENDTAB
  0
TABLE
  2
LAYER
 70
36
  0
LAYER
  2
0
 70
0
 62
7
  6
CONTINUOUS
  0
LAYER
  2
DEFAULT_1
 70
0
 62
7
  6
CENTER
  0
LAYER
  2
DEFAULT_2
 70
0
 62
8
  6
HIDDEN
  0
LAYER
  2
DEFAULT_3
 70
0
 62
7
  6
PHANTOM
  0
LAYER
  2
0000_BOM
 70
0
 62
7
  6
CONTINUOUS
  0
LAYER
  2
0000_REV_TABLE
 70
0
 62
7
  6
CONTINUOUS
  0
LAYER
  2
0000_STEVENS_NOTE
 70
0
 62
7
  6
CONTINUOUS
  0
LAYER
  2
CAD-MASTER_ZINC-PL
 70
0
 62
7
  6
CONTINUOUS
  0
LAYER
  2
SHELL
 70
0
 62
7
  6
CONTINUOUS
  0
ENDTAB
  0
TABLE
  2
STYLE
 70
1
  0
STYLE
  2
STANDARD
 70
0
 40
0.0
 41
0.75
 50
0.0
 71
0
 42
0.2
  3
txt
  4

  0
STYLE
  2
TEXTSTYLE_1
 70
0
 40
0.0
 41
0.8
 50
0.0
 71
0
 42
0.2
  3
gdt
  4

  0
ENDTAB
  0
ENDSEC
  0
SECTION
  2
BLOCKS
  0
BLOCK
  8
0
 62
5
  6
CONTINUOUS
  2
PLUMBING_BL0
 70
64
 10
209.4786948039
 20
-264.5873013274
  0
CIRCLE
  8
0
 62
5
  6
CONTINUOUS
 10
209.4786948039
 20
-264.5873013274
 40
12.5
  0
LINE
  8
0
 62
5
  6
CONTINUOUS
 10
221.9786948039
 20
-252.0873013274
 11
196.9786948039
 21
-277.0873013274
  0
LINE
  8
0
 62
5
  6
CONTINUOUS
 10
209.4786948039
 20
-264.5873013274
 11
196.9786948039
 21
-252.0873013274
  0
LINE
  8
0
 62
5
  6
CONTINUOUS
 10
209.4786948039
 20
-264.5873013274
 11
221.9786948039
 21
-277.0873013274
  0
ENDBLK
  8
0
  6
BYBLOCK
 62
0
  0
ENDSEC
  0
SECTION
  2
ENTITIES
  0
INSERT
  8
0
 62
5
  6
CONTINUOUS
  2
PLUMBING_BL0
 10
209.4786948039
 20
-264.5873013274
  0
POLYLINE
  8
0
 62
7
  6
CONTINUOUS
 66
1
 70
0
  0
VERTEX
  8
0
 62
7
  6
CONTINUOUS
 10
42.5891759983
 20
527.0454600312
  0
VERTEX
  8
0
 62
7
  6
CONTINUOUS
 10
42.7511084301
 20
527.1299833998
  0
VERTEX
  8
0
 62
7
  6
CONTINUOUS
 10
42.9135505799
 20
527.2137019686
  0
VERTEX
  8
0
 62
7
  6
CONTINUOUS
 10
43.0765020228
 20
527.2966140573
  0
VERTEX
  8
0
 62
7
  6
CONTINUOUS
 10
43.2399623602
 20
527.3787179384
  0
VERTEX
  8
0
 62
7
  6
CONTINUOUS
 10
43.4039312201
 20
527.4600118367
  0
VERTEX
  8
0
 62
7
  6
CONTINUOUS
 10
43.5684082574
 20
527.540493929
  0
VERTEX
  8
0
 62
7
  6
CONTINUOUS
 10
43.7333931537
 20
527.6201623435
  0
VERTEX
  8
0
 62
7
  6
CONTINUOUS
 10
43.8988856179
 20
527.6990151597
  0
VERTEX
  8
0
 62
7
  6
CONTINUOUS
 10
44.0648853859
 20
527.7770504076
  0
VERTEX
  8
0
 62
7
  6
CONTINUOUS
 10
44.231392221
 20
527.8542660673
  0
VERTEX
  8
0
 62
7
  6
CONTINUOUS
 10
44.3984059142
 20
527.9306600687
  0
VERTEX
  8
0
 62
7
  6
CONTINUOUS
 10
44.5659262842
 20
528.0062302907
  0
VERTEX
  8
0
 62
7
  6
CONTINUOUS
 10
44.7339531777
 20
528.0809745609
  0
VERTEX
  8
0
 62
7
  6
CONTINUOUS
 10
44.9024864693
 20
528.1548906549
  0
VERTEX
  8
0
 62
7
  6
CONTINUOUS
 10
45.0715260625
 20
528.2279762957
  0
VERTEX
  8
0
 62
7
  6
CONTINUOUS
 10
45.2410718891
 20
528.3002291531
  0
VERTEX
  8
0
 62
7
  6
CONTINUOUS
 10
45.4111239098
 20
528.3716468433
  0
VERTEX
  8
0
 62
7
  6
CONTINUOUS
 10
45.5816821147
 20
528.4422269278
  0
VERTEX
  8
0
 62
7
  6
CONTINUOUS
 10
45.7527465232
 20
528.5119669132
  0
VERTEX
  8
0
 62
7
  6
CONTINUOUS
 10
45.9243171845
 20
528.5808642501
  0
VERTEX
  8
0
 62
7
  6
CONTINUOUS
 10
46.0963941777
 20
528.6489163326
  0
VERTEX
  8
0
 62
7
  6
CONTINUOUS
 10
46.2689776126
 20
528.7161204975
  0
VERTEX
  8
0
 62
7
  6
CONTINUOUS
 10
46.4292985074
 20
528.7776147339
  0
VERTEX
  8
0
 62
7
  6
CONTINUOUS
 10
46.6001354152
 20
528.8421574296
  0
VERTEX
  8
0
 62
7
  6
CONTINUOUS
 10
46.771235713
 20
528.9057866913
  0
VERTEX
  8
0
 62
7
  6
CONTINUOUS
 10
46.9425979906
 20
528.9685031916
  0
VERTEX
  8
0
 62
7
  6
CONTINUOUS
 10
47.1142208363
 20
529.0303075446
  0
VERTEX
  8
0
 62
7
  6
CONTINUOUS
 10
47.2861028484
 20
529.0912003108
  0
VERTEX
  8
0
 62
7
  6
CONTINUOUS
 10
47.4582426459
 20
529.1511820011
  0
VERTEX
  8
0
 62
7
  6
CONTINUOUS
 10
47.6306388606
 20
529.2102530747
  0
VERTEX
  8
0
 62
7
  6
CONTINUOUS
 10
47.8032901367
 20
529.268413939
  0
SEQEND
  0
LINE
  8
0
 62
7
  6
CONTINUOUS
 10
47.8032901367
 20
529.268413939
 11
47.9761951311
 21
529.3256649501
  0
POLYLINE
  8
0
 62
7
  6
CONTINUOUS
 66
1
 70
0
  0
VERTEX
  8
0
 62
7
  6
CONTINUOUS
 10
47.9761951311
 20
529.3256649501
  0
VERTEX
  8
0
 62
7
  6
CONTINUOUS
 10
48.1493525128
 20
529.3820064131
  0
VERTEX
  8
0
 62
7
  6
CONTINUOUS
 10
48.3227609627
 20
529.4374385821
  0
VERTEX
  8
0
 62
7
  6
CONTINUOUS
 10
48.4964191741
 20
529.4919616608
  0
VERTEX
  8
0
 62
7
  6
CONTINUOUS
 10
48.6703258516
 20
529.5455758025
  0
VERTEX
  8
0
 62
7
  6
CONTINUOUS
 10
48.844479712
 20
529.5982811102
  0
VERTEX
  8
0
 62
7
  6
CONTINUOUS
 10
49.0188794832
 20
529.6500776372
  0
VERTEX
  8
0
 62
7
  6
CONTINUOUS
 10
49.1935239048
 20
529.7009653866
  0
VERTEX
  8
0
 62
7
  6
CONTINUOUS
 10
49.3684117276
 20
529.7509443123
  0
VERTEX
  8
0
 62
7
  6
CONTINUOUS
 10
49.5435417137
 20
529.8000143182
  0
VERTEX
  8
0
 62
7
  6
CONTINUOUS
 10
49.7189126361
 20
529.8481752592
  0
VERTEX
  8
0
 62
7
  6
CONTINUOUS
 10
49.8945232787
 20
529.8954269403
  0
VERTEX
  8
0
 62
7
  6
CONTINUOUS
 10
50.0703724366
 20
529.9417691179
  0
VERTEX
  8
0
 62
7
  6
CONTINUOUS
 10
50.2464589153
 20
529.9872014986
  0
VERTEX
  8
0
 62
7
  6
CONTINUOUS
 10
50.4227815311
 20
530.0317237401
  0
VERTEX
  8
0
 62
7
  6
CONTINUOUS
 10
50.5993391108
 20
530.075335451
  0
VERTEX
  8
0
 62
7
  6
CONTINUOUS
 10
50.7761304918
 20
530.1180361905
  0
VERTEX
  8
0
 62
7
  6
CONTINUOUS
 10
50.9531545215
 20
530.1598254688
  0
VERTEX
  8
0
 62
7
  6
CONTINUOUS
 10
51.1304100581
 20
530.2007027469
  0
VERTEX
  8
0
 62
7
  6
CONTINUOUS
 10
51.3078959696
 20
530.2406674365
  0
VERTEX
  8
0
 62
7
  6
CONTINUOUS
 10
51.4856111343
 20
530.2797188999
  0
VERTEX
  8
0
 62
7
  6
CONTINUOUS
 10
51.6635544406
 20
530.3178564501
  0
VERTEX
  8
0
 62
7
  6
CONTINUOUS
 10
51.8417247867
 20
530.3550793504
  0
VERTEX
  8
0
 62
7
  6
CONTINUOUS
 10
52.020121081
 20
530.3913868149
  0
VERTEX
  8
0
 62
7
  6
CONTINUOUS
 10
52.1987422415
 20
530.4267780073
  0
VERTEX
  8
0
 62
7
  6
CONTINUOUS
 10
52.3775871961
 20
530.461252042
  0
VERTEX
  8
0
 62
7
  6
CONTINUOUS
 10
52.5566548824
 20
530.4948079827
  0
VERTEX
  8
0
 62
7
  6
CONTINUOUS
 10
52.7359442478
 20
530.5274448433
  0
SEQEND
  0
LINE
  8
0
 62
7
  6
CONTINUOUS
 10
216.4786941983
 20
-264.5855289813
 11
328.7052989109
 21
-264.5571140679
  0
LINE
  8
0
 62
7
  6
CONTINUOUS
 10
202.4786947478
 20
-264.5873013274
 11
90.2520868752
 21
-264.5873013274
  0
LINE
  8
0
 62
7
  6
CONTINUOUS
 10
202.4786947478
 20
-264.5873013274
 11
208.570930053
 21
-264.5869619758
  0
LINE
  8
0
 62
7
  6
CONTINUOUS
 10
208.570930053
 20
-264.5869619758
 11
216.4786946356
 21
-264.5855289812
  0
LINE
  8
0
 62
7
  6
CONTINUOUS
 10
190.7533972066
 20
541.0247153432
 11
187.9146448156
 21
537.3621529814
  0
LINE
  8
0
 62
7
  6
CONTINUOUS
 10
99.5114544946
 20
-46.2734641693
 11
99.511387906
 21
-46.2733991449
  0
POLYLINE
  8
0
 62
7
  6
CONTINUOUS
 66
1
 70
0
  0
VERTEX
  8
0
 62
7
  6
CONTINUOUS
 10
99.5114351412
 20
-46.2738181158
  0
VERTEX
  8
0
 62
7
  6
CONTINUOUS
 10
100.9148561128
 20
-47.9517744657
  0
VERTEX
  8
0
 62
7
  6
CONTINUOUS
 10
102.0315975112
 20
-50.0196441395
  0
VERTEX
  8
0
 62
7
  6
CONTINUOUS
 10
102.7601308599
 20
-52.603071912
  0
VERTEX
  8
0
 62
7
  6
CONTINUOUS
 10
102.8618810156
 20
-55.4025148691
  0
SEQEND
  0
POLYLINE
  8
0
 62
7
  6
CONTINUOUS
 66
1
 70
0
  0
VERTEX
  8
0
 62
7
  6
CONTINUOUS
 10
41.0778189661
 20
44.4119749614
  0
VERTEX
  8
0
 62
7
  6
CONTINUOUS
 10
42.5062882824
 20
39.2778774148
  0
VERTEX
  8
0
 62
7
  6
CONTINUOUS
 10
44.1766203104
 20
33.9049536619
  0
VERTEX
  8
0
 62
7
  6
CONTINUOUS
 10
46.1212618254
 20
28.3501743897
  0
VERTEX
  8
0
 62
7
  6
CONTINUOUS
 10
48.3949131929
 20
22.6535349436
  0
VERTEX
  8
0
 62
7
  6
CONTINUOUS
 10
51.0875587141
 20
16.740442338
  0
VERTEX
  8
0
 62
7
  6
CONTINUOUS
 10
54.2894854665
 20
10.4913694534
  0
VERTEX
  8
0
 62
7
  6
CONTINUOUS
 10
58.0759723108
 20
3.8293069875
  0
VERTEX
  8
0
 62
7
  6
CONTINUOUS
 10
62.6424034032
 20
-3.3864932961
  0
VERTEX
  8
0
 62
7
  6
CONTINUOUS
 10
68.3211422192
 20
-11.3794874485
  0
VERTEX
  8
0
 62
7
  6
CONTINUOUS
 10
75.0757875069
 20
-19.9151397964
  0
VERTEX
  8
0
 62
7
  6
CONTINUOUS
 10
83.1588587035
 20
-29.2513587958
  0
VERTEX
  8
0
 62
7
  6
CONTINUOUS
 10
92.4122082624
 20
-39.140652425
  0
VERTEX
  8
0
 62
7
  6
CONTINUOUS
 10
99.510239707
 20
-46.2722740597
  0
SEQEND
  0
LINE
  8
0
 62
7
  6
CONTINUOUS
 10
41.0778189661
 20
44.4119749614
 11
40.7944027988
 21
45.5012209398
  0
POLYLINE
  8
0
 62
7
  6
CONTINUOUS
 66
1
 70
0
  0
VERTEX
  8
0
 62
7
  6
CONTINUOUS
 10
57.3580463853
 20
141.9719879214
  0
VERTEX
  8
0
 62
7
  6
CONTINUOUS
 10
57.3638312447
 20
141.9147678301
  0
VERTEX
  8
0
 62
7
  6
CONTINUOUS
 10
57.3771051337
 20
141.8027729856
  0
VERTEX
  8
0
 62
7
  6
CONTINUOUS
 10
57.3929286702
 20
141.691063125
  0
VERTEX
  8
0
 62
7
  6
CONTINUOUS
 10
57.41129568
 20
141.5796561884
  0
VERTEX
  8
0
 62
7
  6
CONTINUOUS
 10
57.4322033743
 20
141.4685707097
  0
VERTEX
  8
0
 62
7
  6
CONTINUOUS
 10
57.4556523595
 20
141.3578258447
  0
VERTEX
  8
0
 62
7
  6
CONTINUOUS
 10
57.4784717424
 20
141.2603448855
  0
VERTEX
  8
0
 62
7
  6
CONTINUOUS
 10
57.5066764222
 20
141.1504561296
  0
VERTEX
  8
0
 62
7
  6
CONTINUOUS
 10
57.5373223718
 20
141.0413536902
  0
VERTEX
  8
0
 62
7
  6
CONTINUOUS
 10
57.5703970232
 20
140.9330532915
  0
VERTEX
  8
0
 62
7
  6
CONTINUOUS
 10
57.6058911279
 20
140.825571926
  0
VERTEX
  8
0
 62
7
  6
CONTINUOUS
 10
57.6437974962
 20
140.7189311178
  0
VERTEX
  8
0
 62
7
  6
CONTINUOUS
 10
57.6841020003
 20
140.6131786035
  0
VERTEX
  8
0
 62
7
  6
CONTINUOUS
 10
57.7267992915
 20
140.508343083
  0
VERTEX
  8
0
 62
7
  6
CONTINUOUS
 10
57.7718865239
 20
140.4044540659
  0
VERTEX
  8
0
 62
7
  6
CONTINUOUS
 10
57.8193634163
 20
140.3015418617
  0
VERTEX
  8
0
 62
7
  6
CONTINUOUS
 10
57.8692324492
 20
140.199637356
  0
VERTEX
  8
0
 62
7
  6
CONTINUOUS
 10
57.9215148082
 20
140.0987331431
  0
VERTEX
  8
0
 62
7
  6
CONTINUOUS
 10
57.9762328687
 20
139.9988053937
  0
VERTEX
  8
0
 62
7
  6
CONTINUOUS
 10
58.0334056854
 20
139.8998464546
  0
VERTEX
  8
0
 62
7
  6
CONTINUOUS
 10
58.0930526889
 20
139.8018608312
  0
VERTEX
  8
0
 62
7
  6
CONTINUOUS
 10
58.1482666318
 20
139.715436308
  0
VERTEX
  8
0
 62
7
  6
CONTINUOUS
 10
58.2113935822
 20
139.6211620975
  0
VERTEX
  8
0
 62
7
  6
CONTINUOUS
 10
58.2765686805
 20
139.528426539
  0
VERTEX
  8
0
 62
7
  6
CONTINUOUS
 10
58.3437741896
 20
139.4372396657
  0
VERTEX
  8
0
 62
7
  6
CONTINUOUS
 10
58.4129950829
 20
139.3476138201
  0
VERTEX
  8
0
 62
7
  6
CONTINUOUS
 10
58.4842189838
 20
139.259563636
  0
VERTEX
  8
0
 62
7
  6
CONTINUOUS
 10
58.5574361269
 20
139.17310604
  0
VERTEX
  8
0
 62
7
  6
CONTINUOUS
 10
58.6326393383
 20
139.088260268
  0
VERTEX
  8
0
 62
7
  6
CONTINUOUS
 10
58.7098196603
 20
139.0050525121
  0
VERTEX
  8
0
 62
7
  6
CONTINUOUS
 10
58.7889447991
 20
138.9235366703
  0
VERTEX
  8
0
 62
7
  6
CONTINUOUS
 10
58.8700061833
 20
138.8437434338
  0
VERTEX
  8
0
 62
7
  6
CONTINUOUS
 10
58.9529974827
 20
138.7657052357
  0
VERTEX
  8
0
 62
7
  6
CONTINUOUS
 10
59.0379274091
 20
138.6894434451
  0
VERTEX
  8
0
 62
7
  6
CONTINUOUS
 10
59.1248291573
 20
138.6149485391
  0
VERTEX
  8
0
 62
7
  6
CONTINUOUS
 10
59.2137267269
 20
138.5422197893
  0
VERTEX
  8
0
 62
7
  6
CONTINUOUS
 10
59.2935314672
 20
138.4797585925
  0
VERTEX
  8
0
 62
7
  6
CONTINUOUS
 10
59.3843414758
 20
138.4117674411
  0
VERTEX
  8
0
 62
7
  6
CONTINUOUS
 10
59.4765827126
 20
138.3458981318
  0
VERTEX
  8
0
 62
7
  6
CONTINUOUS
 10
59.5702347547
 20
138.2821534344
  0
VERTEX
  8
0
 62
7
  6
CONTINUOUS
 10
59.6652789627
 20
138.2205392006
  0
VERTEX
  8
0
 62
7
  6
CONTINUOUS
 10
59.7616984298
 20
138.1610643267
  0
VERTEX
  8
0
 62
7
  6
CONTINUOUS
 10
59.8594779439
 20
138.1037407399
  0
VERTEX
  8
0
 62
7
  6
CONTINUOUS
 10
59.9586039625
 20
138.0485834073
  0
VERTEX
  8
0
 62
7
  6
CONTINUOUS
 10
60.0590646004
 20
137.9956103676
  0
VERTEX
  8
0
 62
7
  6
CONTINUOUS
 10
60.16084963
 20
137.944842786
  0
VERTEX
  8
0
 62
7
  6
CONTINUOUS
 10
60.2639504939
 20
137.8963050325
  0
VERTEX
  8
0
 62
7
  6
CONTINUOUS
 10
60.3683306152
 20
137.8500375534
  0
VERTEX
  8
0
 62
7
  6
CONTINUOUS
 10
60.4739524371
 20
137.8060821268
  0
VERTEX
  8
0
 62
7
  6
CONTINUOUS
 10
60.5808057226
 20
137.7644709565
  0
VERTEX
  8
0
 62
7
  6
CONTINUOUS
 10
60.6889190516
 20
137.7252176585
  0
VERTEX
  8
0
 62
7
  6
CONTINUOUS
 10
60.7848604819
 20
137.6927183135
  0
VERTEX
  8
0
 62
7
  6
CONTINUOUS
 10
60.8929571204
 20
137.6586654742
  0
VERTEX
  8
0
 62
7
  6
CONTINUOUS
 10
61.001711902
 20
137.6270838846
  0
VERTEX
  8
0
 62
7
  6
CONTINUOUS
 10
61.1111046539
 20
137.5979686024
  0
VERTEX
  8
0
 62
7
  6
CONTINUOUS
 10
61.221115855
 20
137.5713181757
  0
VERTEX
  8
0
 62
7
  6
CONTINUOUS
 10
61.3317266
 20
137.5471345916
  0
VERTEX
  8
0
 62
7
  6
CONTINUOUS
 10
61.4429185681
 20
137.5254232494
  0
VERTEX
  8
0
 62
7
  6
CONTINUOUS
 10
61.5546739965
 20
137.5061929612
  0
VERTEX
  8
0
 62
7
  6
CONTINUOUS
 10
61.6669756582
 20
137.4894559765
  0
VERTEX
  8
0
 62
7
  6
CONTINUOUS
 10
61.779806844
 20
137.4752280333
  0
VERTEX
  8
0
 62
7
  6
CONTINUOUS
 10
61.8931513484
 20
137.463528436
  0
VERTEX
  8
0
 62
7
  6
CONTINUOUS
 10
62.0069934597
 20
137.4543801609
  0
VERTEX
  8
0
 62
7
  6
CONTINUOUS
 10
62.1213179539
 20
137.4478099904
  0
VERTEX
  8
0
 62
7
  6
CONTINUOUS
 10
62.2360942184
 20
137.443849046
  0
VERTEX
  8
0
 62
7
  6
CONTINUOUS
 10
62.263356693
 20
137.4432976422
  0
SEQEND
  0
POLYLINE
  8
0
 62
7
  6
CONTINUOUS
 66
1
 70
0
  0
VERTEX
  8
0
 62
7
  6
CONTINUOUS
 10
36.9722046306
 20
134.1666855633
  0
VERTEX
  8
0
 62
7
  6
CONTINUOUS
 10
37.0583735532
 20
133.290978178
  0
VERTEX
  8
0
 62
7
  6
CONTINUOUS
 10
37.9469095932
 20
131.4479599535
  0
VERTEX
  8
0
 62
7
  6
CONTINUOUS
 10
38.9589960131
 20
130.5462842559
  0
VERTEX
  8
0
 62
7
  6
CONTINUOUS
 10
39.7687183026
 20
130.1069453318
  0
VERTEX
  8
0
 62
7
  6
CONTINUOUS
 10
40.4707509355
 20
129.8377622449
  0
VERTEX
  8
0
 62
7
  6
CONTINUOUS
 10
41.1679192461
 20
129.6321448855
  0
VERTEX
  8
0
 62
7
  6
CONTINUOUS
 10
41.9196171646
 20
129.4525851929
  0
VERTEX
  8
0
 62
7
  6
CONTINUOUS
 10
42.7629164702
 20
129.2838225605
  0
VERTEX
  8
0
 62
7
  6
CONTINUOUS
 10
43.7235710392
 20
129.1188735981
  0
VERTEX
  8
0
 62
7
  6
CONTINUOUS
 10
44.8213956305
 20
128.9542424522
  0
VERTEX
  8
0
 62
7
  6
CONTINUOUS
 10
46.0730258415
 20
128.7880443195
  0
VERTEX
  8
0
 62
7
  6
CONTINUOUS
 10
47.4936108235
 20
128.6191575751
  0
VERTEX
  8
0
 62
7
  6
CONTINUOUS
 10
49.0972622773
 20
128.4469157516
  0
VERTEX
  8
0
 62
7
  6
CONTINUOUS
 10
50.8975756437
 20
128.2709148455
  0
VERTEX
  8
0
 62
7
  6
CONTINUOUS
 10
52.5417760017
 20
128.1225839029
  0
SEQEND
  0
LINE
  8
0
 62
7
  6
CONTINUOUS
 10
25.8996898886
 20
472.3584629949
 11
57.3580463853
 21
141.9719879214
  0
LINE
  8
0
 62
7
  6
CONTINUOUS
 10
24.9493335297
 20
482.3394322008
 11
23.9632856467
 21
492.6952460639
  0
POLYLINE
  8
0
 62
7
  6
CONTINUOUS
 66
1
 70
0
  0
VERTEX
  8
0
 62
7
  6
CONTINUOUS
 10
23.9632856475
 20
492.6952460556
  0
VERTEX
  8
0
 62
7
  6
CONTINUOUS
 10
23.9558127292
 20
492.7746907752
  0
VERTEX
  8
0
 62
7
  6
CONTINUOUS
 10
23.939444694
 20
492.9559844071
  0
VERTEX
  8
0
 62
7
  6
CONTINUOUS
 10
23.9240267393
 20
493.1372989207
  0
VERTEX
  8
0
 62
7
  6
CONTINUOUS
 10
23.9095579984
 20
493.3186331154
  0
VERTEX
  8
0
 62
7
  6
CONTINUOUS
 10
23.8960376585
 20
493.4999857903
  0
VERTEX
  8
0
 62
7
  6
CONTINUOUS
 10
23.8834649603
 20
493.6813557437
  0
VERTEX
  8
0
 62
7
  6
CONTINUOUS
 10
23.871839198
 20
493.8627417735
  0
VERTEX
  8
0
 62
7
  6
CONTINUOUS
 10
23.8611597183
 20
494.0441426768
  0
VERTEX
  8
0
 62
7
  6
CONTINUOUS
 10
23.8514259208
 20
494.2255572498
  0
VERTEX
  8
0
 62
7
  6
CONTINUOUS
 10
23.8426372573
 20
494.4069842881
  0
VERTEX
  8
0
 62
7
  6
CONTINUOUS
 10
23.8347932318
 20
494.588422586
  0
VERTEX
  8
0
 62
7
  6
CONTINUOUS
 10
23.8278934002
 20
494.7698709371
  0
VERTEX
  8
0
 62
7
  6
CONTINUOUS
 10
23.8219373698
 20
494.9513281335
  0
VERTEX
  8
0
 62
7
  6
CONTINUOUS
 10
23.8169247998
 20
495.1327929665
  0
VERTEX
  8
0
 62
7
  6
CONTINUOUS
 10
23.8128554005
 20
495.3142642259
  0
VERTEX
  8
0
 62
7
  6
CONTINUOUS
 10
23.8097289332
 20
495.4957407
  0
VERTEX
  8
0
 62
7
  6
CONTINUOUS
 10
23.8075452106
 20
495.6772211759
  0
VERTEX
  8
0
 62
7
  6
CONTINUOUS
 10
23.8063040961
 20
495.8587044389
  0
VERTEX
  8
0
 62
7
  6
CONTINUOUS
 10
23.8060055038
 20
496.0401892729
  0
VERTEX
  8
0
 62
7
  6
CONTINUOUS
 10
23.8066493988
 20
496.2216744599
  0
VERTEX
  8
0
 62
7
  6
CONTINUOUS
 10
23.8082357967
 20
496.4031587802
  0
VERTEX
  8
0
 62
7
  6
CONTINUOUS
 10
23.810764764
 20
496.5846410121
  0
VERTEX
  8
0
 62
7
  6
CONTINUOUS
 10
23.8142364174
 20
496.766119932
  0
VERTEX
  8
0
 62
7
  6
CONTINUOUS
 10
23.8186509246
 20
496.9475943143
  0
VERTEX
  8
0
 62
7
  6
CONTINUOUS
 10
23.8240085037
 20
497.129062931
  0
VERTEX
  8
0
 62
7
  6
CONTINUOUS
 10
23.8303094236
 20
497.310524552
  0
VERTEX
  8
0
 62
7
  6
CONTINUOUS
 10
23.8375540039
 20
497.4919779448
  0
VERTEX
  8
0
 62
7
  6
CONTINUOUS
 10
23.8457426148
 20
497.6734218745
  0
VERTEX
  8
0
 62
7
  6
CONTINUOUS
 10
23.8548756777
 20
497.8548551036
  0
VERTEX
  8
0
 62
7
  6
CONTINUOUS
 10
23.8649536645
 20
498.0362763921
  0
VERTEX
  8
0
 62
7
  6
CONTINUOUS
 10
23.8759770987
 20
498.217684497
  0
VERTEX
  8
0
 62
7
  6
CONTINUOUS
 10
23.8879465546
 20
498.3990781728
  0
VERTEX
  8
0
 62
7
  6
CONTINUOUS
 10
23.9008626581
 20
498.5804561708
  0
VERTEX
  8
0
 62
7
  6
CONTINUOUS
 10
23.9147260867
 20
498.7618172395
  0
VERTEX
  8
0
 62
7
  6
CONTINUOUS
 10
23.9295375695
 20
498.9431601241
  0
VERTEX
  8
0
 62
7
  6
CONTINUOUS
 10
23.9452978878
 20
499.1244835666
  0
VERTEX
  8
0
 62
7
  6
CONTINUOUS
 10
23.9620078748
 20
499.3057863058
  0
VERTEX
  8
0
 62
7
  6
CONTINUOUS
 10
23.9796684165
 20
499.487067077
  0
VERTEX
  8
0
 62
7
  6
CONTINUOUS
 10
23.9982804513
 20
499.6683246118
  0
VERTEX
  8
0
 62
7
  6
CONTINUOUS
 10
24.0178449709
 20
499.8495576385
  0
VERTEX
  8
0
 62
7
  6
CONTINUOUS
 10
24.0383630202
 20
500.0307648813
  0
VERTEX
  8
0
 62
7
  6
CONTINUOUS
 10
24.0598356979
 20
500.2119450608
  0
VERTEX
  8
0
 62
7
  6
CONTINUOUS
 10
24.0822641565
 20
500.3930968934
  0
VERTEX
  8
0
 62
7
  6
CONTINUOUS
 10
24.105649603
 20
500.5742190916
  0
VERTEX
  8
0
 62
7
  6
CONTINUOUS
 10
24.1299932994
 20
500.7553103636
  0
VERTEX
  8
0
 62
7
  6
CONTINUOUS
 10
24.1552965625
 20
500.9363694134
  0
VERTEX
  8
0
 62
7
  6
CONTINUOUS
 10
24.1815607651
 20
501.1173949405
  0
VERTEX
  8
0
 62
7
  6
CONTINUOUS
 10
24.208787336
 20
501.2983856397
  0
VERTEX
  8
0
 62
7
  6
CONTINUOUS
 10
24.2369777605
 20
501.4793402014
  0
VERTEX
  8
0
 62
7
  6
CONTINUOUS
 10
24.266133581
 20
501.6602573111
  0
VERTEX
  8
0
 62
7
  6
CONTINUOUS
 10
24.2962563976
 20
501.8411356492
  0
VERTEX
  8
0
 62
7
  6
CONTINUOUS
 10
24.3273478686
 20
502.0219738914
  0
VERTEX
  8
0
 62
7
  6
CONTINUOUS
 10
24.3594097109
 20
502.202770708
  0
VERTEX
  8
0
 62
7
  6
CONTINUOUS
 10
24.3924437009
 20
502.383524764
  0
VERTEX
  8
0
 62
7
  6
CONTINUOUS
 10
24.4264516748
 20
502.564234719
  0
VERTEX
  8
0
 62
7
  6
CONTINUOUS
 10
24.461099699
 20
502.7431888041
  0
VERTEX
  8
0
 62
7
  6
CONTINUOUS
 10
24.4966521809
 20
502.9218246801
  0
VERTEX
  8
0
 62
7
  6
CONTINUOUS
 10
24.533119228
 20
503.1002017489
  0
VERTEX
  8
0
 62
7
  6
CONTINUOUS
 10
24.5704995047
 20
503.2783191805
  0
VERTEX
  8
0
 62
7
  6
CONTINUOUS
 10
24.6087917277
 20
503.4561761279
  0
VERTEX
  8
0
 62
7
  6
CONTINUOUS
 10
24.6479946655
 20
503.6337717274
  0
VERTEX
  8
0
 62
7
  6
CONTINUOUS
 10
24.6881071382
 20
503.8111050985
  0
VERTEX
  8
0
 62
7
  6
CONTINUOUS
 10
24.729128017
 20
503.9881753438
  0
VERTEX
  8
0
 62
7
  6
CONTINUOUS
 10
24.7710562237
 20
504.1649815491
  0
VERTEX
  8
0
 62
7
  6
CONTINUOUS
 10
24.8138907306
 20
504.3415227838
  0
VERTEX
  8
0
 62
7
  6
CONTINUOUS
 10
24.8576305599
 20
504.5177981004
  0
VERTEX
  8
0
 62
7
  6
CONTINUOUS
 10
24.9022747839
 20
504.6938065345
  0
VERTEX
  8
0
 62
7
  6
CONTINUOUS
 10
24.9478225239
 20
504.8695471055
  0
VERTEX
  8
0
 62
7
  6
CONTINUOUS
 10
24.9942729507
 20
505.0450188158
  0
VERTEX
  8
0
 62
7
  6
CONTINUOUS
 10
25.041625284
 20
505.2202206511
  0
VERTEX
  8
0
 62
7
  6
CONTINUOUS
 10
25.0898787923
 20
505.3951515806
  0
VERTEX
  8
0
 62
7
  6
CONTINUOUS
 10
25.1390327925
 20
505.5698105566
  0
VERTEX
  8
0
 62
7
  6
CONTINUOUS
 10
25.1890866497
 20
505.7441965148
  0
VERTEX
  8
0
 62
7
  6
CONTINUOUS
 10
25.2400397775
 20
505.918308374
  0
VERTEX
  8
0
 62
7
  6
CONTINUOUS
 10
25.2918916371
 20
506.0921450363
  0
VERTEX
  8
0
 62
7
  6
CONTINUOUS
 10
25.3446417377
 20
506.2657053868
  0
VERTEX
  8
0
 62
7
  6
CONTINUOUS
 10
25.3982896362
 20
506.4389882939
  0
VERTEX
  8
0
 62
7
  6
CONTINUOUS
 10
25.4528349371
 20
506.6119926088
  0
VERTEX
  8
0
 62
7
  6
CONTINUOUS
 10
25.5082772924
 20
506.7847171658
  0
VERTEX
  8
0
 62
7
  6
CONTINUOUS
 10
25.5646164016
 20
506.9571607823
  0
VERTEX
  8
0
 62
7
  6
CONTINUOUS
 10
25.6218520114
 20
507.1293222581
  0
VERTEX
  8
0
 62
7
  6
CONTINUOUS
 10
25.679983916
 20
507.3012003761
  0
VERTEX
  8
0
 62
7
  6
CONTINUOUS
 10
25.7390119569
 20
507.4727939018
  0
VERTEX
  8
0
 62
7
  6
CONTINUOUS
 10
25.7989360228
 20
507.6441015832
  0
VERTEX
  8
0
 62
7
  6
CONTINUOUS
 10
25.8597560498
 20
507.8151221507
  0
VERTEX
  8
0
 62
7
  6
CONTINUOUS
 10
25.9214720213
 20
507.9858543174
  0
VERTEX
  8
0
 62
7
  6
CONTINUOUS
 10
25.9840839682
 20
508.1562967782
  0
VERTEX
  8
0
 62
7
  6
CONTINUOUS
 10
26.0475919685
 20
508.3264482105
  0
VERTEX
  8
0
 62
7
  6
CONTINUOUS
 10
26.1119961482
 20
508.4963072736
  0
VERTEX
  8
0
 62
7
  6
CONTINUOUS
 10
26.1772966806
 20
508.6658726087
  0
VERTEX
  8
0
 62
7
  6
CONTINUOUS
 10
26.2434937868
 20
508.8351428386
  0
VERTEX
  8
0
 62
7
  6
CONTINUOUS
 10
26.3105877357
 20
509.004116568
  0
VERTEX
  8
0
 62
7
  6
CONTINUOUS
 10
26.3785788444
 20
509.1727923827
  0
VERTEX
  8
0
 62
7
  6
CONTINUOUS
 10
26.4474674779
 20
509.34116885
  0
VERTEX
  8
0
 62
7
  6
CONTINUOUS
 10
26.5172540497
 20
509.5092445185
  0
VERTEX
  8
0
 62
7
  6
CONTINUOUS
 10
26.5879390218
 20
509.6770179173
  0
VERTEX
  8
0
 62
7
  6
CONTINUOUS
 10
26.659522905
 20
509.8444875568
  0
VERTEX
  8
0
 62
7
  6
CONTINUOUS
 10
26.732006259
 20
510.0116519275
  0
VERTEX
  8
0
 62
7
  6
CONTINUOUS
 10
26.8053896929
 20
510.1785095008
  0
VERTEX
  8
0
 62
7
  6
CONTINUOUS
 10
26.8796738651
 20
510.3450587278
  0
VERTEX
  8
0
 62
7
  6
CONTINUOUS
 10
26.9548594839
 20
510.5112980401
  0
VERTEX
  8
0
 62
7
  6
CONTINUOUS
 10
27.0309473079
 20
510.6772258486
  0
VERTEX
  8
0
 62
7
  6
CONTINUOUS
 10
27.1079381458
 20
510.8428405442
  0
VERTEX
  8
0
 62
7
  6
CONTINUOUS
 10
27.1858328573
 20
511.0081404968
  0
VERTEX
  8
0
 62
7
  6
CONTINUOUS
 10
27.2646323532
 20
511.1731240555
  0
VERTEX
  8
0
 62
7
  6
CONTINUOUS
 10
27.3443375959
 20
511.3377895484
  0
VERTEX
  8
0
 62
7
  6
CONTINUOUS
 10
27.4249495997
 20
511.5021352818
  0
VERTEX
  8
0
 62
7
  6
CONTINUOUS
 10
27.5064694311
 20
511.6661595408
  0
VERTEX
  8
0
 62
7
  6
CONTINUOUS
 10
27.5888982098
 20
511.8298605882
  0
VERTEX
  8
0
 62
7
  6
CONTINUOUS
 10
27.6722371085
 20
511.9932366647
  0
VERTEX
  8
0
 62
7
  6
CONTINUOUS
 10
27.7564873538
 20
512.1562859885
  0
VERTEX
  8
0
 62
7
  6
CONTINUOUS
 10
27.8416502266
 20
512.3190067549
  0
VERTEX
  8
0
 62
7
  6
CONTINUOUS
 10
27.9277270625
 20
512.4813971361
  0
VERTEX
  8
0
 62
7
  6
CONTINUOUS
 10
28.0147192528
 20
512.643455281
  0
VERTEX
  8
0
 62
7
  6
CONTINUOUS
 10
28.1026282445
 20
512.8051793144
  0
VERTEX
  8
0
 62
7
  6
CONTINUOUS
 10
28.1914555413
 20
512.9665673373
  0
VERTEX
  8
0
 62
7
  6
CONTINUOUS
 10
28.2812027042
 20
513.1276174261
  0
VERTEX
  8
0
 62
7
  6
CONTINUOUS
 10
28.371871352
 20
513.2883276323
  0
VERTEX
  8
0
 62
7
  6
CONTINUOUS
 10
28.4634631621
 20
513.4486959822
  0
VERTEX
  8
0
 62
7
  6
CONTINUOUS
 10
28.5559798713
 20
513.6087204768
  0
VERTEX
  8
0
 62
7
  6
CONTINUOUS
 10
28.6491084246
 20
513.7678642933
  0
VERTEX
  8
0
 62
7
  6
CONTINUOUS
 10
28.7420359825
 20
513.9247770523
  0
VERTEX
  8
0
 62
7
  6
CONTINUOUS
 10
28.8357404645
 20
514.0811422989
  0
VERTEX
  8
0
 62
7
  6
CONTINUOUS
 10
28.9302203367
 20
514.236959689
  0
VERTEX
  8
0
 62
7
  6
CONTINUOUS
 10
29.0254741092
 20
514.3922288451
  0
VERTEX
  8
0
 62
7
  6
CONTINUOUS
 10
29.1215003354
 20
514.5469493565
  0
VERTEX
  8
0
 62
7
  6
CONTINUOUS
 10
29.2182976115
 20
514.7011207799
  0
VERTEX
  8
0
 62
7
  6
CONTINUOUS
 10
29.3158645765
 20
514.854742639
  0
VERTEX
  8
0
 62
7
  6
CONTINUOUS
 10
29.4141999119
 20
515.0078144248
  0
VERTEX
  8
0
 62
7
  6
CONTINUOUS
 10
29.5133023408
 20
515.1603355961
  0
VERTEX
  8
0
 62
7
  6
CONTINUOUS
 10
29.6131706283
 20
515.312305579
  0
VERTEX
  8
0
 62
7
  6
CONTINUOUS
 10
29.7138035809
 20
515.4637237677
  0
VERTEX
  8
0
 62
7
  6
CONTINUOUS
 10
29.815200046
 20
515.614589524
  0
VERTEX
  8
0
 62
7
  6
CONTINUOUS
 10
29.9173589122
 20
515.7649021778
  0
VERTEX
  8
0
 62
7
  6
CONTINUOUS
 10
30.0202791086
 20
515.9146610268
  0
VERTEX
  8
0
 62
7
  6
CONTINUOUS
 10
30.1239596048
 20
516.063865337
  0
VERTEX
  8
0
 62
7
  6
CONTINUOUS
 10
30.2283994106
 20
516.2125143425
  0
VERTEX
  8
0
 62
7
  6
CONTINUOUS
 10
30.3335975758
 20
516.3606072455
  0
VERTEX
  8
0
 62
7
  6
CONTINUOUS
 10
30.4395531901
 20
516.5081432165
  0
VERTEX
  8
0
 62
7
  6
CONTINUOUS
 10
30.546265383
 20
516.655121394
  0
VERTEX
  8
0
 62
7
  6
CONTINUOUS
 10
30.6537333235
 20
516.8015408849
  0
VERTEX
  8
0
 62
7
  6
CONTINUOUS
 10
30.7619562199
 20
516.9474007643
  0
VERTEX
  8
0
 62
7
  6
CONTINUOUS
 10
30.8709333198
 20
517.0927000755
  0
VERTEX
  8
0
 62
7
  6
CONTINUOUS
 10
30.9806639102
 20
517.2374378299
  0
VERTEX
  8
0
 62
7
  6
CONTINUOUS
 10
31.0911473171
 20
517.3816130071
  0
VERTEX
  8
0
 62
7
  6
CONTINUOUS
 10
31.2023829054
 20
517.5252245548
  0
VERTEX
  8
0
 62
7
  6
CONTINUOUS
 10
31.3143700791
 20
517.6682713886
  0
VERTEX
  8
0
 62
7
  6
CONTINUOUS
 10
31.427108281
 20
517.8107523921
  0
VERTEX
  8
0
 62
7
  6
CONTINUOUS
 10
31.5405969928
 20
517.9526664168
  0
VERTEX
  8
0
 62
7
  6
CONTINUOUS
 10
31.6548357352
 20
518.0940122818
  0
VERTEX
  8
0
 62
7
  6
CONTINUOUS
 10
31.7698240676
 20
518.234788774
  0
VERTEX
  8
0
 62
7
  6
CONTINUOUS
 10
31.8855615882
 20
518.3749946478
  0
VERTEX
  8
0
 62
7
  6
CONTINUOUS
 10
32.002047934
 20
518.514628625
  0
VERTEX
  8
0
 62
7
  6
CONTINUOUS
 10
32.1192827812
 20
518.6536893945
  0
VERTEX
  8
0
 62
7
  6
CONTINUOUS
 10
32.2372658446
 20
518.7921756125
  0
VERTEX
  8
0
 62
7
  6
CONTINUOUS
 10
32.3559968782
 20
518.930085902
  0
VERTEX
  8
0
 62
7
  6
CONTINUOUS
 10
32.475475675
 20
519.0674188527
  0
VERTEX
  8
0
 62
7
  6
CONTINUOUS
 10
32.5957020673
 20
519.204173021
  0
VERTEX
  8
0
 62
7
  6
CONTINUOUS
 10
32.7166759263
 20
519.3403469296
  0
VERTEX
  8
0
 62
7
  6
CONTINUOUS
 10
32.838397163
 20
519.4759390673
  0
VERTEX
  8
0
 62
7
  6
CONTINUOUS
 10
32.9608657277
 20
519.6109478888
  0
VERTEX
  8
0
 62
7
  6
CONTINUOUS
 10
33.0840816104
 20
519.7453718145
  0
VERTEX
  8
0
 62
7
  6
CONTINUOUS
 10
33.2080448409
 20
519.8792092302
  0
VERTEX
  8
0
 62
7
  6
CONTINUOUS
 10
33.332755489
 20
520.0124584868
  0
VERTEX
  8
0
 62
7
  6
CONTINUOUS
 10
33.4582136647
 20
520.1451179001
  0
VERTEX
  8
0
 62
7
  6
CONTINUOUS
 10
33.5844195184
 20
520.2771857505
  0
VERTEX
  8
0
 62
7
  6
CONTINUOUS
 10
33.7113732411
 20
520.4086602827
  0
VERTEX
  8
0
 62
7
  6
CONTINUOUS
 10
33.8390750646
 20
520.5395397052
  0
VERTEX
  8
0
 62
7
  6
CONTINUOUS
 10
33.9675252618
 20
520.6698221902
  0
VERTEX
  8
0
 62
7
  6
CONTINUOUS
 10
34.096724147
 20
520.7995058732
  0
VERTEX
  8
0
 62
7
  6
CONTINUOUS
 10
34.2266720763
 20
520.9285888526
  0
VERTEX
  8
0
 62
7
  6
CONTINUOUS
 10
34.3573694475
 20
521.0570691891
  0
VERTEX
  8
0
 62
7
  6
CONTINUOUS
 10
34.4888167008
 20
521.184944906
  0
VERTEX
  8
0
 62
7
  6
CONTINUOUS
 10
34.621014319
 20
521.3122139878
  0
VERTEX
  8
0
 62
7
  6
CONTINUOUS
 10
34.7539628278
 20
521.4388743807
  0
VERTEX
  8
0
 62
7
  6
CONTINUOUS
 10
34.8876627962
 20
521.5649239914
  0
VERTEX
  8
0
 62
7
  6
CONTINUOUS
 10
35.0221148372
 20
521.6903606874
  0
VERTEX
  8
0
 62
7
  6
CONTINUOUS
 10
35.1573196075
 20
521.8151822958
  0
VERTEX
  8
0
 62
7
  6
CONTINUOUS
 10
35.2932778087
 20
521.9393866033
  0
VERTEX
  8
0
 62
7
  6
CONTINUOUS
 10
35.4299901871
 20
522.0629713556
  0
VERTEX
  8
0
 62
7
  6
CONTINUOUS
 10
35.5674575348
 20
522.1859342566
  0
VERTEX
  8
0
 62
7
  6
CONTINUOUS
 10
35.7056806894
 20
522.3082729682
  0
VERTEX
  8
0
 62
7
  6
CONTINUOUS
 10
35.8446605355
 20
522.4299851097
  0
VERTEX
  8
0
 62
7
  6
CONTINUOUS
 10
35.9843980041
 20
522.5510682569
  0
VERTEX
  8
0
 62
7
  6
CONTINUOUS
 10
36.1248940741
 20
522.6715199418
  0
VERTEX
  8
0
 62
7
  6
CONTINUOUS
 10
36.2578111073
 20
522.7843000047
  0
VERTEX
  8
0
 62
7
  6
CONTINUOUS
 10
36.3976048103
 20
522.9016995164
  0
VERTEX
  8
0
 62
7
  6
CONTINUOUS
 10
36.5379498896
 20
523.0183247187
  0
VERTEX
  8
0
 62
7
  6
CONTINUOUS
 10
36.6788447865
 20
523.1341757883
  0
VERTEX
  8
0
 62
7
  6
CONTINUOUS
 10
36.8202879726
 20
523.2492528562
  0
VERTEX
  8
0
 62
7
  6
CONTINUOUS
 10
36.9622779494
 20
523.3635560078
  0
VERTEX
  8
0
 62
7
  6
CONTINUOUS
 10
37.104813248
 20
523.477085283
  0
VERTEX
  8
0
 62
7
  6
CONTINUOUS
 10
37.2478924291
 20
523.5898406769
  0
VERTEX
  8
0
 62
7
  6
CONTINUOUS
 10
37.3915140822
 20
523.7018221396
  0
VERTEX
  8
0
 62
7
  6
CONTINUOUS
 10
37.5356768258
 20
523.813029577
  0
VERTEX
  8
0
 62
7
  6
CONTINUOUS
 10
37.6803793069
 20
523.9234628502
  0
VERTEX
  8
0
 62
7
  6
CONTINUOUS
 10
37.8256202011
 20
524.0331217764
  0
VERTEX
  8
0
 62
7
  6
CONTINUOUS
 10
37.971398212
 20
524.1420061289
  0
VERTEX
  8
0
 62
7
  6
CONTINUOUS
 10
38.1177120711
 20
524.250115637
  0
SEQEND
  0
POLYLINE
  8
0
 62
7
  6
CONTINUOUS
 66
1
 70
0
  0
VERTEX
  8
0
 62
7
  6
CONTINUOUS
 10
38.1177120711
 20
524.250115637
  0
VERTEX
  8
0
 62
7
  6
CONTINUOUS
 10
38.2645605378
 20
524.3574499866
  0
VERTEX
  8
0
 62
7
  6
CONTINUOUS
 10
38.4119423991
 20
524.4640088197
  0
VERTEX
  8
0
 62
7
  6
CONTINUOUS
 10
38.5598564693
 20
524.5697917354
  0
VERTEX
  8
0
 62
7
  6
CONTINUOUS
 10
38.7083015899
 20
524.6747982889
  0
VERTEX
  8
0
 62
7
  6
CONTINUOUS
 10
38.8572766295
 20
524.7790279927
  0
VERTEX
  8
0
 62
7
  6
CONTINUOUS
 10
39.0067804837
 20
524.8824803159
  0
VERTEX
  8
0
 62
7
  6
CONTINUOUS
 10
39.1568120748
 20
524.9851546844
  0
VERTEX
  8
0
 62
7
  6
CONTINUOUS
 10
39.3073703519
 20
525.0870504813
  0
VERTEX
  8
0
 62
7
  6
CONTINUOUS
 10
39.4584542905
 20
525.1881670463
  0
VERTEX
  8
0
 62
7
  6
CONTINUOUS
 10
39.6100628925
 20
525.2885036764
  0
VERTEX
  8
0
 62
7
  6
CONTINUOUS
 10
39.7621951864
 20
525.3880596253
  0
VERTEX
  8
0
 62
7
  6
CONTINUOUS
 10
39.9148502265
 20
525.4868341037
  0
VERTEX
  8
0
 62
7
  6
CONTINUOUS
 10
40.0680270938
 20
525.5848262793
  0
VERTEX
  8
0
 62
7
  6
CONTINUOUS
 10
40.2217248949
 20
525.6820352763
  0
VERTEX
  8
0
 62
7
  6
CONTINUOUS
 10
40.3759427628
 20
525.7784601761
  0
VERTEX
  8
0
 62
7
  6
CONTINUOUS
 10
40.5306798563
 20
525.8741000163
  0
VERTEX
  8
0
 62
7
  6
CONTINUOUS
 10
40.6859353602
 20
525.9689537915
  0
VERTEX
  8
0
 62
7
  6
CONTINUOUS
 10
40.8417084851
 20
526.0630204523
  0
VERTEX
  8
0
 62
7
  6
CONTINUOUS
 10
40.9979984675
 20
526.1562989059
  0
VERTEX
  8
0
 62
7
  6
CONTINUOUS
 10
41.15480457
 20
526.2487880157
  0
VERTEX
  8
0
 62
7
  6
CONTINUOUS
 10
41.3121260807
 20
526.3404866009
  0
VERTEX
  8
0
 62
7
  6
CONTINUOUS
 10
41.4699623138
 20
526.4313934365
  0
VERTEX
  8
0
 62
7
  6
CONTINUOUS
 10
41.6283126093
 20
526.5215072534
  0
VERTEX
  8
0
 62
7
  6
CONTINUOUS
 10
41.787176333
 20
526.6108267376
  0
VERTEX
  8
0
 62
7
  6
CONTINUOUS
 10
41.9465528768
 20
526.6993505305
  0
VERTEX
  8
0
 62
7
  6
CONTINUOUS
 10
42.1064416584
 20
526.7870772282
  0
VERTEX
  8
0
 62
7
  6
CONTINUOUS
 10
42.2668421216
 20
526.8740053817
  0
VERTEX
  8
0
 62
7
  6
CONTINUOUS
 10
42.4277537363
 20
526.9601334963
  0
VERTEX
  8
0
 62
7
  6
CONTINUOUS
 10
42.5891759983
 20
527.0454600312
  0
SEQEND
  0
LINE
  8
0
 62
7
  6
CONTINUOUS
 10
37.2180394518
 20
168.651440402
 11
37.2180376306
 21
168.6539930476
  0
LINE
  8
0
 62
7
  6
CONTINUOUS
 10
37.2180376306
 20
168.6539930476
 11
36.9721335191
 21
134.162897377
  0
LINE
  8
0
 62
7
  6
CONTINUOUS
 10
36.9721335191
 20
134.1628973771
 11
36.9722046306
 21
134.1666855633
  0
POLYLINE
  8
0
 62
7
  6
CONTINUOUS
 66
1
 70
0
  0
VERTEX
  8
0
 62
7
  6
CONTINUOUS
 10
35.095620441
 20
123.0784136102
  0
VERTEX
  8
0
 62
7
  6
CONTINUOUS
 10
34.9503805979
 20
119.3521592938
  0
VERTEX
  8
0
 62
7
  6
CONTINUOUS
 10
34.6168473915
 20
108.2477307201
  0
VERTEX
  8
0
 62
7
  6
CONTINUOUS
 10
34.5172555392
 20
98.0056919932
  0
VERTEX
  8
0
 62
7
  6
CONTINUOUS
 10
34.7103553086
 20
87.9692004214
  0
VERTEX
  8
0
 62
7
  6
CONTINUOUS
 10
35.3075307253
 20
77.7442546602
  0
VERTEX
  8
0
 62
7
  6
CONTINUOUS
 10
36.4683719522
 20
67.1376706747
  0
VERTEX
  8
0
 62
7
  6
CONTINUOUS
 10
38.4369343568
 20
55.7035753408
  0
VERTEX
  8
0
 62
7
  6
CONTINUOUS
 10
40.7944680745
 20
45.5012365896
  0
SEQEND
  0
LINE
  8
0
 62
7
  6
CONTINUOUS
 10
35.0956223046
 20
123.0784149852
 11
35.0956070288
 21
123.0781641264
  0
POLYLINE
  8
0
 62
7
  6
CONTINUOUS
 66
1
 70
0
  0
VERTEX
  8
0
 62
7
  6
CONTINUOUS
 10
85.2771394764
 20
131.0110830497
  0
VERTEX
  8
0
 62
7
  6
CONTINUOUS
 10
85.2730787258
 20
130.5751694347
  0
VERTEX
  8
0
 62
7
  6
CONTINUOUS
 10
85.1906905043
 20
128.6028476022
  0
SEQEND
  0
POLYLINE
  8
0
 62
7
  6
CONTINUOUS
 66
1
 70
0
  0
VERTEX
  8
0
 62
7
  6
CONTINUOUS
 10
85.2964054306
 20
133.3311085706
  0
VERTEX
  8
0
 62
7
  6
CONTINUOUS
 10
85.2918003015
 20
132.9460508592
  0
VERTEX
  8
0
 62
7
  6
CONTINUOUS
 10
85.2783374376
 20
131.281366903
  0
VERTEX
  8
0
 62
7
  6
CONTINUOUS
 10
85.2771395108
 20
131.011092779
  0
SEQEND
  0
LINE
  8
0
 62
7
  6
CONTINUOUS
 10
85.1906905043
 20
128.6028476022
 11
85.023391981
 21
127.0083512276
  0
POLYLINE
  8
0
 62
7
  6
CONTINUOUS
 66
1
 70
0
  0
VERTEX
  8
0
 62
7
  6
CONTINUOUS
 10
85.023391981
 20
127.0083512276
  0
VERTEX
  8
0
 62
7
  6
CONTINUOUS
 10
84.8475467111
 20
126.0624916968
  0
VERTEX
  8
0
 62
7
  6
CONTINUOUS
 10
84.7744629112
 20
125.7915554599
  0
SEQEND
  0
POLYLINE
  8
0
 62
7
  6
CONTINUOUS
 66
1
 70
0
  0
VERTEX
  8
0
 62
7
  6
CONTINUOUS
 10
102.8618640522
 20
-55.4084102107
  0
VERTEX
  8
0
 62
7
  6
CONTINUOUS
 10
102.5974364145
 20
-58.8692201595
  0
VERTEX
  8
0
 62
7
  6
CONTINUOUS
 10
102.0823554227
 20
-68.510899835
  0
VERTEX
  8
0
 62
7
  6
CONTINUOUS
 10
101.6066813968
 20
-77.8903832902
  0
VERTEX
  8
0
 62
7
  6
CONTINUOUS
 10
100.9829986657
 20
-86.4203650033
  0
SEQEND
  0
LINE
  8
0
 62
7
  6
CONTINUOUS
 10
102.8614582138
 20
-55.4079074566
 11
102.8618271431
 21
-55.4031453932
  0
POLYLINE
  8
0
 62
7
  6
CONTINUOUS
 66
1
 70
0
  0
VERTEX
  8
0
 62
7
  6
CONTINUOUS
 10
100.7450217031
 20
-89.0310804616
  0
VERTEX
  8
0
 62
7
  6
CONTINUOUS
 10
99.7988637908
 20
-99.8264694952
  0
VERTEX
  8
0
 62
7
  6
CONTINUOUS
 10
99.1268620577
 20
-109.1442406692
  0
VERTEX
  8
0
 62
7
  6
CONTINUOUS
 10
98.5574874272
 20
-119.2526328172
  0
VERTEX
  8
0
 62
7
  6
CONTINUOUS
 10
98.0414096858
 20
-131.4791406084
  0
VERTEX
  8
0
 62
7
  6
CONTINUOUS
 10
97.5119279283
 20
-146.1823220977
  0
VERTEX
  8
0
 62
7
  6
CONTINUOUS
 10
96.8837040533
 20
-161.9526375648
  0
VERTEX
  8
0
 62
7
  6
CONTINUOUS
 10
96.1393709489
 20
-176.9446426866
  0
VERTEX
  8
0
 62
7
  6
CONTINUOUS
 10
95.3360111178
 20
-190.566220787
  0
VERTEX
  8
0
 62
7
  6
CONTINUOUS
 10
94.4982519788
 20
-203.5429952207
  0
VERTEX
  8
0
 62
7
  6
CONTINUOUS
 10
93.6558909431
 20
-216.4533484106
  0
VERTEX
  8
0
 62
7
  6
CONTINUOUS
 10
92.861782223
 20
-228.9587518667
  0
VERTEX
  8
0
 62
7
  6
CONTINUOUS
 10
92.0918513529
 20
-240.8384644083
  0
VERTEX
  8
0
 62
7
  6
CONTINUOUS
 10
91.2060346651
 20
-253.1386772858
  0
VERTEX
  8
0
 62
7
  6
CONTINUOUS
 10
90.2520844103
 20
-264.5873013274
  0
SEQEND
  0
LINE
  8
0
 62
7
  6
CONTINUOUS
 10
100.7457289048
 20
-89.0241687788
 11
100.9829986657
 21
-86.4203650033
  0
LINE
  8
0
 62
7
  6
CONTINUOUS
 10
161.7626155072
 20
102.5431676398
 11
161.7656839718
 21
102.5351946638
  0
LINE
  8
0
 62
7
  6
CONTINUOUS
 10
171.1968712404
 20
81.3993121352
 11
171.1968440027
 21
81.3914951559
  0
LINE
  8
0
 62
7
  6
CONTINUOUS
 10
170.6714666976
 20
-52.1319861859
 11
170.6714541253
 21
-52.1324699331
  0
LINE
  8
0
 62
7
  6
CONTINUOUS
 10
158.5788108589
 20
118.6427739335
 11
158.5761630505
 21
118.6510188479
  0
LINE
  8
0
 62
7
  6
CONTINUOUS
 10
209.6179238968
 20
542.6827425494
 11
209.6179238968
 21
543.3026085295
  0
LINE
  8
0
 62
7
  6
CONTINUOUS
 10
210.1179238968
 20
543.0994263658
 11
210.1179238968
 21
542.4289584091
  0
POLYLINE
  8
0
 62
7
  6
CONTINUOUS
 66
1
 70
0
  0
VERTEX
  8
0
 62
7
  6
CONTINUOUS
 10
366.3161779251
 20
128.1623065763
  0
VERTEX
  8
0
 62
7
  6
CONTINUOUS
 10
367.9856551019
 20
128.3134289818
  0
VERTEX
  8
0
 62
7
  6
CONTINUOUS
 10
369.7815203758
 20
128.4896586161
  0
VERTEX
  8
0
 62
7
  6
CONTINUOUS
 10
371.3813853345
 20
128.6621024409
  0
VERTEX
  8
0
 62
7
  6
CONTINUOUS
 10
372.7987562189
 20
128.8311662949
  0
VERTEX
  8
0
 62
7
  6
CONTINUOUS
 10
374.0476688912
 20
128.9975192074
  0
VERTEX
  8
0
 62
7
  6
CONTINUOUS
 10
375.1432142865
 20
129.1622872034
  0
VERTEX
  8
0
 62
7
  6
CONTINUOUS
 10
376.1019809033
 20
129.3273619733
  0
VERTEX
  8
0
 62
7
  6
CONTINUOUS
 10
376.9437471224
 20
129.4962510133
  0
VERTEX
  8
0
 62
7
  6
CONTINUOUS
 10
377.6942481528
 20
129.6759606154
  0
VERTEX
  8
0
 62
7
  6
CONTINUOUS
 10
378.3905521105
 20
129.8817986787
  0
VERTEX
  8
0
 62
7
  6
CONTINUOUS
 10
379.0920437027
 20
130.1513752955
  0
VERTEX
  8
0
 62
7
  6
CONTINUOUS
 10
379.9016510605
 20
130.591630487
  0
VERTEX
  8
0
 62
7
  6
CONTINUOUS
 10
380.9131219848
 20
131.4949139531
  0
VERTEX
  8
0
 62
7
  6
CONTINUOUS
 10
381.7989802565
 20
133.3380694272
  0
VERTEX
  8
0
 62
7
  6
CONTINUOUS
 10
381.8842185534
 20
134.2103322601
  0
SEQEND
  0
POLYLINE
  8
0
 62
7
  6
CONTINUOUS
 66
1
 70
0
  0
VERTEX
  8
0
 62
7
  6
CONTINUOUS
 10
349.9089642181
 20
127.2082608185
  0
VERTEX
  8
0
 62
7
  6
CONTINUOUS
 10
357.8194223745
 20
127.5811105798
  0
VERTEX
  8
0
 62
7
  6
CONTINUOUS
 10
366.3183014796
 20
128.1624927472
  0
SEQEND
  0
POLYLINE
  8
0
 62
7
  6
CONTINUOUS
 66
1
 70
0
  0
VERTEX
  8
0
 62
7
  6
CONTINUOUS
 10
356.5922366121
 20
137.4805843729
  0
VERTEX
  8
0
 62
7
  6
CONTINUOUS
 10
356.6964689389
 20
137.4835009499
  0
VERTEX
  8
0
 62
7
  6
CONTINUOUS
 10
356.8095808546
 20
137.4891592674
  0
VERTEX
  8
0
 62
7
  6
CONTINUOUS
 10
356.9226254695
 20
137.4973775963
  0
VERTEX
  8
0
 62
7
  6
CONTINUOUS
 10
357.0355839039
 20
137.5081554748
  0
VERTEX
  8
0
 62
7
  6
CONTINUOUS
 10
357.1484369687
 20
137.5214958925
  0
VERTEX
  8
0
 62
7
  6
CONTINUOUS
 10
357.2450428936
 20
137.5349709525
  0
VERTEX
  8
0
 62
7
  6
CONTINUOUS
 10
357.357460455
 20
137.5530572758
  0
VERTEX
  8
0
 62
7
  6
CONTINUOUS
 10
357.4693139502
 20
137.5736467285
  0
VERTEX
  8
0
 62
7
  6
CONTINUOUS
 10
357.5805863654
 20
137.5967285122
  0
VERTEX
  8
0
 62
7
  6
CONTINUOUS
 10
357.6912580101
 20
137.6222948394
  0
VERTEX
  8
0
 62
7
  6
CONTINUOUS
 10
357.8012829858
 20
137.6503343927
  0
VERTEX
  8
0
 62
7
  6
CONTINUOUS
 10
357.9106324664
 20
137.6808418269
  0
VERTEX
  8
0
 62
7
  6
CONTINUOUS
 10
358.0192770507
 20
137.7138143215
  0
VERTEX
  8
0
 62
7
  6
CONTINUOUS
 10
358.1271867851
 20
137.7492516175
  0
VERTEX
  8
0
 62
7
  6
CONTINUOUS
 10
358.2343311794
 20
137.7871560804
  0
VERTEX
  8
0
 62
7
  6
CONTINUOUS
 10
358.3406818286
 20
137.8275337504
  0
VERTEX
  8
0
 62
7
  6
CONTINUOUS
 10
358.4462582946
 20
137.870406861
  0
VERTEX
  8
0
 62
7
  6
CONTINUOUS
 10
358.5510838237
 20
137.9157938075
  0
VERTEX
  8
0
 62
7
  6
CONTINUOUS
 10
358.6551655649
 20
137.9637124766
  0
VERTEX
  8
0
 62
7
  6
CONTINUOUS
 10
358.7584990635
 20
138.0141822896
  0
VERTEX
  8
0
 62
7
  6
CONTINUOUS
 10
358.842774068
 20
138.0575434486
  0
VERTEX
  8
0
 62
7
  6
CONTINUOUS
 10
358.9427763575
 20
138.1116426606
  0
VERTEX
  8
0
 62
7
  6
CONTINUOUS
 10
359.0414305574
 20
138.1679226826
  0
VERTEX
  8
0
 62
7
  6
CONTINUOUS
 10
359.1387247646
 20
138.2263670291
  0
VERTEX
  8
0
 62
7
  6
CONTINUOUS
 10
359.2346450251
 20
138.2869621304
  0
VERTEX
  8
0
 62
7
  6
CONTINUOUS
 10
359.3291753432
 20
138.3496972738
  0
VERTEX
  8
0
 62
7
  6
CONTINUOUS
 10
359.4222976763
 20
138.414564567
  0
VERTEX
  8
0
 62
7
  6
CONTINUOUS
 10
359.5139714735
 20
138.4815436318
  0
VERTEX
  8
0
 62
7
  6
CONTINUOUS
 10
359.6041586813
 20
138.5506175693
  0
VERTEX
  8
0
 62
7
  6
CONTINUOUS
 10
359.6928294228
 20
138.6217782612
  0
VERTEX
  8
0
 62
7
  6
CONTINUOUS
 10
359.779952347
 20
138.6950199006
  0
VERTEX
  8
0
 62
7
  6
CONTINUOUS
 10
359.8654945936
 20
138.7703390955
  0
VERTEX
  8
0
 62
7
  6
CONTINUOUS
 10
359.9494412441
 20
138.847750493
  0
VERTEX
  8
0
 62
7
  6
CONTINUOUS
 10
360.0318061196
 20
138.9272854691
  0
VERTEX
  8
0
 62
7
  6
CONTINUOUS
 10
360.1125911305
 20
139.0089671893
  0
VERTEX
  8
0
 62
7
  6
CONTINUOUS
 10
360.1766169121
 20
139.0764536724
  0
VERTEX
  8
0
 62
7
  6
CONTINUOUS
 10
360.2529572322
 20
139.1603136921
  0
VERTEX
  8
0
 62
7
  6
CONTINUOUS
 10
360.3273145405
 20
139.2457952802
  0
VERTEX
  8
0
 62
7
  6
CONTINUOUS
 10
360.3996839343
 20
139.3328785271
  0
VERTEX
  8
0
 62
7
  6
CONTINUOUS
 10
360.4700576102
 20
139.4215455877
  0
VERTEX
  8
0
 62
7
  6
CONTINUOUS
 10
360.5384248939
 20
139.5117806284
  0
VERTEX
  8
0
 62
7
  6
CONTINUOUS
 10
360.6047722484
 20
139.6035697899
  0
VERTEX
  8
0
 62
7
  6
CONTINUOUS
 10
360.6690832605
 20
139.6969011643
  0
VERTEX
  8
0
 62
7
  6
CONTINUOUS
 10
360.7313386062
 20
139.7917647869
  0
VERTEX
  8
0
 62
7
  6
CONTINUOUS
 10
360.7915159937
 20
139.8881526439
  0
VERTEX
  8
0
 62
7
  6
CONTINUOUS
 10
360.8495653332
 20
139.9860158606
  0
VERTEX
  8
0
 62
7
  6
CONTINUOUS
 10
360.9054548743
 20
140.0853373773
  0
VERTEX
  8
0
 62
7
  6
CONTINUOUS
 10
360.9591522056
 20
140.1861045638
  0
VERTEX
  8
0
 62
7
  6
CONTINUOUS
 10
361.0106251643
 20
140.2883116725
  0
VERTEX
  8
0
 62
7
  6
CONTINUOUS
 10
361.0598644713
 20
140.3919898688
  0
VERTEX
  8
0
 62
7
  6
CONTINUOUS
 10
361.0992635699
 20
140.4797086879
  0
VERTEX
  8
0
 62
7
  6
CONTINUOUS
 10
361.1434004656
 20
140.5837694729
  0
VERTEX
  8
0
 62
7
  6
CONTINUOUS
 10
361.1851369913
 20
140.6887164727
  0
VERTEX
  8
0
 62
7
  6
CONTINUOUS
 10
361.224476075
 20
140.7945292448
  0
VERTEX
  8
0
 62
7
  6
CONTINUOUS
 10
361.2614172364
 20
140.9011883237
  0
VERTEX
  8
0
 62
7
  6
CONTINUOUS
 10
361.2959566334
 20
141.0086751804
  0
VERTEX
  8
0
 62
7
  6
CONTINUOUS
 10
361.3280870848
 20
141.1169721895
  0
VERTEX
  8
0
 62
7
  6
CONTINUOUS
 10
361.3577980668
 20
141.226062603
  0
VERTEX
  8
0
 62
7
  6
CONTINUOUS
 10
361.3850756849
 20
141.3359305313
  0
VERTEX
  8
0
 62
7
  6
CONTINUOUS
 10
361.4099026206
 20
141.44656093
  0
VERTEX
  8
0
 62
7
  6
CONTINUOUS
 10
361.432258052
 20
141.5579395938
  0
VERTEX
  8
0
 62
7
  6
CONTINUOUS
 10
361.4521175469
 20
141.6700531573
  0
VERTEX
  8
0
 62
7
  6
CONTINUOUS
 10
361.4694529273
 20
141.7828891016
  0
VERTEX
  8
0
 62
7
  6
CONTINUOUS
 10
361.4842252665
 20
141.8963780566
  0
VERTEX
  8
0
 62
7
  6
CONTINUOUS
 10
361.4964006635
 20
142.0104906673
  0
SEQEND
  0
LINE
  8
0
 62
7
  6
CONTINUOUS
 10
45.7015202616
 20
127.0215914972
 11
39.6417599066
 21
126.8887411396
  0
LINE
  8
0
 62
7
  6
CONTINUOUS
 10
349.7928630195
 20
137.3603909593
 11
356.5043457669
 21
137.4797697991
  0
LINE
  8
0
 62
7
  6
CONTINUOUS
 10
356.5043457669
 20
137.4797697991
 11
356.5922366121
 21
137.4805843729
  0
LINE
  8
0
 62
7
  6
CONTINUOUS
 10
349.8803050966
 20
137.3611705275
 11
349.7928630195
 21
137.3603909593
  0
POLYLINE
  8
0
 62
7
  6
CONTINUOUS
 66
1
 70
0
  0
VERTEX
  8
0
 62
7
  6
CONTINUOUS
 10
46.6556474084
 20
127.0296526656
  0
VERTEX
  8
0
 62
7
  6
CONTINUOUS
 10
45.1237136441
 20
127.0167097616
  0
VERTEX
  8
0
 62
7
  6
CONTINUOUS
 10
44.0124615327
 20
127.0064416027
  0
VERTEX
  8
0
 62
7
  6
CONTINUOUS
 10
43.1655163161
 20
126.9979263532
  0
VERTEX
  8
0
 62
7
  6
CONTINUOUS
 10
42.4971882601
 20
126.9906485674
  0
VERTEX
  8
0
 62
7
  6
CONTINUOUS
 10
41.9568478566
 20
126.9842893819
  0
VERTEX
  8
0
 62
7
  6
CONTINUOUS
 10
41.5118789199
 20
126.9786396631
  0
VERTEX
  8
0
 62
7
  6
CONTINUOUS
 10
41.1399135095
 20
126.9735527284
  0
VERTEX
  8
0
 62
7
  6
CONTINUOUS
 10
40.8253797075
 20
126.9689211937
  0
VERTEX
  8
0
 62
7
  6
CONTINUOUS
 10
40.5569872989
 20
126.9646654398
  0
VERTEX
  8
0
 62
7
  6
CONTINUOUS
 10
40.3261648344
 20
126.960723328
  0
VERTEX
  8
0
 62
7
  6
CONTINUOUS
 10
40.126321752
 20
126.9570438846
  0
VERTEX
  8
0
 62
7
  6
CONTINUOUS
 10
39.9524054498
 20
126.9535864151
  0
VERTEX
  8
0
 62
7
  6
CONTINUOUS
 10
39.8002909997
 20
126.9503146468
  0
VERTEX
  8
0
 62
7
  6
CONTINUOUS
 10
39.6666691763
 20
126.9471986628
  0
VERTEX
  8
0
 62
7
  6
CONTINUOUS
 10
39.548679575
 20
126.9442075222
  0
VERTEX
  8
0
 62
7
  6
CONTINUOUS
 10
39.4439328469
 20
126.94131069
  0
VERTEX
  8
0
 62
7
  6
CONTINUOUS
 10
39.3503119544
 20
126.9384741081
  0
VERTEX
  8
0
 62
7
  6
CONTINUOUS
 10
39.2658699067
 20
126.9356559731
  0
VERTEX
  8
0
 62
7
  6
CONTINUOUS
 10
39.1889506556
 20
126.9328103224
  0
VERTEX
  8
0
 62
7
  6
CONTINUOUS
 10
39.1178355002
 20
126.9298730528
  0
VERTEX
  8
0
 62
7
  6
CONTINUOUS
 10
39.0505261141
 20
126.9267426035
  0
VERTEX
  8
0
 62
7
  6
CONTINUOUS
 10
38.9844513119
 20
126.9232443658
  0
VERTEX
  8
0
 62
7
  6
CONTINUOUS
 10
38.9161502021
 20
126.9190678934
  0
VERTEX
  8
0
 62
7
  6
CONTINUOUS
 10
38.8403139856
 20
126.9136040525
  0
VERTEX
  8
0
 62
7
  6
CONTINUOUS
 10
38.7483412383
 20
126.9055749506
  0
VERTEX
  8
0
 62
7
  6
CONTINUOUS
 10
38.6258944003
 20
126.8921258712
  0
VERTEX
  8
0
 62
7
  6
CONTINUOUS
 10
38.4424983088
 20
126.8654286739
  0
VERTEX
  8
0
 62
7
  6
CONTINUOUS
 10
38.1251280871
 20
126.7991287184
  0
VERTEX
  8
0
 62
7
  6
CONTINUOUS
 10
37.5184152408
 20
126.5945482872
  0
VERTEX
  8
0
 62
7
  6
CONTINUOUS
 10
36.5996885766
 20
126.0451938061
  0
VERTEX
  8
0
 62
7
  6
CONTINUOUS
 10
35.7092852534
 20
125.0508335506
  0
VERTEX
  8
0
 62
7
  6
CONTINUOUS
 10
35.1670444359
 20
123.685917376
  0
VERTEX
  8
0
 62
7
  6
CONTINUOUS
 10
35.09560705
 20
123.0781646495
  0
SEQEND
  0
LINE
  8
0
 62
7
  6
CONTINUOUS
 10
348.6927093699
 20
137.3511164473
 11
349.7928630195
 21
137.3603909593
  0
LINE
  8
0
 62
7
  6
CONTINUOUS
 10
47.0196032076
 20
127.0324426747
 11
46.1201352895
 21
127.0251282651
  0
LINE
  8
0
 62
7
  6
CONTINUOUS
 10
48.9427575736
 20
127.0471851743
 11
46.6556474084
 21
127.0296526656
  0
LINE
  8
0
 62
7
  6
CONTINUOUS
 10
50.0175538562
 20
127.0549359445
 11
48.9427575736
 21
127.0471851743
  0
LINE
  8
0
 62
7
  6
CONTINUOUS
 10
50.0451854219
 20
127.0550330088
 11
48.5612971708
 21
127.0442609785
  0
LINE
  8
0
 62
7
  6
CONTINUOUS
 10
52.4736167331
 20
127.071767063
 11
50.0451854219
 21
127.0550330088
  0
LINE
  8
0
 62
7
  6
CONTINUOUS
 10
52.8326312087
 20
127.074169417
 11
52.4736167331
 21
127.071767063
  0
LINE
  8
0
 62
7
  6
CONTINUOUS
 10
52.8068067505
 20
127.0740836681
 11
52.4476343338
 21
127.0716803086
  0
LINE
  8
0
 62
7
  6
CONTINUOUS
 10
89.2955771619
 20
137.2803611497
 11
89.7924491636
 21
137.2836056747
  0
LINE
  8
0
 62
7
  6
CONTINUOUS
 10
61.9373844556
 20
127.1316037128
 11
52.8326312087
 21
127.074169417
  0
LINE
  8
0
 62
7
  6
CONTINUOUS
 10
62.9668151407
 20
127.137720689
 11
62.2423055873
 21
127.1334260147
  0
LINE
  8
0
 62
7
  6
CONTINUOUS
 10
62.2202671233
 20
127.1333589419
 11
61.915250153
 21
127.1315362293
  0
LINE
  8
0
 62
7
  6
CONTINUOUS
 10
62.2423055873
 20
127.1334260147
 11
61.9373844556
 21
127.1316037128
  0
LINE
  8
0
 62
7
  6
CONTINUOUS
 10
68.9511069231
 20
127.1727037779
 11
62.9668151407
 21
127.137720689
  0
LINE
  8
0
 62
7
  6
CONTINUOUS
 10
85.0501981739
 20
127.2638369097
 11
68.9511069231
 21
127.1727037779
  0
LINE
  8
0
 62
7
  6
CONTINUOUS
 10
348.6109843211
 20
137.3507530466
 11
348.718117195
 21
137.3513357021
  0
LINE
  8
0
 62
7
  6
CONTINUOUS
 10
89.7924491636
 20
137.2836056747
 11
101.6198722139
 21
137.348720156
  0
LINE
  8
0
 62
7
  6
CONTINUOUS
 10
347.4502254102
 20
137.3455915864
 11
348.6927093699
 21
137.3511164473
  0
LINE
  8
0
 62
7
  6
CONTINUOUS
 10
347.4352129094
 20
137.3455710271
 11
347.509221233
 21
137.3458539188
  0
LINE
  8
0
 62
7
  6
CONTINUOUS
 10
109.1505660817
 20
137.3684258691
 11
101.6198722139
 21
137.348720156
  0
LINE
  8
0
 62
7
  6
CONTINUOUS
 10
331.2024469941
 20
137.3159953111
 11
347.4352129094
 21
137.3455710271
  0
LINE
  8
0
 62
7
  6
CONTINUOUS
 10
330.1301603395
 20
137.3149148431
 11
331.2024469941
 21
137.3159953111
  0
LINE
  8
0
 62
7
  6
CONTINUOUS
 10
329.0628443467
 20
137.3138970731
 11
330.1301603395
 21
137.3149148431
  0
LINE
  8
0
 62
7
  6
CONTINUOUS
 10
62.3512482655
 20
137.4425311483
 11
356.5043457669
 21
137.4797697991
  0
LINE
  8
0
 62
7
  6
CONTINUOUS
 10
88.1436208435
 20
137.2847856491
 11
89.8209864083
 21
137.2835860442
  0
LINE
  8
0
 62
7
  6
CONTINUOUS
 10
71.2872063297
 20
137.311105222
 11
88.1436208435
 21
137.2847856491
  0
LINE
  8
0
 62
7
  6
CONTINUOUS
 10
317.2163157684
 20
137.3760922902
 11
309.7050658642
 21
137.3938153103
  0
LINE
  8
0
 62
7
  6
CONTINUOUS
 10
309.7050656034
 20
137.3938153108
 11
295.2949468112
 21
137.4443340302
  0
LINE
  8
0
 62
7
  6
CONTINUOUS
 10
317.2163157684
 20
137.3760922902
 11
329.0628443467
 21
137.3138970731
  0
LINE
  8
0
 62
7
  6
CONTINUOUS
 10
349.9089642181
 20
127.2082608185
 11
333.8045732841
 21
127.2953464309
  0
LINE
  8
0
 62
7
  6
CONTINUOUS
 10
355.889744852
 20
127.1748085059
 11
349.9089642181
 21
127.2082608185
  0
LINE
  8
0
 62
7
  6
CONTINUOUS
 10
371.4166720883
 20
127.076773383
 11
355.8897449595
 21
127.1748085053
  0
LINE
  8
0
 62
7
  6
CONTINUOUS
 10
69.0627610237
 20
137.3248516081
 11
71.2872063297
 21
137.311105222
  0
LINE
  8
0
 62
7
  6
CONTINUOUS
 10
329.0628443467
 20
137.3138970731
 11
329.5600587945
 21
137.310777709
  0
POLYLINE
  8
0
 62
7
  6
CONTINUOUS
 66
1
 70
0
  0
VERTEX
  8
0
 62
7
  6
CONTINUOUS
 10
69.0388279128
 20
137.3252712508
  0
VERTEX
  8
0
 62
7
  6
CONTINUOUS
 10
70.1629169862
 20
137.3158556469
  0
VERTEX
  8
0
 62
7
  6
CONTINUOUS
 10
71.272090702
 20
137.3111223087
  0
SEQEND
  0
LINE
  8
0
 62
7
  6
CONTINUOUS
 10
69.0627610237
 20
137.3248516081
 11
68.975318752
 21
137.3256090366
  0
LINE
  8
0
 62
7
  6
CONTINUOUS
 10
62.263356693
 20
137.4432976422
 11
62.3512482655
 21
137.4425311483
  0
LINE
  8
0
 62
7
  6
CONTINUOUS
 10
62.3512482655
 20
137.4425311483
 11
69.0627610237
 21
137.3248516081
  0
LINE
  8
0
 62
7
  6
CONTINUOUS
 10
379.216605853
 20
126.9317295704
 11
371.4166720883
 21
127.076773383
  0
LINE
  8
0
 62
7
  6
CONTINUOUS
 10
61.0841568712
 20
127.5410010491
 11
68.9511069231
 21
127.1727037779
  0
LINE
  8
0
 62
7
  6
CONTINUOUS
 10
52.5398198242
 20
128.1227548549
 11
61.0841568712
 21
127.5410010491
  0
POLYLINE
  8
0
 62
7
  6
CONTINUOUS
 66
1
 70
0
  0
VERTEX
  8
0
 62
7
  6
CONTINUOUS
 10
89.2578295717
 20
137.2801732085
  0
VERTEX
  8
0
 62
7
  6
CONTINUOUS
 10
88.5651182415
 20
137.2127315869
  0
VERTEX
  8
0
 62
7
  6
CONTINUOUS
 10
87.9931329217
 20
137.0620691821
  0
VERTEX
  8
0
 62
7
  6
CONTINUOUS
 10
87.5008826734
 20
136.854680258
  0
VERTEX
  8
0
 62
7
  6
CONTINUOUS
 10
87.0717640113
 20
136.6044301371
  0
VERTEX
  8
0
 62
7
  6
CONTINUOUS
 10
86.6921711361
 20
136.3164328945
  0
VERTEX
  8
0
 62
7
  6
CONTINUOUS
 10
86.3592256958
 20
135.9958572189
  0
VERTEX
  8
0
 62
7
  6
CONTINUOUS
 10
86.0713606364
 20
135.6465957553
  0
VERTEX
  8
0
 62
7
  6
CONTINUOUS
 10
85.8303140648
 20
135.276985899
  0
VERTEX
  8
0
 62
7
  6
CONTINUOUS
 10
85.6358732867
 20
134.8935368647
  0
VERTEX
  8
0
 62
7
  6
CONTINUOUS
 10
85.4863012651
 20
134.4990304846
  0
VERTEX
  8
0
 62
7
  6
CONTINUOUS
 10
85.3815537057
 20
134.1020169018
  0
VERTEX
  8
0
 62
7
  6
CONTINUOUS
 10
85.3174942738
 20
133.6912987852
  0
VERTEX
  8
0
 62
7
  6
CONTINUOUS
 10
85.2966548567
 20
133.3311098178
  0
SEQEND
  0
LINE
  8
0
 62
7
  6
CONTINUOUS
 10
248.2321423224
 20
-52.1226537127
 11
248.2321296156
 21
-52.1221673043
  0
LINE
  8
0
 62
7
  6
CONTINUOUS
 10
257.1015367209
 20
102.5545190149
 11
257.0984664892
 21
102.5465298553
  0
POLYLINE
  8
0
 62
7
  6
CONTINUOUS
 66
1
 70
0
  0
VERTEX
  8
0
 62
7
  6
CONTINUOUS
 10
44.6881212131
 20
174.5512698418
  0
VERTEX
  8
0
 62
7
  6
CONTINUOUS
 10
43.973409298
 20
174.4379836762
  0
VERTEX
  8
0
 62
7
  6
CONTINUOUS
 10
43.162157322
 20
174.2906777895
  0
VERTEX
  8
0
 62
7
  6
CONTINUOUS
 10
42.4262936491
 20
174.1325485301
  0
VERTEX
  8
0
 62
7
  6
CONTINUOUS
 10
41.7354769917
 20
173.9525723028
  0
VERTEX
  8
0
 62
7
  6
CONTINUOUS
 10
41.0431690065
 20
173.7262113068
  0
VERTEX
  8
0
 62
7
  6
CONTINUOUS
 10
40.2837187654
 20
173.398160045
  0
VERTEX
  8
0
 62
7
  6
CONTINUOUS
 10
39.348441145
 20
172.8206749422
  0
VERTEX
  8
0
 62
7
  6
CONTINUOUS
 10
38.209474551
 20
171.6640282967
  0
VERTEX
  8
0
 62
7
  6
CONTINUOUS
 10
37.3111694672
 20
169.5923580769
  0
VERTEX
  8
0
 62
7
  6
CONTINUOUS
 10
37.2180394518
 20
168.651440402
  0
SEQEND
  0
LINE
  8
0
 62
7
  6
CONTINUOUS
 10
44.6881212131
 20
174.5512698418
 11
44.6871088418
 21
174.5511181549
  0
POLYLINE
  8
0
 62
7
  6
CONTINUOUS
 66
1
 70
0
  0
VERTEX
  8
0
 62
7
  6
CONTINUOUS
 10
54.1430561646
 20
175.7369205085
  0
VERTEX
  8
0
 62
7
  6
CONTINUOUS
 10
52.9139197415
 20
175.6137237855
  0
VERTEX
  8
0
 62
7
  6
CONTINUOUS
 10
44.6871088418
 20
174.5511181549
  0
SEQEND
  0
POLYLINE
  8
0
 62
7
  6
CONTINUOUS
 66
1
 70
0
  0
VERTEX
  8
0
 62
7
  6
CONTINUOUS
 10
374.1590454548
 20
174.5928345604
  0
VERTEX
  8
0
 62
7
  6
CONTINUOUS
 10
365.91160847
 20
175.655652907
  0
VERTEX
  8
0
 62
7
  6
CONTINUOUS
 10
364.7028607529
 20
175.7764361882
  0
SEQEND
  0
LINE
  8
0
 62
7
  6
CONTINUOUS
 10
374.1590454548
 20
174.5928345604
 11
374.1580517547
 21
174.5929831853
  0
LINE
  8
0
 62
7
  6
CONTINUOUS
 10
318.1672248751
 20
-88.9963484853
 11
318.166602728
 21
-88.989869729
  0
POLYLINE
  8
0
 62
7
  6
CONTINUOUS
 66
1
 70
0
  0
VERTEX
  8
0
 62
7
  6
CONTINUOUS
 10
318.1665579728
 20
-88.9898562598
  0
VERTEX
  8
0
 62
7
  6
CONTINUOUS
 10
317.9292769674
 20
-86.3929004389
  0
VERTEX
  8
0
 62
7
  6
CONTINUOUS
 10
317.3034345305
 20
-77.8630769109
  0
VERTEX
  8
0
 62
7
  6
CONTINUOUS
 10
316.8253857068
 20
-68.4837141933
  0
VERTEX
  8
0
 62
7
  6
CONTINUOUS
 10
316.3078635325
 20
-58.8421652414
  0
VERTEX
  8
0
 62
7
  6
CONTINUOUS
 10
316.0425596531
 20
-55.3814223572
  0
SEQEND
  0
POLYLINE
  8
0
 62
7
  6
CONTINUOUS
 66
1
 70
0
  0
VERTEX
  8
0
 62
7
  6
CONTINUOUS
 10
328.7053013758
 20
-264.5571140672
  0
VERTEX
  8
0
 62
7
  6
CONTINUOUS
 10
327.7484524481
 20
-253.1087319255
  0
VERTEX
  8
0
 62
7
  6
CONTINUOUS
 10
326.8595214695
 20
-240.8087437242
  0
VERTEX
  8
0
 62
7
  6
CONTINUOUS
 10
326.0865827722
 20
-228.929226504
  0
VERTEX
  8
0
 62
7
  6
CONTINUOUS
 10
325.2893078057
 20
-216.4240245109
  0
VERTEX
  8
0
 62
7
  6
CONTINUOUS
 10
324.443677995
 20
-203.5138850142
  0
VERTEX
  8
0
 62
7
  6
CONTINUOUS
 10
323.6026332634
 20
-190.5373231106
  0
VERTEX
  8
0
 62
7
  6
CONTINUOUS
 10
322.7958245793
 20
-176.9159488513
  0
VERTEX
  8
0
 62
7
  6
CONTINUOUS
 10
322.0476956384
 20
-161.9241326695
  0
VERTEX
  8
0
 62
7
  6
CONTINUOUS
 10
321.4154788611
 20
-146.1539767693
  0
VERTEX
  8
0
 62
7
  6
CONTINUOUS
 10
320.8822743882
 20
-131.450929812
  0
VERTEX
  8
0
 62
7
  6
CONTINUOUS
 10
320.3631010057
 20
-119.2245530796
  0
VERTEX
  8
0
 62
7
  6
CONTINUOUS
 10
319.7911670263
 20
-109.1163054169
  0
VERTEX
  8
0
 62
7
  6
CONTINUOUS
 10
319.1168061268
 20
-99.7987046873
  0
VERTEX
  8
0
 62
7
  6
CONTINUOUS
 10
318.167914935
 20
-89.0035555554
  0
SEQEND
  0
LINE
  8
0
 62
7
  6
CONTINUOUS
 10
316.042548152
 20
-55.3812884744
 11
316.0421526244
 21
-55.376460876
  0
POLYLINE
  8
0
 62
7
  6
CONTINUOUS
 66
1
 70
0
  0
VERTEX
  8
0
 62
7
  6
CONTINUOUS
 10
316.0425411967
 20
-55.3755270169
  0
VERTEX
  8
0
 62
7
  6
CONTINUOUS
 10
316.1435825518
 20
-52.5760583877
  0
VERTEX
  8
0
 62
7
  6
CONTINUOUS
 10
316.8714617731
 20
-49.992446239
  0
VERTEX
  8
0
 62
7
  6
CONTINUOUS
 10
317.9876795671
 20
-47.9242938811
  0
VERTEX
  8
0
 62
7
  6
CONTINUOUS
 10
319.3906756516
 20
-46.2459822461
  0
SEQEND
  0
POLYLINE
  8
0
 62
7
  6
CONTINUOUS
 66
1
 70
0
  0
VERTEX
  8
0
 62
7
  6
CONTINUOUS
 10
334.1259615491
 20
125.6999159853
  0
VERTEX
  8
0
 62
7
  6
CONTINUOUS
 10
334.1158739343
 20
125.7269098933
  0
VERTEX
  8
0
 62
7
  6
CONTINUOUS
 10
333.9983076089
 20
126.1473307461
  0
SEQEND
  0
LINE
  8
0
 62
7
  6
CONTINUOUS
 10
333.9983076089
 20
126.1473307461
 11
333.8185124246
 21
127.1545818503
  0
POLYLINE
  8
0
 62
7
  6
CONTINUOUS
 66
1
 70
0
  0
VERTEX
  8
0
 62
7
  6
CONTINUOUS
 10
333.8185124246
 20
127.1545818503
  0
VERTEX
  8
0
 62
7
  6
CONTINUOUS
 10
333.655867373
 20
128.7970548921
  0
VERTEX
  8
0
 62
7
  6
CONTINUOUS
 10
333.582023464
 20
130.7804993437
  0
VERTEX
  8
0
 62
7
  6
CONTINUOUS
 10
333.580083687
 20
131.042517283
  0
SEQEND
  0
POLYLINE
  8
0
 62
7
  6
CONTINUOUS
 66
1
 70
0
  0
VERTEX
  8
0
 62
7
  6
CONTINUOUS
 10
333.5599756403
 20
133.3626725928
  0
VERTEX
  8
0
 62
7
  6
CONTINUOUS
 10
333.5534869748
 20
133.5442682384
  0
VERTEX
  8
0
 62
7
  6
CONTINUOUS
 10
333.5008006112
 20
133.9984179739
  0
VERTEX
  8
0
 62
7
  6
CONTINUOUS
 10
333.3837918089
 20
134.4865460688
  0
VERTEX
  8
0
 62
7
  6
CONTINUOUS
 10
333.1884455287
 20
134.9953335066
  0
VERTEX
  8
0
 62
7
  6
CONTINUOUS
 10
332.9108930803
 20
135.4955044502
  0
VERTEX
  8
0
 62
7
  6
CONTINUOUS
 10
332.5518603269
 20
135.9661576934
  0
VERTEX
  8
0
 62
7
  6
CONTINUOUS
 10
332.1103353113
 20
136.3924161283
  0
VERTEX
  8
0
 62
7
  6
CONTINUOUS
 10
331.5860302452
 20
136.7596842982
  0
VERTEX
  8
0
 62
7
  6
CONTINUOUS
 10
330.9817353934
 20
137.0497042935
  0
VERTEX
  8
0
 62
7
  6
CONTINUOUS
 10
330.3044336897
 20
137.2407263907
  0
VERTEX
  8
0
 62
7
  6
CONTINUOUS
 10
329.5701284672
 20
137.3107659949
  0
SEQEND
  0
POLYLINE
  8
0
 62
7
  6
CONTINUOUS
 66
1
 70
0
  0
VERTEX
  8
0
 62
7
  6
CONTINUOUS
 10
333.5800836433
 20
131.0425279136
  0
VERTEX
  8
0
 62
7
  6
CONTINUOUS
 10
333.578817289
 20
131.312800805
  0
VERTEX
  8
0
 62
7
  6
CONTINUOUS
 10
333.5649329403
 20
132.9774812992
  0
VERTEX
  8
0
 62
7
  6
CONTINUOUS
 10
333.5602303179
 20
133.3625378158
  0
SEQEND
  0
LINE
  8
0
 62
7
  6
CONTINUOUS
 10
333.5602290925
 20
133.3623578618
 11
333.5602303178
 21
133.3625378233
  0
LINE
  8
0
 62
7
  6
CONTINUOUS
 10
394.8023599021
 20
492.7421928644
 11
393.8189340631
 21
482.3861296735
  0
LINE
  8
0
 62
7
  6
CONTINUOUS
 10
361.4964006635
 20
142.0104906673
 11
392.8711048393
 21
472.4049201646
  0
POLYLINE
  8
0
 62
7
  6
CONTINUOUS
 66
1
 70
0
  0
VERTEX
  8
0
 62
7
  6
CONTINUOUS
 10
393.8189340631
 20
482.3861296735
  0
VERTEX
  8
0
 62
7
  6
CONTINUOUS
 10
393.8140501003
 20
482.3372821795
  0
VERTEX
  8
0
 62
7
  6
CONTINUOUS
 10
393.8064329397
 20
482.2692790524
  0
VERTEX
  8
0
 62
7
  6
CONTINUOUS
 10
393.7978756903
 20
482.2013814705
  0
VERTEX
  8
0
 62
7
  6
CONTINUOUS
 10
393.7883804008
 20
482.1335933136
  0
VERTEX
  8
0
 62
7
  6
CONTINUOUS
 10
393.7779486592
 20
482.0659185426
  0
VERTEX
  8
0
 62
7
  6
CONTINUOUS
 10
393.7665815943
 20
481.9983612015
  0
VERTEX
  8
0
 62
7
  6
CONTINUOUS
 10
393.7542798768
 20
481.9309254189
  0
VERTEX
  8
0
 62
7
  6
CONTINUOUS
 10
393.7410437185
 20
481.863615411
  0
VERTEX
  8
0
 62
7
  6
CONTINUOUS
 10
393.7268728706
 20
481.7964354833
  0
VERTEX
  8
0
 62
7
  6
CONTINUOUS
 10
393.7117666204
 20
481.7293900339
  0
VERTEX
  8
0
 62
7
  6
CONTINUOUS
 10
393.695723787
 20
481.6624835564
  0
VERTEX
  8
0
 62
7
  6
CONTINUOUS
 10
393.6872494999
 20
481.6286862325
  0
VERTEX
  8
0
 62
7
  6
CONTINUOUS
 10
393.6697891253
 20
481.5619835678
  0
VERTEX
  8
0
 62
7
  6
CONTINUOUS
 10
393.6514308903
 20
481.4955872549
  0
VERTEX
  8
0
 62
7
  6
CONTINUOUS
 10
393.6321783801
 20
481.4295004826
  0
VERTEX
  8
0
 62
7
  6
CONTINUOUS
 10
393.6120347185
 20
481.3637266216
  0
VERTEX
  8
0
 62
7
  6
CONTINUOUS
 10
393.5910025764
 20
481.298269223
  0
VERTEX
  8
0
 62
7
  6
CONTINUOUS
 10
393.5690844094
 20
481.2331326904
  0
VERTEX
  8
0
 62
7
  6
CONTINUOUS
 10
393.5462845845
 20
481.1683280339
  0
VERTEX
  8
0
 62
7
  6
CONTINUOUS
 10
393.5226055171
 20
481.1038612275
  0
VERTEX
  8
0
 62
7
  6
CONTINUOUS
 10
393.4980492907
 20
481.0397383631
  0
VERTEX
  8
0
 62
7
  6
CONTINUOUS
 10
393.4726176556
 20
480.9759656475
  0
VERTEX
  8
0
 62
7
  6
CONTINUOUS
 10
393.446312028
 20
480.9125494005
  0
VERTEX
  8
0
 62
7
  6
CONTINUOUS
 10
393.4191334865
 20
480.8494960531
  0
VERTEX
  8
0
 62
7
  6
CONTINUOUS
 10
393.3910827684
 20
480.7868121462
  0
VERTEX
  8
0
 62
7
  6
CONTINUOUS
 10
393.3621602642
 20
480.7245043306
  0
VERTEX
  8
0
 62
7
  6
CONTINUOUS
 10
393.3323660116
 20
480.6625793664
  0
VERTEX
  8
0
 62
7
  6
CONTINUOUS
 10
393.3016996873
 20
480.6010441237
  0
VERTEX
  8
0
 62
7
  6
CONTINUOUS
 10
393.2701573006
 20
480.5398979039
  0
VERTEX
  8
0
 62
7
  6
CONTINUOUS
 10
393.2377330888
 20
480.4791319838
  0
VERTEX
  8
0
 62
7
  6
CONTINUOUS
 10
393.2044225688
 20
480.4187406325
  0
VERTEX
  8
0
 62
7
  6
CONTINUOUS
 10
393.1702215083
 20
480.3587207515
  0
VERTEX
  8
0
 62
7
  6
CONTINUOUS
 10
393.1351257856
 20
480.2990713249
  0
VERTEX
  8
0
 62
7
  6
CONTINUOUS
 10
393.0991312842
 20
480.2397930185
  0
VERTEX
  8
0
 62
7
  6
CONTINUOUS
 10
393.0622338114
 20
480.1808878828
  0
VERTEX
  8
0
 62
7
  6
CONTINUOUS
 10
393.0244290319
 20
480.1223591312
  0
VERTEX
  8
0
 62
7
  6
CONTINUOUS
 10
393.0038048771
 20
480.0911654888
  0
VERTEX
  8
0
 62
7
  6
CONTINUOUS
 10
392.9651747986
 20
480.0340633012
  0
VERTEX
  8
0
 62
7
  6
CONTINUOUS
 10
392.9257962564
 20
479.9775424763
  0
VERTEX
  8
0
 62
7
  6
CONTINUOUS
 10
392.8856738691
 20
479.9216046599
  0
VERTEX
  8
0
 62
7
  6
CONTINUOUS
 10
392.8448118796
 20
479.8662518246
  0
VERTEX
  8
0
 62
7
  6
CONTINUOUS
 10
392.803214163
 20
479.811486266
  0
VERTEX
  8
0
 62
7
  6
CONTINUOUS
 10
392.7608842326
 20
479.7573105999
  0
VERTEX
  8
0
 62
7
  6
CONTINUOUS
 10
392.7178252455
 20
479.7037277605
  0
VERTEX
  8
0
 62
7
  6
CONTINUOUS
 10
392.6740400067
 20
479.6507409994
  0
VERTEX
  8
0
 62
7
  6
CONTINUOUS
 10
392.6295309723
 20
479.5983538856
  0
VERTEX
  8
0
 62
7
  6
CONTINUOUS
 10
392.5843002517
 20
479.5465703064
  0
VERTEX
  8
0
 62
7
  6
CONTINUOUS
 10
392.5383496093
 20
479.4953944688
  0
VERTEX
  8
0
 62
7
  6
CONTINUOUS
 10
392.4916826549
 20
479.4448332428
  0
VERTEX
  8
0
 62
7
  6
CONTINUOUS
 10
392.4443087343
 20
479.3948998928
  0
VERTEX
  8
0
 62
7
  6
CONTINUOUS
 10
392.3962305237
 20
479.3456006934
  0
VERTEX
  8
0
 62
7
  6
CONTINUOUS
 10
392.3474504165
 20
479.2969421504
  0
VERTEX
  8
0
 62
7
  6
CONTINUOUS
 10
392.2979705171
 20
479.2489310032
  0
VERTEX
  8
0
 62
7
  6
CONTINUOUS
 10
392.2477926327
 20
479.2015742283
  0
VERTEX
  8
0
 62
7
  6
CONTINUOUS
 10
392.1969182648
 20
479.1548790437
  0
VERTEX
  8
0
 62
7
  6
CONTINUOUS
 10
392.1453480617
 20
479.1088524159
  0
VERTEX
  8
0
 62
7
  6
CONTINUOUS
 10
392.0930748471
 20
479.0634930631
  0
VERTEX
  8
0
 62
7
  6
CONTINUOUS
 10
392.0400914622
 20
479.0187974282
  0
VERTEX
  8
0
 62
7
  6
CONTINUOUS
 10
391.9863919881
 20
478.9747640648
  0
VERTEX
  8
0
 62
7
  6
CONTINUOUS
 10
391.9319712602
 20
478.9313934212
  0
VERTEX
  8
0
 62
7
  6
CONTINUOUS
 10
391.8768246578
 20
478.8886875351
  0
VERTEX
  8
0
 62
7
  6
CONTINUOUS
 10
391.8479040429
 20
478.8667772769
  0
VERTEX
  8
0
 62
7
  6
CONTINUOUS
 10
391.7925380547
 20
478.8257393304
  0
VERTEX
  8
0
 62
7
  6
CONTINUOUS
 10
391.736654404
 20
478.7854944246
  0
VERTEX
  8
0
 62
7
  6
CONTINUOUS
 10
391.6802580884
 20
478.7460423568
  0
VERTEX
  8
0
 62
7
  6
CONTINUOUS
 10
391.6233538605
 20
478.7073833581
  0
VERTEX
  8
0
 62
7
  6
CONTINUOUS
 10
391.5659462339
 20
478.6695180877
  0
VERTEX
  8
0
 62
7
  6
CONTINUOUS
 10
391.5080394882
 20
478.6324476279
  0
VERTEX
  8
0
 62
7
  6
CONTINUOUS
 10
391.4496376735
 20
478.5961734803
  0
VERTEX
  8
0
 62
7
  6
CONTINUOUS
 10
391.3907446139
 20
478.5606975637
  0
VERTEX
  8
0
 62
7
  6
CONTINUOUS
 10
391.3313639113
 20
478.5260222126
  0
VERTEX
  8
0
 62
7
  6
CONTINUOUS
 10
391.271498947
 20
478.492150177
  0
VERTEX
  8
0
 62
7
  6
CONTINUOUS
 10
391.2111528843
 20
478.4590846237
  0
VERTEX
  8
0
 62
7
  6
CONTINUOUS
 10
391.1503286695
 20
478.4268291382
  0
VERTEX
  8
0
 62
7
  6
CONTINUOUS
 10
391.0890290326
 20
478.3953877282
  0
VERTEX
  8
0
 62
7
  6
CONTINUOUS
 10
391.0272564876
 20
478.364764828
  0
VERTEX
  8
0
 62
7
  6
CONTINUOUS
 10
390.9650133316
 20
478.3349653044
  0
VERTEX
  8
0
 62
7
  6
CONTINUOUS
 10
390.9023016439
 20
478.3059944631
  0
VERTEX
  8
0
 62
7
  6
CONTINUOUS
 10
390.8391232844
 20
478.2778580574
  0
VERTEX
  8
0
 62
7
  6
CONTINUOUS
 10
390.7754984058
 20
478.2505700869
  0
VERTEX
  8
0
 62
7
  6
CONTINUOUS
 10
390.7114310675
 20
478.2241373972
  0
VERTEX
  8
0
 62
7
  6
CONTINUOUS
 10
390.6469248406
 20
478.1985670564
  0
VERTEX
  8
0
 62
7
  6
CONTINUOUS
 10
390.5819830808
 20
478.173866494
  0
VERTEX
  8
0
 62
7
  6
CONTINUOUS
 10
390.51660603
 20
478.1500422545
  0
VERTEX
  8
0
 62
7
  6
CONTINUOUS
 10
390.4507854068
 20
478.1270957524
  0
VERTEX
  8
0
 62
7
  6
CONTINUOUS
 10
390.3845144623
 20
478.1050281426
  0
VERTEX
  8
0
 62
7
  6
CONTINUOUS
 10
390.3500805705
 20
478.0939667524
  0
VERTEX
  8
0
 62
7
  6
CONTINUOUS
 10
390.2843284493
 20
478.073603869
  0
VERTEX
  8
0
 62
7
  6
CONTINUOUS
 10
390.2183457832
 20
478.0541589219
  0
VERTEX
  8
0
 62
7
  6
CONTINUOUS
 10
390.152137212
 20
478.0356298472
  0
VERTEX
  8
0
 62
7
  6
CONTINUOUS
 10
390.0857072897
 20
478.0180150708
  0
VERTEX
  8
0
 62
7
  6
CONTINUOUS
 10
390.0190604882
 20
478.0013135005
  0
VERTEX
  8
0
 62
7
  6
CONTINUOUS
 10
389.9522012005
 20
477.98552452
  0
VERTEX
  8
0
 62
7
  6
CONTINUOUS
 10
389.8851337431
 20
477.9706479834
  0
VERTEX
  8
0
 62
7
  6
CONTINUOUS
 10
389.8178623598
 20
477.9566842121
  0
VERTEX
  8
0
 62
7
  6
CONTINUOUS
 10
389.7503912232
 20
477.943633992
  0
VERTEX
  8
0
 62
7
  6
CONTINUOUS
 10
389.6827244375
 20
477.9314985731
  0
VERTEX
  8
0
 62
7
  6
CONTINUOUS
 10
389.6148660407
 20
477.9202796692
  0
VERTEX
  8
0
 62
7
  6
CONTINUOUS
 10
389.5468200065
 20
477.9099794595
  0
VERTEX
  8
0
 62
7
  6
CONTINUOUS
 10
389.4785902457
 20
477.9006005919
  0
VERTEX
  8
0
 62
7
  6
CONTINUOUS
 10
389.4101806083
 20
477.8921461866
  0
VERTEX
  8
0
 62
7
  6
CONTINUOUS
 10
389.3415948847
 20
477.8846198415
  0
VERTEX
  8
0
 62
7
  6
CONTINUOUS
 10
389.2728368069
 20
477.8780256395
  0
VERTEX
  8
0
 62
7
  6
CONTINUOUS
 10
389.2039100494
 20
477.8723681561
  0
VERTEX
  8
0
 62
7
  6
CONTINUOUS
 10
389.1348182306
 20
477.8676524694
  0
VERTEX
  8
0
 62
7
  6
CONTINUOUS
 10
389.0655649128
 20
477.8638841709
  0
VERTEX
  8
0
 62
7
  6
CONTINUOUS
 10
388.9961536034
 20
477.8610693783
  0
VERTEX
  8
0
 62
7
  6
CONTINUOUS
 10
388.9265877547
 20
477.85921475
  0
VERTEX
  8
0
 62
7
  6
CONTINUOUS
 10
388.8568771263
 20
477.8583275373
  0
VERTEX
  8
0
 62
7
  6
CONTINUOUS
 10
388.7870452592
 20
477.8584150952
  0
VERTEX
  8
0
 62
7
  6
CONTINUOUS
 10
388.7170977106
 20
477.8594846338
  0
SEQEND
  0
POLYLINE
  8
0
 62
7
  6
CONTINUOUS
 66
1
 70
0
  0
VERTEX
  8
0
 62
7
  6
CONTINUOUS
 10
210.1179238968
 20
542.4779127226
  0
VERTEX
  8
0
 62
7
  6
CONTINUOUS
 10
210.133212958
 20
542.4385018793
  0
VERTEX
  8
0
 62
7
  6
CONTINUOUS
 10
210.1562224044
 20
542.4184745519
  0
SEQEND
  0
POLYLINE
  8
0
 62
7
  6
CONTINUOUS
 66
1
 70
0
  0
VERTEX
  8
0
 62
7
  6
CONTINUOUS
 10
381.6296517623
 20
168.6950227851
  0
VERTEX
  8
0
 62
7
  6
CONTINUOUS
 10
381.535279464
 20
169.6411327765
  0
VERTEX
  8
0
 62
7
  6
CONTINUOUS
 10
380.6325692001
 20
171.7141146446
  0
VERTEX
  8
0
 62
7
  6
CONTINUOUS
 10
379.4917011396
 20
172.8686145643
  0
VERTEX
  8
0
 62
7
  6
CONTINUOUS
 10
378.5561001232
 20
173.4443295683
  0
VERTEX
  8
0
 62
7
  6
CONTINUOUS
 10
377.7962102897
 20
173.7714389052
  0
VERTEX
  8
0
 62
7
  6
CONTINUOUS
 10
377.102867661
 20
173.9973396791
  0
VERTEX
  8
0
 62
7
  6
CONTINUOUS
 10
376.4104585576
 20
174.1770737773
  0
VERTEX
  8
0
 62
7
  6
CONTINUOUS
 10
375.6724180302
 20
174.335069275
  0
VERTEX
  8
0
 62
7
  6
CONTINUOUS
 10
374.858415004
 20
174.4822879171
  0
VERTEX
  8
0
 62
7
  6
CONTINUOUS
 10
374.1580530072
 20
174.592982998
  0
SEQEND
  0
LINE
  8
0
 62
7
  6
CONTINUOUS
 10
383.7636223396
 20
123.1223033571
 11
383.7636068921
 21
123.1225552308
  0
LINE
  8
0
 62
7
  6
CONTINUOUS
 10
381.8842185534
 20
134.2103322601
 11
381.8842900779
 21
134.2065619295
  0
LINE
  8
0
 62
7
  6
CONTINUOUS
 10
381.8842900779
 20
134.2065619295
 11
381.6296530944
 21
168.6975942335
  0
LINE
  8
0
 62
7
  6
CONTINUOUS
 10
381.6296530944
 20
168.6975942334
 11
381.6296517623
 21
168.6950227851
  0
POLYLINE
  8
0
 62
7
  6
CONTINUOUS
 66
1
 70
0
  0
VERTEX
  8
0
 62
7
  6
CONTINUOUS
 10
392.8711048393
 20
472.4049201646
  0
VERTEX
  8
0
 62
7
  6
CONTINUOUS
 10
392.8799179401
 20
472.509569108
  0
VERTEX
  8
0
 62
7
  6
CONTINUOUS
 10
392.8868905412
 20
472.6219026164
  0
VERTEX
  8
0
 62
7
  6
CONTINUOUS
 10
392.8913098642
 20
472.7343269576
  0
VERTEX
  8
0
 62
7
  6
CONTINUOUS
 10
392.8931849136
 20
472.846824037
  0
VERTEX
  8
0
 62
7
  6
CONTINUOUS
 10
392.8925212247
 20
472.9593755971
  0
VERTEX
  8
0
 62
7
  6
CONTINUOUS
 10
392.8893209062
 20
473.0719631942
  0
VERTEX
  8
0
 62
7
  6
CONTINUOUS
 10
392.8835826561
 20
473.1845681733
  0
VERTEX
  8
0
 62
7
  6
CONTINUOUS
 10
392.8753017528
 20
473.2971716421
  0
VERTEX
  8
0
 62
7
  6
CONTINUOUS
 10
392.8644700203
 20
473.4097544436
  0
VERTEX
  8
0
 62
7
  6
CONTINUOUS
 10
392.8510757679
 20
473.522297126
  0
VERTEX
  8
0
 62
7
  6
CONTINUOUS
 10
392.8351037026
 20
473.6347799119
  0
VERTEX
  8
0
 62
7
  6
CONTINUOUS
 10
392.816534812
 20
473.7471826633
  0
VERTEX
  8
0
 62
7
  6
CONTINUOUS
 10
392.7953462177
 20
473.8594848457
  0
VERTEX
  8
0
 62
7
  6
CONTINUOUS
 10
392.7743231292
 20
473.9590626949
  0
VERTEX
  8
0
 62
7
  6
CONTINUOUS
 10
392.7485646491
 20
474.0692799534
  0
VERTEX
  8
0
 62
7
  6
CONTINUOUS
 10
392.7203734773
 20
474.1786448369
  0
VERTEX
  8
0
 62
7
  6
CONTINUOUS
 10
392.6897639094
 20
474.2871336783
  0
VERTEX
  8
0
 62
7
  6
CONTINUOUS
 10
392.6567475893
 20
474.3947223931
  0
VERTEX
  8
0
 62
7
  6
CONTINUOUS
 10
392.6213233714
 20
474.5014191507
  0
VERTEX
  8
0
 62
7
  6
CONTINUOUS
 10
392.5834701775
 20
474.607305821
  0
VERTEX
  8
0
 62
7
  6
CONTINUOUS
 10
392.5431797451
 20
474.7124203813
  0
VERTEX
  8
0
 62
7
  6
CONTINUOUS
 10
392.5004466661
 20
474.8167725727
  0
VERTEX
  8
0
 62
7
  6
CONTINUOUS
 10
392.4552658525
 20
474.9203566891
  0
VERTEX
  8
0
 62
7
  6
CONTINUOUS
 10
392.4076543718
 20
475.023109469
  0
VERTEX
  8
0
 62
7
  6
CONTINUOUS
 10
392.357617357
 20
475.1249928393
  0
VERTEX
  8
0
 62
7
  6
CONTINUOUS
 10
392.3051450141
 20
475.2259926522
  0
VERTEX
  8
0
 62
7
  6
CONTINUOUS
 10
392.250224078
 20
475.3260916753
  0
VERTEX
  8
0
 62
7
  6
CONTINUOUS
 10
392.192837677
 20
475.4252698099
  0
VERTEX
  8
0
 62
7
  6
CONTINUOUS
 10
392.1394153834
 20
475.5131605713
  0
VERTEX
  8
0
 62
7
  6
CONTINUOUS
 10
392.0783231521
 20
475.6089633738
  0
VERTEX
  8
0
 62
7
  6
CONTINUOUS
 10
392.0151847216
 20
475.703209443
  0
VERTEX
  8
0
 62
7
  6
CONTINUOUS
 10
391.950022256
 20
475.7958797648
  0
VERTEX
  8
0
 62
7
  6
CONTINUOUS
 10
391.8828557041
 20
475.8869538665
  0
VERTEX
  8
0
 62
7
  6
CONTINUOUS
 10
391.8137028083
 20
475.9764098634
  0
VERTEX
  8
0
 62
7
  6
CONTINUOUS
 10
391.7425790933
 20
476.0642244885
  0
VERTEX
  8
0
 62
7
  6
CONTINUOUS
 10
391.6694978351
 20
476.1503731053
  0
VERTEX
  8
0
 62
7
  6
CONTINUOUS
 10
391.5944638295
 20
476.234836909
  0
VERTEX
  8
0
 62
7
  6
CONTINUOUS
 10
391.5174401191
 20
476.3176497716
  0
VERTEX
  8
0
 62
7
  6
CONTINUOUS
 10
391.4384003857
 20
476.3988381189
  0
VERTEX
  8
0
 62
7
  6
CONTINUOUS
 10
391.3573273435
 20
476.4784089723
  0
VERTEX
  8
0
 62
7
  6
CONTINUOUS
 10
391.2742083151
 20
476.5563560347
  0
VERTEX
  8
0
 62
7
  6
CONTINUOUS
 10
391.1890329623
 20
476.6326634516
  0
VERTEX
  8
0
 62
7
  6
CONTINUOUS
 10
391.101791856
 20
476.707308052
  0
VERTEX
  8
0
 62
7
  6
CONTINUOUS
 10
391.0248316769
 20
476.7703700109
  0
VERTEX
  8
0
 62
7
  6
CONTINUOUS
 10
390.935335513
 20
476.8405942221
  0
VERTEX
  8
0
 62
7
  6
CONTINUOUS
 10
390.8443797783
 20
476.9087095574
  0
VERTEX
  8
0
 62
7
  6
CONTINUOUS
 10
390.7519840911
 20
476.9747111348
  0
VERTEX
  8
0
 62
7
  6
CONTINUOUS
 10
390.6581662029
 20
477.038591041
  0
VERTEX
  8
0
 62
7
  6
CONTINUOUS
 10
390.5629426069
 20
477.100338012
  0
VERTEX
  8
0
 62
7
  6
CONTINUOUS
 10
390.4663562529
 20
477.1599208842
  0
VERTEX
  8
0
 62
7
  6
CONTINUOUS
 10
390.368429142
 20
477.2173199509
  0
VERTEX
  8
0
 62
7
  6
CONTINUOUS
 10
390.2691817874
 20
477.2725133531
  0
VERTEX
  8
0
 62
7
  6
CONTINUOUS
 10
390.1686331583
 20
477.3254770511
  0
VERTEX
  8
0
 62
7
  6
CONTINUOUS
 10
390.0668006124
 20
477.3761847711
  0
VERTEX
  8
0
 62
7
  6
CONTINUOUS
 10
389.9636983232
 20
477.424608641
  0
VERTEX
  8
0
 62
7
  6
CONTINUOUS
 10
389.8592962676
 20
477.4707434471
  0
VERTEX
  8
0
 62
7
  6
CONTINUOUS
 10
389.7535606152
 20
477.5145930294
  0
VERTEX
  8
0
 62
7
  6
CONTINUOUS
 10
389.6464689629
 20
477.5561502607
  0
VERTEX
  8
0
 62
7
  6
CONTINUOUS
 10
389.5544914687
 20
477.5896138643
  0
VERTEX
  8
0
 62
7
  6
CONTINUOUS
 10
389.4470032319
 20
477.6261791397
  0
VERTEX
  8
0
 62
7
  6
CONTINUOUS
 10
389.3388085055
 20
477.6602846697
  0
VERTEX
  8
0
 62
7
  6
CONTINUOUS
 10
389.2299276156
 20
477.6919344274
  0
VERTEX
  8
0
 62
7
  6
CONTINUOUS
 10
389.1203801504
 20
477.7211289006
  0
VERTEX
  8
0
 62
7
  6
CONTINUOUS
 10
389.0101849966
 20
477.7478651432
  0
VERTEX
  8
0
 62
7
  6
CONTINUOUS
 10
388.8993603717
 20
477.7721368003
  0
VERTEX
  8
0
 62
7
  6
CONTINUOUS
 10
388.7879238506
 20
477.7939341073
  0
VERTEX
  8
0
 62
7
  6
CONTINUOUS
 10
388.675892387
 20
477.8132438638
  0
VERTEX
  8
0
 62
7
  6
CONTINUOUS
 10
388.5632823305
 20
477.8300493815
  0
VERTEX
  8
0
 62
7
  6
CONTINUOUS
 10
388.4501094388
 20
477.8443304055
  0
VERTEX
  8
0
 62
7
  6
CONTINUOUS
 10
388.3345879673
 20
477.8562277109
  0
SEQEND
  0
LINE
  8
0
 62
7
  6
CONTINUOUS
 10
209.6376398103
 20
542.6344882926
 11
209.6179238968
 21
542.6827423424
  0
POLYLINE
  8
0
 62
7
  6
CONTINUOUS
 66
1
 70
0
  0
VERTEX
  8
0
 62
7
  6
CONTINUOUS
 10
383.7636223464
 20
123.1223031921
  0
VERTEX
  8
0
 62
7
  6
CONTINUOUS
 10
383.693480544
 20
123.722616726
  0
VERTEX
  8
0
 62
7
  6
CONTINUOUS
 10
383.1524181903
 20
125.0900989439
  0
VERTEX
  8
0
 62
7
  6
CONTINUOUS
 10
382.2621625322
 20
126.0862624774
  0
VERTEX
  8
0
 62
7
  6
CONTINUOUS
 10
381.3510254544
 20
126.6332994638
  0
VERTEX
  8
0
 62
7
  6
CONTINUOUS
 10
380.7508088392
 20
126.8380378153
  0
VERTEX
  8
0
 62
7
  6
CONTINUOUS
 10
380.4233746141
 20
126.9074384511
  0
VERTEX
  8
0
 62
7
  6
CONTINUOUS
 10
380.2283920553
 20
126.9358610507
  0
VERTEX
  8
0
 62
7
  6
CONTINUOUS
 10
380.1001174648
 20
126.9497235101
  0
VERTEX
  8
0
 62
7
  6
CONTINUOUS
 10
380.0040471114
 20
126.9578663687
  0
VERTEX
  8
0
 62
7
  6
CONTINUOUS
 10
379.9234265554
 20
126.9634419882
  0
VERTEX
  8
0
 62
7
  6
CONTINUOUS
 10
379.8495341466
 20
126.9677340926
  0
VERTEX
  8
0
 62
7
  6
CONTINUOUS
 10
379.776881689
 20
126.9713560702
  0
VERTEX
  8
0
 62
7
  6
CONTINUOUS
 10
379.7015554241
 20
126.9746311821
  0
VERTEX
  8
0
 62
7
  6
CONTINUOUS
 10
379.6205757576
 20
126.9777388412
  0
VERTEX
  8
0
 62
7
  6
CONTINUOUS
 10
379.5314629891
 20
126.9807853605
  0
VERTEX
  8
0
 62
7
  6
CONTINUOUS
 10
379.4320162469
 20
126.9838377485
  0
VERTEX
  8
0
 62
7
  6
CONTINUOUS
 10
379.3199822103
 20
126.9869457981
  0
VERTEX
  8
0
 62
7
  6
CONTINUOUS
 10
379.1927429801
 20
126.9901532768
  0
VERTEX
  8
0
 62
7
  6
CONTINUOUS
 10
379.0473301379
 20
126.9934980407
  0
VERTEX
  8
0
 62
7
  6
CONTINUOUS
 10
378.8802113389
 20
126.9970169077
  0
VERTEX
  8
0
 62
7
  6
CONTINUOUS
 10
378.6871550909
 20
127.0007477923
  0
VERTEX
  8
0
 62
7
  6
CONTINUOUS
 10
378.4629675606
 20
127.00473306
  0
VERTEX
  8
0
 62
7
  6
CONTINUOUS
 10
378.2009880052
 20
127.0090242808
  0
VERTEX
  8
0
 62
7
  6
CONTINUOUS
 10
377.8924842679
 20
127.0136844382
  0
VERTEX
  8
0
 62
7
  6
CONTINUOUS
 10
377.5258878121
 20
127.0187921166
  0
VERTEX
  8
0
 62
7
  6
CONTINUOUS
 10
377.0854096865
 20
127.0244530128
  0
VERTEX
  8
0
 62
7
  6
CONTINUOUS
 10
376.5483968543
 20
127.0308117199
  0
VERTEX
  8
0
 62
7
  6
CONTINUOUS
 10
375.8813116856
 20
127.0380733699
  0
VERTEX
  8
0
 62
7
  6
CONTINUOUS
 10
375.0328045887
 20
127.0465492235
  0
VERTEX
  8
0
 62
7
  6
CONTINUOUS
 10
373.9155199967
 20
127.0567418555
  0
VERTEX
  8
0
 62
7
  6
CONTINUOUS
 10
372.3702463984
 20
127.0695483399
  0
VERTEX
  8
0
 62
7
  6
CONTINUOUS
 10
371.4470000234
 20
127.0766633145
  0
SEQEND
  0
POLYLINE
  8
0
 62
7
  6
CONTINUOUS
 66
1
 70
0
  0
VERTEX
  8
0
 62
7
  6
CONTINUOUS
 10
378.0838768199
 20
45.541880654
  0
VERTEX
  8
0
 62
7
  6
CONTINUOUS
 10
380.4393545836
 20
55.7468715318
  0
VERTEX
  8
0
 62
7
  6
CONTINUOUS
 10
382.4050219002
 20
67.181464924
  0
VERTEX
  8
0
 62
7
  6
CONTINUOUS
 10
383.5631775844
 20
77.7883424856
  0
VERTEX
  8
0
 62
7
  6
CONTINUOUS
 10
384.1577641045
 20
88.0134391193
  0
VERTEX
  8
0
 62
7
  6
CONTINUOUS
 10
384.3483227052
 20
98.0499792608
  0
VERTEX
  8
0
 62
7
  6
CONTINUOUS
 10
384.2461376507
 20
108.2919924434
  0
VERTEX
  8
0
 62
7
  6
CONTINUOUS
 10
383.9097928992
 20
119.3963362132
  0
VERTEX
  8
0
 62
7
  6
CONTINUOUS
 10
383.7636095634
 20
123.1225545812
  0
SEQEND
  0
LINE
  8
0
 62
7
  6
CONTINUOUS
 10
378.0838589845
 20
45.5418111616
 11
378.0838768199
 21
45.541880654
  0
POLYLINE
  8
0
 62
7
  6
CONTINUOUS
 66
1
 70
0
  0
VERTEX
  8
0
 62
7
  6
CONTINUOUS
 10
319.3918706912
 20
-46.2444378909
  0
VERTEX
  8
0
 62
7
  6
CONTINUOUS
 10
326.4880962366
 20
-39.1110193179
  0
VERTEX
  8
0
 62
7
  6
CONTINUOUS
 10
335.7389416058
 20
-29.2193831288
  0
VERTEX
  8
0
 62
7
  6
CONTINUOUS
 10
343.8196486846
 20
-19.8811178572
  0
VERTEX
  8
0
 62
7
  6
CONTINUOUS
 10
350.5721325943
 20
-11.3437555587
  0
VERTEX
  8
0
 62
7
  6
CONTINUOUS
 10
356.2488474637
 20
-3.3493238496
  0
VERTEX
  8
0
 62
7
  6
CONTINUOUS
 10
360.8134514246
 20
3.8676323879
  0
VERTEX
  8
0
 62
7
  6
CONTINUOUS
 10
364.5982513646
 20
10.5306533497
  0
VERTEX
  8
0
 62
7
  6
CONTINUOUS
 10
367.7985957972
 20
16.7805367371
  0
VERTEX
  8
0
 62
7
  6
CONTINUOUS
 10
370.4897440826
 20
22.6943109103
  0
VERTEX
  8
0
 62
7
  6
CONTINUOUS
 10
372.761953032
 20
28.3915258448
  0
VERTEX
  8
0
 62
7
  6
CONTINUOUS
 10
374.7051880572
 20
33.9467973073
  0
VERTEX
  8
0
 62
7
  6
CONTINUOUS
 10
376.3741596487
 20
39.3201438032
  0
VERTEX
  8
0
 62
7
  6
CONTINUOUS
 10
377.8013290053
 20
44.4546028626
  0
VERTEX
  8
0
 62
7
  6
CONTINUOUS
 10
378.0840017409
 20
45.5420996978
  0
SEQEND
  0
LINE
  8
0
 62
7
  6
CONTINUOUS
 10
319.3918673446
 20
-46.2448138262
 11
319.3919338033
 21
-46.2447486659
  0
POLYLINE
  8
0
 62
7
  6
CONTINUOUS
 66
1
 70
0
  0
VERTEX
  8
0
 62
7
  6
CONTINUOUS
 10
216.2810301665
 20
540.8473017552
  0
VERTEX
  8
0
 62
7
  6
CONTINUOUS
 10
216.9091663296
 20
539.7890346137
  0
VERTEX
  8
0
 62
7
  6
CONTINUOUS
 10
217.5765874181
 20
538.6564405223
  0
VERTEX
  8
0
 62
7
  6
CONTINUOUS
 10
218.2829342413
 20
537.449793118
  0
SEQEND
  0
LINE
  8
0
 62
7
  6
CONTINUOUS
 10
218.0401983422
 20
537.3616122673
 11
216.9000645765
 21
539.2881557121
  0
LINE
  8
0
 62
7
  6
CONTINUOUS
 10
216.9000645765
 20
539.2881557121
 11
215.8603184886
 21
541.0247346126
  0
LINE
  8
0
 62
7
  6
CONTINUOUS
 10
227.8863311925
 20
540.8473015921
 11
230.5196470485
 21
537.4497937391
  0
LINE
  8
0
 62
7
  6
CONTINUOUS
 10
209.7010992227
 20
542.5819554546
 11
209.6376398103
 21
542.6344882926
  0
POLYLINE
  8
0
 62
7
  6
CONTINUOUS
 66
1
 70
0
  0
VERTEX
  8
0
 62
7
  6
CONTINUOUS
 10
30.4348263881
 20
477.8109189546
  0
VERTEX
  8
0
 62
7
  6
CONTINUOUS
 10
30.4222064132
 20
477.8097474402
  0
VERTEX
  8
0
 62
7
  6
CONTINUOUS
 10
30.309894053
 20
477.7979013713
  0
VERTEX
  8
0
 62
7
  6
CONTINUOUS
 10
30.1978303609
 20
477.783529396
  0
VERTEX
  8
0
 62
7
  6
CONTINUOUS
 10
30.0860336291
 20
477.7666351618
  0
VERTEX
  8
0
 62
7
  6
CONTINUOUS
 10
29.9745227708
 20
477.7472189473
  0
VERTEX
  8
0
 62
7
  6
CONTINUOUS
 10
29.8633173474
 20
477.725277652
  0
VERTEX
  8
0
 62
7
  6
CONTINUOUS
 10
29.7524376018
 20
477.7008047605
  0
VERTEX
  8
0
 62
7
  6
CONTINUOUS
 10
29.6419044961
 20
477.6737902812
  0
VERTEX
  8
0
 62
7
  6
CONTINUOUS
 10
29.5317397543
 20
477.6442206575
  0
VERTEX
  8
0
 62
7
  6
CONTINUOUS
 10
29.4219659116
 20
477.6120786508
  0
VERTEX
  8
0
 62
7
  6
CONTINUOUS
 10
29.31260637
 20
477.5773431921
  0
VERTEX
  8
0
 62
7
  6
CONTINUOUS
 10
29.220260508
 20
477.5458538864
  0
VERTEX
  8
0
 62
7
  6
CONTINUOUS
 10
29.1136061238
 20
477.5069659818
  0
VERTEX
  8
0
 62
7
  6
CONTINUOUS
 10
29.008100766
 20
477.4657688117
  0
VERTEX
  8
0
 62
7
  6
CONTINUOUS
 10
28.9037664332
 20
477.4222795346
  0
VERTEX
  8
0
 62
7
  6
CONTINUOUS
 10
28.8006258275
 20
477.3765127311
  0
VERTEX
  8
0
 62
7
  6
CONTINUOUS
 10
28.6986494441
 20
477.3284572981
  0
VERTEX
  8
0
 62
7
  6
CONTINUOUS
 10
28.5977603199
 20
477.2780851078
  0
VERTEX
  8
0
 62
7
  6
CONTINUOUS
 10
28.4979285304
 20
477.2253857644
  0
VERTEX
  8
0
 62
7
  6
CONTINUOUS
 10
28.3991492479
 20
477.1703541667
  0
VERTEX
  8
0
 62
7
  6
CONTINUOUS
 10
28.3014315175
 20
477.1129869566
  0
VERTEX
  8
0
 62
7
  6
CONTINUOUS
 10
28.204826125
 20
477.053301832
  0
VERTEX
  8
0
 62
7
  6
CONTINUOUS
 10
28.109377231
 20
476.9913115763
  0
VERTEX
  8
0
 62
7
  6
CONTINUOUS
 10
28.0151008419
 20
476.9270077744
  0
VERTEX
  8
0
 62
7
  6
CONTINUOUS
 10
27.9220164236
 20
476.860378925
  0
VERTEX
  8
0
 62
7
  6
CONTINUOUS
 10
27.8301467019
 20
476.7914102685
  0
VERTEX
  8
0
 62
7
  6
CONTINUOUS
 10
27.7557712282
 20
476.7331238984
  0
VERTEX
  8
0
 62
7
  6
CONTINUOUS
 10
27.6676954488
 20
476.661116329
  0
VERTEX
  8
0
 62
7
  6
CONTINUOUS
 10
27.5814198776
 20
476.5872701781
  0
VERTEX
  8
0
 62
7
  6
CONTINUOUS
 10
27.4969607411
 20
476.5116098635
  0
VERTEX
  8
0
 62
7
  6
CONTINUOUS
 10
27.4143359537
 20
476.4341577606
  0
VERTEX
  8
0
 62
7
  6
CONTINUOUS
 10
27.3335650723
 20
476.3549342049
  0
VERTEX
  8
0
 62
7
  6
CONTINUOUS
 10
27.2546692697
 20
476.2739574748
  0
VERTEX
  8
0
 62
7
  6
CONTINUOUS
 10
27.1776713277
 20
476.1912437581
  0
VERTEX
  8
0
 62
7
  6
CONTINUOUS
 10
27.1025841889
 20
476.1067948812
  0
VERTEX
  8
0
 62
7
  6
CONTINUOUS
 10
27.0293739312
 20
476.02056767
  0
VERTEX
  8
0
 62
7
  6
CONTINUOUS
 10
26.9580193266
 20
475.9325349039
  0
VERTEX
  8
0
 62
7
  6
CONTINUOUS
 10
26.888517018
 20
475.8426798867
  0
VERTEX
  8
0
 62
7
  6
CONTINUOUS
 10
26.82087591
 20
475.7509917586
  0
VERTEX
  8
0
 62
7
  6
CONTINUOUS
 10
26.7551138344
 20
475.6574628881
  0
VERTEX
  8
0
 62
7
  6
CONTINUOUS
 10
26.6912555794
 20
475.5620872431
  0
VERTEX
  8
0
 62
7
  6
CONTINUOUS
 10
26.6419549728
 20
475.4850827609
  0
VERTEX
  8
0
 62
7
  6
CONTINUOUS
 10
26.5826441502
 20
475.388146932
  0
VERTEX
  8
0
 62
7
  6
CONTINUOUS
 10
26.5256035224
 20
475.2900134073
  0
VERTEX
  8
0
 62
7
  6
CONTINUOUS
 10
26.4708358577
 20
475.1907021072
  0
VERTEX
  8
0
 62
7
  6
CONTINUOUS
 10
26.4183515372
 20
475.0902400845
  0
VERTEX
  8
0
 62
7
  6
CONTINUOUS
 10
26.3681681836
 20
474.9886633957
  0
VERTEX
  8
0
 62
7
  6
CONTINUOUS
 10
26.3203002546
 20
474.885997244
  0
VERTEX
  8
0
 62
7
  6
CONTINUOUS
 10
26.2747645116
 20
474.7822656247
  0
VERTEX
  8
0
 62
7
  6
CONTINUOUS
 10
26.2315800331
 20
474.6774912829
  0
VERTEX
  8
0
 62
7
  6
CONTINUOUS
 10
26.1907682518
 20
474.5716956627
  0
VERTEX
  8
0
 62
7
  6
CONTINUOUS
 10
26.152353017
 20
474.4648988442
  0
VERTEX
  8
0
 62
7
  6
CONTINUOUS
 10
26.1163597408
 20
474.3571167594
  0
VERTEX
  8
0
 62
7
  6
CONTINUOUS
 10
26.0827950972
 20
474.2483169671
  0
VERTEX
  8
0
 62
7
  6
CONTINUOUS
 10
26.0516591914
 20
474.1384660752
  0
VERTEX
  8
0
 62
7
  6
CONTINUOUS
 10
26.0229620052
 20
474.0275430044
  0
VERTEX
  8
0
 62
7
  6
CONTINUOUS
 10
26.0017149884
 20
473.9377698569
  0
VERTEX
  8
0
 62
7
  6
CONTINUOUS
 10
25.977916801
 20
473.82710702
  0
VERTEX
  8
0
 62
7
  6
CONTINUOUS
 10
25.9566458093
 20
473.716032964
  0
VERTEX
  8
0
 62
7
  6
CONTINUOUS
 10
25.9378957183
 20
473.6045673148
  0
VERTEX
  8
0
 62
7
  6
CONTINUOUS
 10
25.9216637752
 20
473.4927293734
  0
VERTEX
  8
0
 62
7
  6
CONTINUOUS
 10
25.9079507154
 20
473.3805381465
  0
VERTEX
  8
0
 62
7
  6
CONTINUOUS
 10
25.8967607337
 20
473.2680123755
  0
VERTEX
  8
0
 62
7
  6
CONTINUOUS
 10
25.8881014822
 20
473.1551705623
  0
VERTEX
  8
0
 62
7
  6
CONTINUOUS
 10
25.8819840947
 20
473.042030994
  0
VERTEX
  8
0
 62
7
  6
CONTINUOUS
 10
25.8784232357
 20
472.9286117652
  0
VERTEX
  8
0
 62
7
  6
CONTINUOUS
 10
25.8774371779
 20
472.8149307998
  0
VERTEX
  8
0
 62
7
  6
CONTINUOUS
 10
25.8790472811
 20
472.701030334
  0
VERTEX
  8
0
 62
7
  6
CONTINUOUS
 10
25.8832757625
 20
472.586967641
  0
VERTEX
  8
0
 62
7
  6
CONTINUOUS
 10
25.8901473136
 20
472.4727696746
  0
VERTEX
  8
0
 62
7
  6
CONTINUOUS
 10
25.8996898886
 20
472.3584629949
  0
SEQEND
  0
POLYLINE
  8
0
 62
7
  6
CONTINUOUS
 66
1
 70
0
  0
VERTEX
  8
0
 62
7
  6
CONTINUOUS
 10
30.760461423
 20
477.8300427114
  0
VERTEX
  8
0
 62
7
  6
CONTINUOUS
 10
30.6475069343
 20
477.8258303104
  0
VERTEX
  8
0
 62
7
  6
CONTINUOUS
 10
30.5347497461
 20
477.8190605716
  0
VERTEX
  8
0
 62
7
  6
CONTINUOUS
 10
30.4348263881
 20
477.8109189546
  0
SEQEND
  0
LINE
  8
0
 62
7
  6
CONTINUOUS
 10
159.3843395187
 20
480.734587653
 11
30.0523158303
 21
477.814079052
  0
POLYLINE
  8
0
 62
7
  6
CONTINUOUS
 66
1
 70
0
  0
VERTEX
  8
0
 62
7
  6
CONTINUOUS
 10
30.0523158303
 20
477.814079052
  0
VERTEX
  8
0
 62
7
  6
CONTINUOUS
 10
29.9812816393
 20
477.8129826685
  0
VERTEX
  8
0
 62
7
  6
CONTINUOUS
 10
29.9125959313
 20
477.8128862394
  0
VERTEX
  8
0
 62
7
  6
CONTINUOUS
 10
29.8439073595
 20
477.8137352085
  0
VERTEX
  8
0
 62
7
  6
CONTINUOUS
 10
29.7752200476
 20
477.8155281208
  0
VERTEX
  8
0
 62
7
  6
CONTINUOUS
 10
29.7065381474
 20
477.8182639887
  0
VERTEX
  8
0
 62
7
  6
CONTINUOUS
 10
29.6378658408
 20
477.8219422915
  0
VERTEX
  8
0
 62
7
  6
CONTINUOUS
 10
29.5692073421
 20
477.8265629746
  0
VERTEX
  8
0
 62
7
  6
CONTINUOUS
 10
29.5005669001
 20
477.8321264509
  0
VERTEX
  8
0
 62
7
  6
CONTINUOUS
 10
29.4319488002
 20
477.8386336033
  0
VERTEX
  8
0
 62
7
  6
CONTINUOUS
 10
29.3633573672
 20
477.8460857882
  0
VERTEX
  8
0
 62
7
  6
CONTINUOUS
 10
29.2947969674
 20
477.8544848412
  0
VERTEX
  8
0
 62
7
  6
CONTINUOUS
 10
29.2632299758
 20
477.8586725336
  0
VERTEX
  8
0
 62
7
  6
CONTINUOUS
 10
29.1947257389
 20
477.8684584499
  0
VERTEX
  8
0
 62
7
  6
CONTINUOUS
 10
29.126425316
 20
477.8791712286
  0
VERTEX
  8
0
 62
7
  6
CONTINUOUS
 10
29.0583323284
 20
477.8908077345
  0
VERTEX
  8
0
 62
7
  6
CONTINUOUS
 10
28.9904505257
 20
477.9033653113
  0
VERTEX
  8
0
 62
7
  6
CONTINUOUS
 10
28.9227876781
 20
477.9168409713
  0
VERTEX
  8
0
 62
7
  6
CONTINUOUS
 10
28.8553516756
 20
477.931231971
  0
VERTEX
  8
0
 62
7
  6
CONTINUOUS
 10
28.7881487326
 20
477.9465362248
  0
VERTEX
  8
0
 62
7
  6
CONTINUOUS
 10
28.7211851421
 20
477.9627519903
  0
VERTEX
  8
0
 62
7
  6
CONTINUOUS
 10
28.6544672726
 20
477.9798778674
  0
VERTEX
  8
0
 62
7
  6
CONTINUOUS
 10
28.5880015656
 20
477.9979127986
  0
VERTEX
  8
0
 62
7
  6
CONTINUOUS
 10
28.5217945333
 20
478.0168560707
  0
VERTEX
  8
0
 62
7
  6
CONTINUOUS
 10
28.4558527562
 20
478.0367073174
  0
VERTEX
  8
0
 62
7
  6
CONTINUOUS
 10
28.3901828822
 20
478.0574665238
  0
VERTEX
  8
0
 62
7
  6
CONTINUOUS
 10
28.3247916248
 20
478.0791340314
  0
VERTEX
  8
0
 62
7
  6
CONTINUOUS
 10
28.2596857628
 20
478.1017105446
  0
VERTEX
  8
0
 62
7
  6
CONTINUOUS
 10
28.1948715679
 20
478.125197339
  0
VERTEX
  8
0
 62
7
  6
CONTINUOUS
 10
28.1303429619
 20
478.1495993343
  0
VERTEX
  8
0
 62
7
  6
CONTINUOUS
 10
28.0660912889
 20
478.1749205795
  0
VERTEX
  8
0
 62
7
  6
CONTINUOUS
 10
28.0021110645
 20
478.2011647645
  0
VERTEX
  8
0
 62
7
  6
CONTINUOUS
 10
27.938399329
 20
478.2283356424
  0
VERTEX
  8
0
 62
7
  6
CONTINUOUS
 10
27.8749551125
 20
478.256437103
  0
VERTEX
  8
0
 62
7
  6
CONTINUOUS
 10
27.8117790447
 20
478.2854732301
  0
VERTEX
  8
0
 62
7
  6
CONTINUOUS
 10
27.7488730648
 20
478.3154483474
  0
VERTEX
  8
0
 62
7
  6
CONTINUOUS
 10
27.6862402047
 20
478.3463670578
  0
VERTEX
  8
0
 62
7
  6
CONTINUOUS
 10
27.6600444605
 20
478.3596213548
  0
VERTEX
  8
0
 62
7
  6
CONTINUOUS
 10
27.5987073064
 20
478.3914130916
  0
VERTEX
  8
0
 62
7
  6
CONTINUOUS
 10
27.5378637043
 20
478.4240146805
  0
VERTEX
  8
0
 62
7
  6
CONTINUOUS
 10
27.4775158797
 20
478.4574217792
  0
VERTEX
  8
0
 62
7
  6
CONTINUOUS
 10
27.4176663401
 20
478.4916304557
  0
VERTEX
  8
0
 62
7
  6
CONTINUOUS
 10
27.3583178715
 20
478.5266371812
  0
VERTEX
  8
0
 62
7
  6
CONTINUOUS
 10
27.2994735368
 20
478.5624388231
  0
VERTEX
  8
0
 62
7
  6
CONTINUOUS
 10
27.2411366749
 20
478.5990326402
  0
VERTEX
  8
0
 62
7
  6
CONTINUOUS
 10
27.1833109002
 20
478.6364162786
  0
VERTEX
  8
0
 62
7
  6
CONTINUOUS
 10
27.1260001031
 20
478.6745877682
  0
VERTEX
  8
0
 62
7
  6
CONTINUOUS
 10
27.069215487
 20
478.7135406232
  0
VERTEX
  8
0
 62
7
  6
CONTINUOUS
 10
27.0129652813
 20
478.7532704926
  0
VERTEX
  8
0
 62
7
  6
CONTINUOUS
 10
26.9572556437
 20
478.7937748063
  0
VERTEX
  8
0
 62
7
  6
CONTINUOUS
 10
26.902092925
 20
478.835051293
  0
VERTEX
  8
0
 62
7
  6
CONTINUOUS
 10
26.8474836692
 20
478.8770979851
  0
VERTEX
  8
0
 62
7
  6
CONTINUOUS
 10
26.7934346148
 20
478.9199132246
  0
VERTEX
  8
0
 62
7
  6
CONTINUOUS
 10
26.7399526962
 20
478.9634956706
  0
VERTEX
  8
0
 62
7
  6
CONTINUOUS
 10
26.6870450469
 20
479.0078443075
  0
VERTEX
  8
0
 62
7
  6
CONTINUOUS
 10
26.6347190028
 20
479.0529584544
  0
VERTEX
  8
0
 62
7
  6
CONTINUOUS
 10
26.5829804276
 20
479.0988391534
  0
VERTEX
  8
0
 62
7
  6
CONTINUOUS
 10
26.5318253916
 20
479.1454941168
  0
VERTEX
  8
0
 62
7
  6
CONTINUOUS
 10
26.4812497624
 20
479.1929297115
  0
VERTEX
  8
0
 62
7
  6
CONTINUOUS
 10
26.431251708
 20
479.2411514896
  0
VERTEX
  8
0
 62
7
  6
CONTINUOUS
 10
26.3818313261
 20
479.2901644927
  0
VERTEX
  8
0
 62
7
  6
CONTINUOUS
 10
26.3329903239
 20
479.3399734234
  0
VERTEX
  8
0
 62
7
  6
CONTINUOUS
 10
26.3136152632
 20
479.3601224711
  0
VERTEX
  8
0
 62
7
  6
CONTINUOUS
 10
26.2663469851
 20
479.4102402346
  0
VERTEX
  8
0
 62
7
  6
CONTINUOUS
 10
26.2198079656
 20
479.4609633177
  0
VERTEX
  8
0
 62
7
  6
CONTINUOUS
 10
26.1739986347
 20
479.5122867707
  0
VERTEX
  8
0
 62
7
  6
CONTINUOUS
 10
26.1289198246
 20
479.5642059372
  0
VERTEX
  8
0
 62
7
  6
CONTINUOUS
 10
26.0845727647
 20
479.6167164477
  0
VERTEX
  8
0
 62
7
  6
CONTINUOUS
 10
26.0409590775
 20
479.6698142143
  0
VERTEX
  8
0
 62
7
  6
CONTINUOUS
 10
25.9980807755
 20
479.7234954258
  0
VERTEX
  8
0
 62
7
  6
CONTINUOUS
 10
25.9559402594
 20
479.7777565439
  0
VERTEX
  8
0
 62
7
  6
CONTINUOUS
 10
25.9145403178
 20
479.8325942999
  0
VERTEX
  8
0
 62
7
  6
CONTINUOUS
 10
25.8738841267
 20
479.8880056927
  0
VERTEX
  8
0
 62
7
  6
CONTINUOUS
 10
25.8339752519
 20
479.9439879865
  0
VERTEX
  8
0
 62
7
  6
CONTINUOUS
 10
25.7948176507
 20
480.0005387106
  0
VERTEX
  8
0
 62
7
  6
CONTINUOUS
 10
25.7564156757
 20
480.0576556588
  0
VERTEX
  8
0
 62
7
  6
CONTINUOUS
 10
25.7187740797
 20
480.1153368898
  0
VERTEX
  8
0
 62
7
  6
CONTINUOUS
 10
25.6819005226
 20
480.1735767174
  0
VERTEX
  8
0
 62
7
  6
CONTINUOUS
 10
25.6458073868
 20
480.232362089
  0
VERTEX
  8
0
 62
7
  6
CONTINUOUS
 10
25.6105011161
 20
480.2916896009
  0
VERTEX
  8
0
 62
7
  6
CONTINUOUS
 10
25.5759884633
 20
480.3515560812
  0
VERTEX
  8
0
 62
7
  6
CONTINUOUS
 10
25.5422764979
 20
480.411958599
  0
VERTEX
  8
0
 62
7
  6
CONTINUOUS
 10
25.5093726146
 20
480.4728944728
  0
VERTEX
  8
0
 62
7
  6
CONTINUOUS
 10
25.4772845427
 20
480.534361281
  0
VERTEX
  8
0
 62
7
  6
CONTINUOUS
 10
25.4460182511
 20
480.5963604037
  0
VERTEX
  8
0
 62
7
  6
CONTINUOUS
 10
25.4155737679
 20
480.6589004045
  0
VERTEX
  8
0
 62
7
  6
CONTINUOUS
 10
25.3859514924
 20
480.7219880656
  0
VERTEX
  8
0
 62
7
  6
CONTINUOUS
 10
25.3730240377
 20
480.7502625503
  0
VERTEX
  8
0
 62
7
  6
CONTINUOUS
 10
25.3451060301
 20
480.8129795283
  0
VERTEX
  8
0
 62
7
  6
CONTINUOUS
 10
25.3180735855
 20
480.8760317661
  0
VERTEX
  8
0
 62
7
  6
CONTINUOUS
 10
25.2919252146
 20
480.9394144388
  0
VERTEX
  8
0
 62
7
  6
CONTINUOUS
 10
25.2666599037
 20
481.0031228637
  0
VERTEX
  8
0
 62
7
  6
CONTINUOUS
 10
25.2422771074
 20
481.0671524959
  0
VERTEX
  8
0
 62
7
  6
CONTINUOUS
 10
25.2187767426
 20
481.1314989239
  0
VERTEX
  8
0
 62
7
  6
CONTINUOUS
 10
25.1961591847
 20
481.196157867
  0
VERTEX
  8
0
 62
7
  6
CONTINUOUS
 10
25.1744252634
 20
481.2611251713
  0
VERTEX
  8
0
 62
7
  6
CONTINUOUS
 10
25.1535762617
 20
481.3263968077
  0
VERTEX
  8
0
 62
7
  6
CONTINUOUS
 10
25.1336139145
 20
481.3919688689
  0
VERTEX
  8
0
 62
7
  6
CONTINUOUS
 10
25.1145404098
 20
481.4578375678
  0
VERTEX
  8
0
 62
7
  6
CONTINUOUS
 10
25.09635839
 20
481.5239992355
  0
VERTEX
  8
0
 62
7
  6
CONTINUOUS
 10
25.0790709553
 20
481.5904503198
  0
VERTEX
  8
0
 62
7
  6
CONTINUOUS
 10
25.0626816679
 20
481.6571873847
  0
VERTEX
  8
0
 62
7
  6
CONTINUOUS
 10
25.0471945576
 20
481.7242071089
  0
VERTEX
  8
0
 62
7
  6
CONTINUOUS
 10
25.0326141287
 20
481.7915062862
  0
VERTEX
  8
0
 62
7
  6
CONTINUOUS
 10
25.0189453685
 20
481.8590818246
  0
VERTEX
  8
0
 62
7
  6
CONTINUOUS
 10
25.0061937569
 20
481.9269307474
  0
VERTEX
  8
0
 62
7
  6
CONTINUOUS
 10
24.9943652774
 20
481.995050193
  0
VERTEX
  8
0
 62
7
  6
CONTINUOUS
 10
24.9834664298
 20
482.0634374166
  0
VERTEX
  8
0
 62
7
  6
CONTINUOUS
 10
24.9735051147
 20
482.1320834878
  0
VERTEX
  8
0
 62
7
  6
CONTINUOUS
 10
24.9644908848
 20
482.200967758
  0
VERTEX
  8
0
 62
7
  6
CONTINUOUS
 10
24.9564310904
 20
482.2700855197
  0
VERTEX
  8
0
 62
7
  6
CONTINUOUS
 10
24.9493335297
 20
482.3394322008
  0
SEQEND
  0
POLYLINE
  8
0
 62
7
  6
CONTINUOUS
 66
1
 70
0
  0
VERTEX
  8
0
 62
7
  6
CONTINUOUS
 10
259.3843387151
 20
480.7472472683
  0
VERTEX
  8
0
 62
7
  6
CONTINUOUS
 10
257.2996151108
 20
480.7928176242
  0
VERTEX
  8
0
 62
7
  6
CONTINUOUS
 10
254.907051794
 20
480.8427077009
  0
VERTEX
  8
0
 62
7
  6
CONTINUOUS
 10
252.5143708956
 20
480.8900256061
  0
VERTEX
  8
0
 62
7
  6
CONTINUOUS
 10
250.1215750424
 20
480.9347715393
  0
VERTEX
  8
0
 62
7
  6
CONTINUOUS
 10
247.7286668607
 20
480.9769456772
  0
VERTEX
  8
0
 62
7
  6
CONTINUOUS
 10
245.3356489766
 20
481.0165481739
  0
VERTEX
  8
0
 62
7
  6
CONTINUOUS
 10
242.9425240156
 20
481.0535791611
  0
VERTEX
  8
0
 62
7
  6
CONTINUOUS
 10
240.5492946031
 20
481.0880387477
  0
VERTEX
  8
0
 62
7
  6
CONTINUOUS
 10
238.1559633639
 20
481.11992702
  0
VERTEX
  8
0
 62
7
  6
CONTINUOUS
 10
235.7625329225
 20
481.1492440419
  0
VERTEX
  8
0
 62
7
  6
CONTINUOUS
 10
233.3690059034
 20
481.1759898546
  0
VERTEX
  8
0
 62
7
  6
CONTINUOUS
 10
230.9753849305
 20
481.2001644767
  0
VERTEX
  8
0
 62
7
  6
CONTINUOUS
 10
228.5816726276
 20
481.2217679044
  0
VERTEX
  8
0
 62
7
  6
CONTINUOUS
 10
226.1878716184
 20
481.240800111
  0
VERTEX
  8
0
 62
7
  6
CONTINUOUS
 10
223.7939845261
 20
481.2572610476
  0
VERTEX
  8
0
 62
7
  6
CONTINUOUS
 10
221.4000139739
 20
481.2711506426
  0
VERTEX
  8
0
 62
7
  6
CONTINUOUS
 10
219.005962585
 20
481.2824688018
  0
VERTEX
  8
0
 62
7
  6
CONTINUOUS
 10
216.6118329821
 20
481.2912154083
  0
VERTEX
  8
0
 62
7
  6
CONTINUOUS
 10
214.2176277882
 20
481.297390323
  0
VERTEX
  8
0
 62
7
  6
CONTINUOUS
 10
211.8233496259
 20
481.3009933838
  0
VERTEX
  8
0
 62
7
  6
CONTINUOUS
 10
209.4290011179
 20
481.3020244062
  0
VERTEX
  8
0
 62
7
  6
CONTINUOUS
 10
208.3580968311
 20
481.3016530536
  0
VERTEX
  8
0
 62
7
  6
CONTINUOUS
 10
205.9626266282
 20
481.2989596079
  0
VERTEX
  8
0
 62
7
  6
CONTINUOUS
 10
203.5671764542
 20
481.2936916049
  0
VERTEX
  8
0
 62
7
  6
CONTINUOUS
 10
201.171752817
 20
481.2858490675
  0
VERTEX
  8
0
 62
7
  6
CONTINUOUS
 10
198.7763622246
 20
481.2754320125
  0
VERTEX
  8
0
 62
7
  6
CONTINUOUS
 10
196.3810111847
 20
481.2624404511
  0
VERTEX
  8
0
 62
7
  6
CONTINUOUS
 10
193.9857062047
 20
481.2468743883
  0
VERTEX
  8
0
 62
7
  6
CONTINUOUS
 10
191.5904537921
 20
481.2287338231
  0
VERTEX
  8
0
 62
7
  6
CONTINUOUS
 10
189.1952604536
 20
481.2080187488
  0
VERTEX
  8
0
 62
7
  6
CONTINUOUS
 10
186.8001326959
 20
481.1847291525
  0
VERTEX
  8
0
 62
7
  6
CONTINUOUS
 10
184.4050770254
 20
481.1588650155
  0
VERTEX
  8
0
 62
7
  6
CONTINUOUS
 10
183.3231007836
 20
481.1463362407
  0
VERTEX
  8
0
 62
7
  6
CONTINUOUS
 10
180.92856203
 20
481.1167395986
  0
VERTEX
  8
0
 62
7
  6
CONTINUOUS
 10
178.5341532069
 20
481.0845697918
  0
VERTEX
  8
0
 62
7
  6
CONTINUOUS
 10
176.1398808111
 20
481.0498269161
  0
VERTEX
  8
0
 62
7
  6
CONTINUOUS
 10
173.7457513383
 20
481.0125110614
  0
VERTEX
  8
0
 62
7
  6
CONTINUOUS
 10
171.3517712834
 20
480.9726223115
  0
VERTEX
  8
0
 62
7
  6
CONTINUOUS
 10
168.9579471401
 20
480.9301607445
  0
VERTEX
  8
0
 62
7
  6
CONTINUOUS
 10
166.564285401
 20
480.8851264321
  0
VERTEX
  8
0
 62
7
  6
CONTINUOUS
 10
164.1707925577
 20
480.8375194404
  0
VERTEX
  8
0
 62
7
  6
CONTINUOUS
 10
161.7774751006
 20
480.7873398294
  0
VERTEX
  8
0
 62
7
  6
CONTINUOUS
 10
159.3843395187
 20
480.734587653
  0
SEQEND
  0
POLYLINE
  8
0
 62
7
  6
CONTINUOUS
 66
1
 70
0
  0
VERTEX
  8
0
 62
7
  6
CONTINUOUS
 10
259.3843387151
 20
480.7472472683
  0
VERTEX
  8
0
 62
7
  6
CONTINUOUS
 10
258.908737873
 20
480.7578156724
  0
VERTEX
  8
0
 62
7
  6
CONTINUOUS
 10
257.4562947478
 20
480.7894606872
  0
VERTEX
  8
0
 62
7
  6
CONTINUOUS
 10
256.0038070567
 20
480.8201576172
  0
VERTEX
  8
0
 62
7
  6
CONTINUOUS
 10
254.5512753874
 20
480.8499065132
  0
VERTEX
  8
0
 62
7
  6
CONTINUOUS
 10
253.0987003279
 20
480.8787074227
  0
VERTEX
  8
0
 62
7
  6
CONTINUOUS
 10
251.6460824658
 20
480.9065603901
  0
VERTEX
  8
0
 62
7
  6
CONTINUOUS
 10
250.1934223889
 20
480.9334654569
  0
VERTEX
  8
0
 62
7
  6
CONTINUOUS
 10
248.7407206848
 20
480.9594226613
  0
VERTEX
  8
0
 62
7
  6
CONTINUOUS
 10
247.2879779411
 20
480.9844320386
  0
VERTEX
  8
0
 62
7
  6
CONTINUOUS
 10
245.8351947454
 20
481.008493621
  0
VERTEX
  8
0
 62
7
  6
CONTINUOUS
 10
244.3823716851
 20
481.0316074375
  0
VERTEX
  8
0
 62
7
  6
CONTINUOUS
 10
242.9295093477
 20
481.0537735143
  0
VERTEX
  8
0
 62
7
  6
CONTINUOUS
 10
241.4766083205
 20
481.0749918744
  0
VERTEX
  8
0
 62
7
  6
CONTINUOUS
 10
240.0236691909
 20
481.0952625375
  0
VERTEX
  8
0
 62
7
  6
CONTINUOUS
 10
238.5706925462
 20
481.1145855205
  0
VERTEX
  8
0
 62
7
  6
CONTINUOUS
 10
237.1176789736
 20
481.1329608373
  0
VERTEX
  8
0
 62
7
  6
CONTINUOUS
 10
235.6646290604
 20
481.1503884985
  0
VERTEX
  8
0
 62
7
  6
CONTINUOUS
 10
234.2115433937
 20
481.1668685117
  0
VERTEX
  8
0
 62
7
  6
CONTINUOUS
 10
232.7584225607
 20
481.1824008815
  0
VERTEX
  8
0
 62
7
  6
CONTINUOUS
 10
231.3052671484
 20
481.1969856095
  0
VERTEX
  8
0
 62
7
  6
CONTINUOUS
 10
229.852077744
 20
481.210622694
  0
VERTEX
  8
0
 62
7
  6
CONTINUOUS
 10
228.3988549345
 20
481.2233121305
  0
VERTEX
  8
0
 62
7
  6
CONTINUOUS
 10
226.9455993068
 20
481.2350539113
  0
VERTEX
  8
0
 62
7
  6
CONTINUOUS
 10
225.492311448
 20
481.2458480255
  0
VERTEX
  8
0
 62
7
  6
CONTINUOUS
 10
224.0389919451
 20
481.2556944594
  0
VERTEX
  8
0
 62
7
  6
CONTINUOUS
 10
222.5856413848
 20
481.2645931961
  0
VERTEX
  8
0
 62
7
  6
CONTINUOUS
 10
221.1322603543
 20
481.2725442156
  0
VERTEX
  8
0
 62
7
  6
CONTINUOUS
 10
219.6788494404
 20
481.2795474949
  0
VERTEX
  8
0
 62
7
  6
CONTINUOUS
 10
218.2254092298
 20
481.2856030079
  0
VERTEX
  8
0
 62
7
  6
CONTINUOUS
 10
216.7719403096
 20
481.2907107256
  0
VERTEX
  8
0
 62
7
  6
CONTINUOUS
 10
215.3184432665
 20
481.2948706155
  0
VERTEX
  8
0
 62
7
  6
CONTINUOUS
 10
213.8649186874
 20
481.2980826426
  0
VERTEX
  8
0
 62
7
  6
CONTINUOUS
 10
212.4113671591
 20
481.3003467683
  0
VERTEX
  8
0
 62
7
  6
CONTINUOUS
 10
210.9577892684
 20
481.3016629514
  0
VERTEX
  8
0
 62
7
  6
CONTINUOUS
 10
209.5041856022
 20
481.3020311472
  0
VERTEX
  8
0
 62
7
  6
CONTINUOUS
 10
209.1638561648
 20
481.3019803904
  0
VERTEX
  8
0
 62
7
  6
CONTINUOUS
 10
207.7095693594
 20
481.3011780126
  0
VERTEX
  8
0
 62
7
  6
CONTINUOUS
 10
206.2552876731
 20
481.2994267316
  0
VERTEX
  8
0
 62
7
  6
CONTINUOUS
 10
204.801012562
 20
481.2967265526
  0
VERTEX
  8
0
 62
7
  6
CONTINUOUS
 10
203.3467454824
 20
481.2930774803
  0
VERTEX
  8
0
 62
7
  6
CONTINUOUS
 10
201.8924878905
 20
481.2884795184
  0
VERTEX
  8
0
 62
7
  6
CONTINUOUS
 10
200.4382412425
 20
481.2829326697
  0
VERTEX
  8
0
 62
7
  6
CONTINUOUS
 10
198.9840069945
 20
481.2764369365
  0
VERTEX
  8
0
 62
7
  6
CONTINUOUS
 10
197.5297866028
 20
481.26899232
  0
VERTEX
  8
0
 62
7
  6
CONTINUOUS
 10
196.0755815235
 20
481.2605988207
  0
VERTEX
  8
0
 62
7
  6
CONTINUOUS
 10
194.6213932126
 20
481.2512564383
  0
VERTEX
  8
0
 62
7
  6
CONTINUOUS
 10
193.1672231263
 20
481.2409651718
  0
VERTEX
  8
0
 62
7
  6
CONTINUOUS
 10
191.7130727206
 20
481.2297250191
  0
VERTEX
  8
0
 62
7
  6
CONTINUOUS
 10
190.2589434514
 20
481.2175359776
  0
VERTEX
  8
0
 62
7
  6
CONTINUOUS
 10
188.8048367747
 20
481.2043980437
  0
VERTEX
  8
0
 62
7
  6
CONTINUOUS
 10
187.3507541465
 20
481.190311213
  0
VERTEX
  8
0
 62
7
  6
CONTINUOUS
 10
185.8966970226
 20
481.1752754805
  0
VERTEX
  8
0
 62
7
  6
CONTINUOUS
 10
184.4426668588
 20
481.1592908401
  0
VERTEX
  8
0
 62
7
  6
CONTINUOUS
 10
184.0911562125
 20
481.1552840896
  0
VERTEX
  8
0
 62
7
  6
CONTINUOUS
 10
182.6373903958
 20
481.1381239073
  0
VERTEX
  8
0
 62
7
  6
CONTINUOUS
 10
181.1836702688
 20
481.1200152973
  0
VERTEX
  8
0
 62
7
  6
CONTINUOUS
 10
179.7299972855
 20
481.1009582814
  0
VERTEX
  8
0
 62
7
  6
CONTINUOUS
 10
178.2763728998
 20
481.0809528803
  0
VERTEX
  8
0
 62
7
  6
CONTINUOUS
 10
176.8227985654
 20
481.0599991143
  0
VERTEX
  8
0
 62
7
  6
CONTINUOUS
 10
175.3692757358
 20
481.0380970025
  0
VERTEX
  8
0
 62
7
  6
CONTINUOUS
 10
173.9158058645
 20
481.0152465634
  0
VERTEX
  8
0
 62
7
  6
CONTINUOUS
 10
172.4623904049
 20
480.9914478147
  0
VERTEX
  8
0
 62
7
  6
CONTINUOUS
 10
171.0090308101
 20
480.9667007733
  0
VERTEX
  8
0
 62
7
  6
CONTINUOUS
 10
169.5557285331
 20
480.941005455
  0
VERTEX
  8
0
 62
7
  6
CONTINUOUS
 10
168.102485027
 20
480.9143618752
  0
VERTEX
  8
0
 62
7
  6
CONTINUOUS
 10
166.6493017443
 20
480.8867700483
  0
VERTEX
  8
0
 62
7
  6
CONTINUOUS
 10
165.1961801377
 20
480.8582299877
  0
VERTEX
  8
0
 62
7
  6
CONTINUOUS
 10
163.7431216597
 20
480.8287417064
  0
VERTEX
  8
0
 62
7
  6
CONTINUOUS
 10
162.2901277625
 20
480.7983052162
  0
VERTEX
  8
0
 62
7
  6
CONTINUOUS
 10
160.8371998982
 20
480.7669205283
  0
VERTEX
  8
0
 62
7
  6
CONTINUOUS
 10
159.3843395187
 20
480.734587653
  0
SEQEND
  0
LINE
  8
0
 62
7
  6
CONTINUOUS
 10
388.7170977106
 20
477.8594846338
 11
259.3843387128
 21
480.7472472683
  0
POLYLINE
  8
0
 62
7
  6
CONTINUOUS
 66
1
 70
0
  0
VERTEX
  8
0
 62
7
  6
CONTINUOUS
 10
388.3345879673
 20
477.8562277109
  0
VERTEX
  8
0
 62
7
  6
CONTINUOUS
 10
388.2221952738
 20
477.8652153341
  0
VERTEX
  8
0
 62
7
  6
CONTINUOUS
 10
388.1075568355
 20
477.8717591839
  0
VERTEX
  8
0
 62
7
  6
CONTINUOUS
 10
387.9924971553
 20
477.8756636315
  0
SEQEND
  0
LINE
  8
0
 62
7
  6
CONTINUOUS
 10
210.1502789253
 20
542.4198409894
 11
209.9593686612
 21
542.4736381606
  0
LINE
  8
0
 62
7
  6
CONTINUOUS
 10
215.8603184886
 20
541.0247346126
 11
213.9592051313
 21
541.5814912095
  0
LINE
  8
0
 62
7
  6
CONTINUOUS
 10
215.8991434757
 20
540.9598893065
 11
216.2810301665
 21
540.8473017552
  0
LINE
  8
0
 62
7
  6
CONTINUOUS
 10
209.9593686612
 20
542.4736381606
 11
209.8090681536
 21
542.5278722531
  0
LINE
  8
0
 62
7
  6
CONTINUOUS
 10
209.8090681536
 20
542.5278722531
 11
209.7010992227
 21
542.5819554546
  0
LINE
  8
0
 62
7
  6
CONTINUOUS
 10
187.9146448156
 20
537.3621529814
 11
182.2996379899
 21
535.8289699711
  0
POLYLINE
  8
0
 62
7
  6
CONTINUOUS
 66
1
 70
0
  0
VERTEX
  8
0
 62
7
  6
CONTINUOUS
 10
52.7359442478
 20
530.5274448433
  0
VERTEX
  8
0
 62
7
  6
CONTINUOUS
 10
52.9154542492
 20
530.5591615869
  0
VERTEX
  8
0
 62
7
  6
CONTINUOUS
 10
53.0951838532
 20
530.589957126
  0
VERTEX
  8
0
 62
7
  6
CONTINUOUS
 10
53.275132036
 20
530.6198303219
  0
VERTEX
  8
0
 62
7
  6
CONTINUOUS
 10
53.455297783
 20
530.648779985
  0
VERTEX
  8
0
 62
7
  6
CONTINUOUS
 10
53.6356800895
 20
530.6768048738
  0
VERTEX
  8
0
 62
7
  6
CONTINUOUS
 10
53.81627796
 20
530.7039036952
  0
VERTEX
  8
0
 62
7
  6
CONTINUOUS
 10
53.9970904085
 20
530.7300751037
  0
VERTEX
  8
0
 62
7
  6
CONTINUOUS
 10
54.1781164583
 20
530.7553177016
  0
VERTEX
  8
0
 62
7
  6
CONTINUOUS
 10
54.3593551422
 20
530.7796300381
  0
VERTEX
  8
0
 62
7
  6
CONTINUOUS
 10
54.5408055023
 20
530.8030106092
  0
VERTEX
  8
0
 62
7
  6
CONTINUOUS
 10
54.72246659
 20
530.8254578571
  0
VERTEX
  8
0
 62
7
  6
CONTINUOUS
 10
54.904337466
 20
530.8469701701
  0
VERTEX
  8
0
 62
7
  6
CONTINUOUS
 10
55.0864172006
 20
530.8675458819
  0
VERTEX
  8
0
 62
7
  6
CONTINUOUS
 10
55.2687048731
 20
530.8871832712
  0
VERTEX
  8
0
 62
7
  6
CONTINUOUS
 10
55.4511995723
 20
530.9058805611
  0
VERTEX
  8
0
 62
7
  6
CONTINUOUS
 10
55.6339003962
 20
530.9236359189
  0
VERTEX
  8
0
 62
7
  6
CONTINUOUS
 10
55.8168064523
 20
530.9404474551
  0
VERTEX
  8
0
 62
7
  6
CONTINUOUS
 10
55.9999168572
 20
530.9563132232
  0
VERTEX
  8
0
 62
7
  6
CONTINUOUS
 10
56.1832307373
 20
530.9712312191
  0
VERTEX
  8
0
 62
7
  6
CONTINUOUS
 10
56.3667472279
 20
530.9851993804
  0
VERTEX
  8
0
 62
7
  6
CONTINUOUS
 10
56.550465474
 20
530.9982155855
  0
VERTEX
  8
0
 62
7
  6
CONTINUOUS
 10
56.73438463
 20
531.0102776536
  0
VERTEX
  8
0
 62
7
  6
CONTINUOUS
 10
56.9185038597
 20
531.0213833434
  0
VERTEX
  8
0
 62
7
  6
CONTINUOUS
 10
57.1028223364
 20
531.0315303527
  0
VERTEX
  8
0
 62
7
  6
CONTINUOUS
 10
57.2873392431
 20
531.0407163176
  0
VERTEX
  8
0
 62
7
  6
CONTINUOUS
 10
57.4720537722
 20
531.0489388116
  0
VERTEX
  8
0
 62
7
  6
CONTINUOUS
 10
57.6569651258
 20
531.0561953451
  0
VERTEX
  8
0
 62
7
  6
CONTINUOUS
 10
57.8420725159
 20
531.0624833644
  0
SEQEND
  0
LINE
  8
0
 62
7
  6
CONTINUOUS
 10
58.6630945054
 20
531.265713342
 11
58.6613284011
 21
531.265654212
  0
POLYLINE
  8
0
 62
7
  6
CONTINUOUS
 66
1
 70
0
  0
VERTEX
  8
0
 62
7
  6
CONTINUOUS
 10
57.8420755236
 20
531.0623873762
  0
VERTEX
  8
0
 62
7
  6
CONTINUOUS
 10
63.1716075987
 20
531.2291463259
  0
VERTEX
  8
0
 62
7
  6
CONTINUOUS
 10
70.7454755481
 20
531.4653209842
  0
VERTEX
  8
0
 62
7
  6
CONTINUOUS
 10
78.3189865997
 20
531.7005351337
  0
VERTEX
  8
0
 62
7
  6
CONTINUOUS
 10
85.8921273342
 20
531.9347883566
  0
VERTEX
  8
0
 62
7
  6
CONTINUOUS
 10
93.464884335
 20
532.1680802348
  0
VERTEX
  8
0
 62
7
  6
CONTINUOUS
 10
101.0372441875
 20
532.4004103506
  0
VERTEX
  8
0
 62
7
  6
CONTINUOUS
 10
108.6091934797
 20
532.6317782861
  0
VERTEX
  8
0
 62
7
  6
CONTINUOUS
 10
113.9669922784
 20
532.794917052
  0
VERTEX
  8
0
 62
7
  6
CONTINUOUS
 10
121.5366605717
 20
533.0245940847
  0
VERTEX
  8
0
 62
7
  6
CONTINUOUS
 10
129.1058516612
 20
533.2533072797
  0
VERTEX
  8
0
 62
7
  6
CONTINUOUS
 10
136.6745521597
 20
533.4810562314
  0
VERTEX
  8
0
 62
7
  6
CONTINUOUS
 10
144.2427486826
 20
533.707840534
  0
VERTEX
  8
0
 62
7
  6
CONTINUOUS
 10
151.8104278485
 20
533.9336597821
  0
SEQEND
  0
POLYLINE
  8
0
 62
7
  6
CONTINUOUS
 66
1
 70
0
  0
VERTEX
  8
0
 62
7
  6
CONTINUOUS
 10
151.8104278485
 20
533.9336597821
  0
VERTEX
  8
0
 62
7
  6
CONTINUOUS
 10
159.6348880744
 20
534.1661244489
  0
VERTEX
  8
0
 62
7
  6
CONTINUOUS
 10
160.9012119078
 20
534.2030053271
  0
VERTEX
  8
0
 62
7
  6
CONTINUOUS
 10
162.1675840632
 20
534.2389383783
  0
VERTEX
  8
0
 62
7
  6
CONTINUOUS
 10
163.4340040096
 20
534.2739236607
  0
VERTEX
  8
0
 62
7
  6
CONTINUOUS
 10
164.7004712161
 20
534.3079612292
  0
VERTEX
  8
0
 62
7
  6
CONTINUOUS
 10
165.9669851514
 20
534.3410511357
  0
VERTEX
  8
0
 62
7
  6
CONTINUOUS
 10
167.2335452843
 20
534.3731934287
  0
VERTEX
  8
0
 62
7
  6
CONTINUOUS
 10
168.5001510838
 20
534.4043881537
  0
VERTEX
  8
0
 62
7
  6
CONTINUOUS
 10
169.7668020184
 20
534.4346353529
  0
VERTEX
  8
0
 62
7
  6
CONTINUOUS
 10
171.0334975568
 20
534.4639350653
  0
VERTEX
  8
0
 62
7
  6
CONTINUOUS
 10
172.3002371676
 20
534.4922873268
  0
VERTEX
  8
0
 62
7
  6
CONTINUOUS
 10
173.5670203195
 20
534.51969217
  0
VERTEX
  8
0
 62
7
  6
CONTINUOUS
 10
174.8338464809
 20
534.5461496244
  0
VERTEX
  8
0
 62
7
  6
CONTINUOUS
 10
176.1007151202
 20
534.5716597163
  0
VERTEX
  8
0
 62
7
  6
CONTINUOUS
 10
177.3676257059
 20
534.5962224687
  0
VERTEX
  8
0
 62
7
  6
CONTINUOUS
 10
178.6345777064
 20
534.6198379014
  0
VERTEX
  8
0
 62
7
  6
CONTINUOUS
 10
179.9015705899
 20
534.6425060313
  0
VERTEX
  8
0
 62
7
  6
CONTINUOUS
 10
181.1686038247
 20
534.6642268718
  0
VERTEX
  8
0
 62
7
  6
CONTINUOUS
 10
182.435676879
 20
534.6850004331
  0
VERTEX
  8
0
 62
7
  6
CONTINUOUS
 10
183.7027892211
 20
534.7048267224
  0
VERTEX
  8
0
 62
7
  6
CONTINUOUS
 10
184.969940319
 20
534.7237057437
  0
VERTEX
  8
0
 62
7
  6
CONTINUOUS
 10
186.2371296408
 20
534.7416374975
  0
VERTEX
  8
0
 62
7
  6
CONTINUOUS
 10
187.5043566546
 20
534.7586219815
  0
VERTEX
  8
0
 62
7
  6
CONTINUOUS
 10
188.7716208283
 20
534.7746591899
  0
VERTEX
  8
0
 62
7
  6
CONTINUOUS
 10
190.0389216299
 20
534.7897491139
  0
VERTEX
  8
0
 62
7
  6
CONTINUOUS
 10
191.3062585273
 20
534.8038917414
  0
VERTEX
  8
0
 62
7
  6
CONTINUOUS
 10
192.5736309883
 20
534.8170870572
  0
VERTEX
  8
0
 62
7
  6
CONTINUOUS
 10
193.8410384809
 20
534.8293350427
  0
VERTEX
  8
0
 62
7
  6
CONTINUOUS
 10
195.1084804727
 20
534.8406356763
  0
VERTEX
  8
0
 62
7
  6
CONTINUOUS
 10
196.3759564315
 20
534.8509889331
  0
VERTEX
  8
0
 62
7
  6
CONTINUOUS
 10
197.643465825
 20
534.8603947851
  0
VERTEX
  8
0
 62
7
  6
CONTINUOUS
 10
198.9110081209
 20
534.8688532009
  0
VERTEX
  8
0
 62
7
  6
CONTINUOUS
 10
200.1785827867
 20
534.8763641462
  0
VERTEX
  8
0
 62
7
  6
CONTINUOUS
 10
201.4461892902
 20
534.8829275832
  0
VERTEX
  8
0
 62
7
  6
CONTINUOUS
 10
202.7138270987
 20
534.8885434711
  0
VERTEX
  8
0
 62
7
  6
CONTINUOUS
 10
203.9814956798
 20
534.8932117657
  0
VERTEX
  8
0
 62
7
  6
CONTINUOUS
 10
205.249194501
 20
534.8969324198
  0
VERTEX
  8
0
 62
7
  6
CONTINUOUS
 10
206.5169230298
 20
534.899705383
  0
VERTEX
  8
0
 62
7
  6
CONTINUOUS
 10
207.7846807334
 20
534.9015306014
  0
VERTEX
  8
0
 62
7
  6
CONTINUOUS
 10
209.0524670793
 20
534.9024080182
  0
VERTEX
  8
0
 62
7
  6
CONTINUOUS
 10
210.1186048179
 20
534.9024121788
  0
VERTEX
  8
0
 62
7
  6
CONTINUOUS
 10
211.3870960462
 20
534.9015439107
  0
VERTEX
  8
0
 62
7
  6
CONTINUOUS
 10
212.6555814904
 20
534.8997267437
  0
VERTEX
  8
0
 62
7
  6
CONTINUOUS
 10
213.9240598977
 20
534.8969606842
  0
VERTEX
  8
0
 62
7
  6
CONTINUOUS
 10
215.1925300153
 20
534.8932457376
  0
VERTEX
  8
0
 62
7
  6
CONTINUOUS
 10
216.4609905905
 20
534.8885819083
  0
VERTEX
  8
0
 62
7
  6
CONTINUOUS
 10
217.7294403707
 20
534.8829691993
  0
VERTEX
  8
0
 62
7
  6
CONTINUOUS
 10
218.9978781033
 20
534.876407613
  0
VERTEX
  8
0
 62
7
  6
CONTINUOUS
 10
220.266302536
 20
534.8688971504
  0
VERTEX
  8
0
 62
7
  6
CONTINUOUS
 10
221.5347124163
 20
534.8604378116
  0
VERTEX
  8
0
 62
7
  6
CONTINUOUS
 10
222.803106492
 20
534.8510295956
  0
VERTEX
  8
0
 62
7
  6
CONTINUOUS
 10
224.0714835112
 20
534.8406725002
  0
VERTEX
  8
0
 62
7
  6
CONTINUOUS
 10
225.339842222
 20
534.8293665224
  0
VERTEX
  8
0
 62
7
  6
CONTINUOUS
 10
226.6081813726
 20
534.817111658
  0
VERTEX
  8
0
 62
7
  6
CONTINUOUS
 10
227.8764997115
 20
534.8039079016
  0
VERTEX
  8
0
 62
7
  6
CONTINUOUS
 10
229.1447959874
 20
534.789755247
  0
VERTEX
  8
0
 62
7
  6
CONTINUOUS
 10
230.4130689493
 20
534.7746536867
  0
VERTEX
  8
0
 62
7
  6
CONTINUOUS
 10
231.6813173463
 20
534.7586032123
  0
VERTEX
  8
0
 62
7
  6
CONTINUOUS
 10
232.9495399277
 20
534.7416038144
  0
VERTEX
  8
0
 62
7
  6
CONTINUOUS
 10
234.2177354433
 20
534.7236554821
  0
VERTEX
  8
0
 62
7
  6
CONTINUOUS
 10
235.2974333888
 20
534.7076266947
  0
VERTEX
  8
0
 62
7
  6
CONTINUOUS
 10
236.5653071523
 20
534.6879257603
  0
VERTEX
  8
0
 62
7
  6
CONTINUOUS
 10
237.8331326466
 20
534.6672765513
  0
VERTEX
  8
0
 62
7
  6
CONTINUOUS
 10
239.1009086258
 20
534.6456790927
  0
VERTEX
  8
0
 62
7
  6
CONTINUOUS
 10
240.3686338444
 20
534.6231334083
  0
VERTEX
  8
0
 62
7
  6
CONTINUOUS
 10
241.6363070573
 20
534.5996395208
  0
VERTEX
  8
0
 62
7
  6
CONTINUOUS
 10
242.9039270202
 20
534.5751974519
  0
VERTEX
  8
0
 62
7
  6
CONTINUOUS
 10
244.1714924888
 20
534.5498072224
  0
VERTEX
  8
0
 62
7
  6
CONTINUOUS
 10
245.4390022196
 20
534.5234688517
  0
VERTEX
  8
0
 62
7
  6
CONTINUOUS
 10
246.7064549697
 20
534.4961823583
  0
VERTEX
  8
0
 62
7
  6
CONTINUOUS
 10
247.9738494965
 20
534.4679477597
  0
VERTEX
  8
0
 62
7
  6
CONTINUOUS
 10
249.2411845579
 20
534.4387650721
  0
VERTEX
  8
0
 62
7
  6
CONTINUOUS
 10
250.5084589127
 20
534.4086343108
  0
VERTEX
  8
0
 62
7
  6
CONTINUOUS
 10
251.77567132
 20
534.37755549
  0
VERTEX
  8
0
 62
7
  6
CONTINUOUS
 10
253.0428205394
 20
534.3455286229
  0
VERTEX
  8
0
 62
7
  6
CONTINUOUS
 10
254.3099053314
 20
534.3125537213
  0
VERTEX
  8
0
 62
7
  6
CONTINUOUS
 10
255.5769244569
 20
534.2786307964
  0
VERTEX
  8
0
 62
7
  6
CONTINUOUS
 10
256.8438766776
 20
534.2437598579
  0
VERTEX
  8
0
 62
7
  6
CONTINUOUS
 10
258.1107607555
 20
534.2079409146
  0
VERTEX
  8
0
 62
7
  6
CONTINUOUS
 10
259.3775754538
 20
534.1711739742
  0
SEQEND
  0
LINE
  8
0
 62
7
  6
CONTINUOUS
 10
187.9146448156
 20
537.3621529814
 11
218.0429308891
 21
537.3621529814
  0
LINE
  8
0
 62
7
  6
CONTINUOUS
 10
217.9880123021
 20
537.4497937391
 11
230.5196470485
 21
537.4497937391
  0
LINE
  8
0
 62
7
  6
CONTINUOUS
 10
216.2810278946
 20
540.8473015921
 11
227.8863311925
 21
540.8473015921
  0
LINE
  8
0
 62
7
  6
CONTINUOUS
 10
190.7533972066
 20
541.0247153432
 11
215.8602118451
 21
541.0247153432
  0
POLYLINE
  8
0
 62
7
  6
CONTINUOUS
 66
1
 70
0
  0
VERTEX
  8
0
 62
7
  6
CONTINUOUS
 10
259.3775754306
 20
534.1711731853
  0
VERTEX
  8
0
 62
7
  6
CONTINUOUS
 10
264.7478347423
 20
534.0130575203
  0
VERTEX
  8
0
 62
7
  6
CONTINUOUS
 10
272.3136241951
 20
533.7894876886
  0
VERTEX
  8
0
 62
7
  6
CONTINUOUS
 10
279.8796734634
 20
533.5649610482
  0
VERTEX
  8
0
 62
7
  6
CONTINUOUS
 10
287.4459780626
 20
533.3394778341
  0
VERTEX
  8
0
 62
7
  6
CONTINUOUS
 10
295.0125335077
 20
533.1130382766
  0
VERTEX
  8
0
 62
7
  6
CONTINUOUS
 10
302.5793353142
 20
532.8856426016
  0
VERTEX
  8
0
 62
7
  6
CONTINUOUS
 10
310.1463789973
 20
532.6572910303
  0
VERTEX
  8
0
 62
7
  6
CONTINUOUS
 10
315.4856175642
 20
532.4955974688
  0
VERTEX
  8
0
 62
7
  6
CONTINUOUS
 10
323.0565072486
 20
532.265511169
  0
VERTEX
  8
0
 62
7
  6
CONTINUOUS
 10
330.6275963344
 20
532.0344696137
  0
VERTEX
  8
0
 62
7
  6
CONTINUOUS
 10
338.198880329
 20
531.8024730194
  0
VERTEX
  8
0
 62
7
  6
CONTINUOUS
 10
345.77035474
 20
531.5695215978
  0
VERTEX
  8
0
 62
7
  6
CONTINUOUS
 10
353.3420150751
 20
531.3356155565
  0
VERTEX
  8
0
 62
7
  6
CONTINUOUS
 10
360.9138568417
 20
531.1007550982
  0
SEQEND
  0
POLYLINE
  8
0
 62
7
  6
CONTINUOUS
 66
1
 70
0
  0
VERTEX
  8
0
 62
7
  6
CONTINUOUS
 10
360.913859825
 20
531.1008510871
  0
VERTEX
  8
0
 62
7
  6
CONTINUOUS
 10
360.9434677671
 20
531.0999184196
  0
VERTEX
  8
0
 62
7
  6
CONTINUOUS
 10
361.1259835999
 20
531.0936174433
  0
VERTEX
  8
0
 62
7
  6
CONTINUOUS
 10
361.3084002341
 20
531.0863710472
  0
VERTEX
  8
0
 62
7
  6
CONTINUOUS
 10
361.4907165862
 20
531.0781802628
  0
VERTEX
  8
0
 62
7
  6
CONTINUOUS
 10
361.6729315653
 20
531.0690460679
  0
VERTEX
  8
0
 62
7
  6
CONTINUOUS
 10
361.8550440734
 20
531.058969387
  0
VERTEX
  8
0
 62
7
  6
CONTINUOUS
 10
362.0370530051
 20
531.0479510918
  0
VERTEX
  8
0
 62
7
  6
CONTINUOUS
 10
362.2189572475
 20
531.0359920014
  0
VERTEX
  8
0
 62
7
  6
CONTINUOUS
 10
362.4007556803
 20
531.0230928827
  0
VERTEX
  8
0
 62
7
  6
CONTINUOUS
 10
362.5824471757
 20
531.0092544506
  0
VERTEX
  8
0
 62
7
  6
CONTINUOUS
 10
362.7640305984
 20
530.9944773682
  0
VERTEX
  8
0
 62
7
  6
CONTINUOUS
 10
362.9455048053
 20
530.9787622473
  0
VERTEX
  8
0
 62
7
  6
CONTINUOUS
 10
363.126868646
 20
530.9621096482
  0
VERTEX
  8
0
 62
7
  6
CONTINUOUS
 10
363.308120962
 20
530.9445200804
  0
VERTEX
  8
0
 62
7
  6
CONTINUOUS
 10
363.4892605873
 20
530.9259940024
  0
VERTEX
  8
0
 62
7
  6
CONTINUOUS
 10
363.670286348
 20
530.9065318221
  0
VERTEX
  8
0
 62
7
  6
CONTINUOUS
 10
363.8511970623
 20
530.8861338969
  0
VERTEX
  8
0
 62
7
  6
CONTINUOUS
 10
364.0319915402
 20
530.8648005335
  0
VERTEX
  8
0
 62
7
  6
CONTINUOUS
 10
364.2126685839
 20
530.8425319887
  0
VERTEX
  8
0
 62
7
  6
CONTINUOUS
 10
364.3932269875
 20
530.8193284689
  0
VERTEX
  8
0
 62
7
  6
CONTINUOUS
 10
364.5736655368
 20
530.7951901304
  0
VERTEX
  8
0
 62
7
  6
CONTINUOUS
 10
364.7539830092
 20
530.7701170794
  0
VERTEX
  8
0
 62
7
  6
CONTINUOUS
 10
364.9341781739
 20
530.7441093722
  0
VERTEX
  8
0
 62
7
  6
CONTINUOUS
 10
365.1142497916
 20
530.7171670149
  0
VERTEX
  8
0
 62
7
  6
CONTINUOUS
 10
365.2941966143
 20
530.6892899638
  0
VERTEX
  8
0
 62
7
  6
CONTINUOUS
 10
365.4740173856
 20
530.6604781252
  0
VERTEX
  8
0
 62
7
  6
CONTINUOUS
 10
365.6537108403
 20
530.6307313551
  0
VERTEX
  8
0
 62
7
  6
CONTINUOUS
 10
365.8332757041
 20
530.6000494597
  0
SEQEND
  0
LINE
  8
0
 62
7
  6
CONTINUOUS
 10
360.0927853325
 20
531.3035714887
 11
360.094472061
 21
531.303515717
  0
POLYLINE
  8
0
 62
7
  6
CONTINUOUS
 66
1
 70
0
  0
VERTEX
  8
0
 62
7
  6
CONTINUOUS
 10
365.8332757041
 20
530.6000494597
  0
VERTEX
  8
0
 62
7
  6
CONTINUOUS
 10
366.0127106941
 20
530.568432195
  0
VERTEX
  8
0
 62
7
  6
CONTINUOUS
 10
366.1920145182
 20
530.5358792667
  0
VERTEX
  8
0
 62
7
  6
CONTINUOUS
 10
366.371185875
 20
530.5023903301
  0
VERTEX
  8
0
 62
7
  6
CONTINUOUS
 10
366.5502234541
 20
530.4679649902
  0
VERTEX
  8
0
 62
7
  6
CONTINUOUS
 10
366.7291259354
 20
530.4326028013
  0
VERTEX
  8
0
 62
7
  6
CONTINUOUS
 10
366.9078919895
 20
530.396303267
  0
VERTEX
  8
0
 62
7
  6
CONTINUOUS
 10
367.0865202774
 20
530.3590658399
  0
VERTEX
  8
0
 62
7
  6
CONTINUOUS
 10
367.2650094502
 20
530.3208899216
  0
VERTEX
  8
0
 62
7
  6
CONTINUOUS
 10
367.4433581491
 20
530.2817748623
  0
VERTEX
  8
0
 62
7
  6
CONTINUOUS
 10
367.6215650053
 20
530.2417199605
  0
VERTEX
  8
0
 62
7
  6
CONTINUOUS
 10
367.7996286399
 20
530.2007244632
  0
VERTEX
  8
0
 62
7
  6
CONTINUOUS
 10
367.9775476636
 20
530.1587875651
  0
VERTEX
  8
0
 62
7
  6
CONTINUOUS
 10
368.1553206767
 20
530.1159084085
  0
VERTEX
  8
0
 62
7
  6
CONTINUOUS
 10
368.3329462689
 20
530.0720860832
  0
VERTEX
  8
0
 62
7
  6
CONTINUOUS
 10
368.5104230191
 20
530.0273196257
  0
VERTEX
  8
0
 62
7
  6
CONTINUOUS
 10
368.6877494953
 20
529.9816080195
  0
VERTEX
  8
0
 62
7
  6
CONTINUOUS
 10
368.8649242544
 20
529.9349501941
  0
VERTEX
  8
0
 62
7
  6
CONTINUOUS
 10
369.041945842
 20
529.887345025
  0
VERTEX
  8
0
 62
7
  6
CONTINUOUS
 10
369.2188127926
 20
529.8387913331
  0
VERTEX
  8
0
 62
7
  6
CONTINUOUS
 10
369.3955236285
 20
529.7892878844
  0
VERTEX
  8
0
 62
7
  6
CONTINUOUS
 10
369.5720768609
 20
529.7388333894
  0
VERTEX
  8
0
 62
7
  6
CONTINUOUS
 10
369.7484709886
 20
529.6874265029
  0
VERTEX
  8
0
 62
7
  6
CONTINUOUS
 10
369.9247044984
 20
529.635065823
  0
VERTEX
  8
0
 62
7
  6
CONTINUOUS
 10
370.1007758647
 20
529.5817498911
  0
VERTEX
  8
0
 62
7
  6
CONTINUOUS
 10
370.2766835495
 20
529.5274771911
  0
VERTEX
  8
0
 62
7
  6
CONTINUOUS
 10
370.4524260019
 20
529.4722461488
  0
VERTEX
  8
0
 62
7
  6
CONTINUOUS
 10
370.628001658
 20
529.4160551313
  0
SEQEND
  0
LINE
  8
0
 62
7
  6
CONTINUOUS
 10
210.6430501627
 20
542.3164274206
 11
210.378747805
 21
542.3673147764
  0
LINE
  8
0
 62
7
  6
CONTINUOUS
 10
212.2185212244
 20
542.0042835639
 11
210.6430501627
 21
542.3164428945
  0
LINE
  8
0
 62
7
  6
CONTINUOUS
 10
210.378747805
 20
542.3673147764
 11
210.1502789253
 21
542.4198409894
  0
LINE
  8
0
 62
7
  6
CONTINUOUS
 10
213.9592051313
 20
541.5814912095
 11
212.2185212244
 21
542.0042835639
  0
LINE
  8
0
 62
7
  6
CONTINUOUS
 10
230.5196470485
 20
537.4497937391
 11
236.4556223753
 21
535.8289699711
  0
LINE
  8
0
 62
7
  6
CONTINUOUS
 10
370.628001658
 20
529.4160551313
 11
370.803408941
 21
529.3589024466
  0
POLYLINE
  8
0
 62
7
  6
CONTINUOUS
 66
1
 70
0
  0
VERTEX
  8
0
 62
7
  6
CONTINUOUS
 10
370.803408941
 20
529.3589024466
  0
VERTEX
  8
0
 62
7
  6
CONTINUOUS
 10
370.9517929407
 20
529.3097583165
  0
VERTEX
  8
0
 62
7
  6
CONTINUOUS
 10
371.1248816544
 20
529.2515051969
  0
VERTEX
  8
0
 62
7
  6
CONTINUOUS
 10
371.2975954941
 20
529.1923783767
  0
VERTEX
  8
0
 62
7
  6
CONTINUOUS
 10
371.4699337968
 20
529.1323792734
  0
VERTEX
  8
0
 62
7
  6
CONTINUOUS
 10
371.6418958759
 20
529.0715092548
  0
VERTEX
  8
0
 62
7
  6
CONTINUOUS
 10
371.8134810214
 20
529.0097696394
  0
VERTEX
  8
0
 62
7
  6
CONTINUOUS
 10
371.9846885
 20
528.9471616971
  0
VERTEX
  8
0
 62
7
  6
CONTINUOUS
 10
372.1555175555
 20
528.8836866491
  0
VERTEX
  8
0
 62
7
  6
CONTINUOUS
 10
372.3259674081
 20
528.8193456684
  0
VERTEX
  8
0
 62
7
  6
CONTINUOUS
 10
372.4960372555
 20
528.7541398804
  0
VERTEX
  8
0
 62
7
  6
CONTINUOUS
 10
372.6657262719
 20
528.688070363
  0
VERTEX
  8
0
 62
7
  6
CONTINUOUS
 10
372.8350336089
 20
528.6211381467
  0
VERTEX
  8
0
 62
7
  6
CONTINUOUS
 10
373.0039583951
 20
528.5533442153
  0
VERTEX
  8
0
 62
7
  6
CONTINUOUS
 10
373.1724997362
 20
528.4846895057
  0
VERTEX
  8
0
 62
7
  6
CONTINUOUS
 10
373.3406567151
 20
528.4151749087
  0
VERTEX
  8
0
 62
7
  6
CONTINUOUS
 10
373.5084283467
 20
528.3448012878
  0
VERTEX
  8
0
 62
7
  6
CONTINUOUS
 10
373.6758136283
 20
528.2735694592
  0
VERTEX
  8
0
 62
7
  6
CONTINUOUS
 10
373.8428115652
 20
528.2014801812
  0
VERTEX
  8
0
 62
7
  6
CONTINUOUS
 10
374.0094211399
 20
528.1285341665
  0
VERTEX
  8
0
 62
7
  6
CONTINUOUS
 10
374.1756413121
 20
528.0547320828
  0
VERTEX
  8
0
 62
7
  6
CONTINUOUS
 10
374.3414710188
 20
527.9800745523
  0
VERTEX
  8
0
 62
7
  6
CONTINUOUS
 10
374.5069091739
 20
527.9045621524
  0
VERTEX
  8
0
 62
7
  6
CONTINUOUS
 10
374.6719546688
 20
527.8281954157
  0
VERTEX
  8
0
 62
7
  6
CONTINUOUS
 10
374.8366063717
 20
527.7509748298
  0
VERTEX
  8
0
 62
7
  6
CONTINUOUS
 10
375.0008631279
 20
527.6729008378
  0
VERTEX
  8
0
 62
7
  6
CONTINUOUS
 10
375.1647237596
 20
527.5939738379
  0
VERTEX
  8
0
 62
7
  6
CONTINUOUS
 10
375.3281870659
 20
527.514194184
  0
VERTEX
  8
0
 62
7
  6
CONTINUOUS
 10
375.4912518226
 20
527.433562185
  0
VERTEX
  8
0
 62
7
  6
CONTINUOUS
 10
375.6539167824
 20
527.3520781055
  0
VERTEX
  8
0
 62
7
  6
CONTINUOUS
 10
375.8161806743
 20
527.2697421656
  0
VERTEX
  8
0
 62
7
  6
CONTINUOUS
 10
375.978042204
 20
527.1865545407
  0
SEQEND
  0
POLYLINE
  8
0
 62
7
  6
CONTINUOUS
 66
1
 70
0
  0
VERTEX
  8
0
 62
7
  6
CONTINUOUS
 10
375.978042204
 20
527.1865545407
  0
VERTEX
  8
0
 62
7
  6
CONTINUOUS
 10
376.1395000534
 20
527.1025153614
  0
VERTEX
  8
0
 62
7
  6
CONTINUOUS
 10
376.3005528806
 20
527.0176247138
  0
VERTEX
  8
0
 62
7
  6
CONTINUOUS
 10
376.4611993199
 20
526.9318826393
  0
VERTEX
  8
0
 62
7
  6
CONTINUOUS
 10
376.6214379816
 20
526.8452891344
  0
VERTEX
  8
0
 62
7
  6
CONTINUOUS
 10
376.7812674515
 20
526.7578441507
  0
VERTEX
  8
0
 62
7
  6
CONTINUOUS
 10
376.9406862914
 20
526.6695475947
  0
VERTEX
  8
0
 62
7
  6
CONTINUOUS
 10
377.0996930383
 20
526.5803993277
  0
VERTEX
  8
0
 62
7
  6
CONTINUOUS
 10
377.2582862046
 20
526.4903991659
  0
VERTEX
  8
0
 62
7
  6
CONTINUOUS
 10
377.4164642776
 20
526.3995468797
  0
VERTEX
  8
0
 62
7
  6
CONTINUOUS
 10
377.5742257198
 20
526.3078421941
  0
VERTEX
  8
0
 62
7
  6
CONTINUOUS
 10
377.731568968
 20
526.2152847881
  0
VERTEX
  8
0
 62
7
  6
CONTINUOUS
 10
377.8884924339
 20
526.1218742946
  0
VERTEX
  8
0
 62
7
  6
CONTINUOUS
 10
378.044994503
 20
526.0276103004
  0
VERTEX
  8
0
 62
7
  6
CONTINUOUS
 10
378.2010735352
 20
525.9324923454
  0
VERTEX
  8
0
 62
7
  6
CONTINUOUS
 10
378.3567278638
 20
525.8365199229
  0
VERTEX
  8
0
 62
7
  6
CONTINUOUS
 10
378.5119557958
 20
525.7396924792
  0
VERTEX
  8
0
 62
7
  6
CONTINUOUS
 10
378.6667556115
 20
525.6420094128
  0
VERTEX
  8
0
 62
7
  6
CONTINUOUS
 10
378.8211255639
 20
525.5434700749
  0
VERTEX
  8
0
 62
7
  6
CONTINUOUS
 10
378.975063879
 20
525.4440737682
  0
VERTEX
  8
0
 62
7
  6
CONTINUOUS
 10
379.1285687548
 20
525.3438197474
  0
VERTEX
  8
0
 62
7
  6
CONTINUOUS
 10
379.2816383617
 20
525.242707218
  0
VERTEX
  8
0
 62
7
  6
CONTINUOUS
 10
379.4342708415
 20
525.1407353366
  0
VERTEX
  8
0
 62
7
  6
CONTINUOUS
 10
379.5864643079
 20
525.0379032098
  0
VERTEX
  8
0
 62
7
  6
CONTINUOUS
 10
379.7382168451
 20
524.9342098945
  0
VERTEX
  8
0
 62
7
  6
CONTINUOUS
 10
379.8895265083
 20
524.8296543969
  0
VERTEX
  8
0
 62
7
  6
CONTINUOUS
 10
380.0403913232
 20
524.7242356722
  0
VERTEX
  8
0
 62
7
  6
CONTINUOUS
 10
380.1908092851
 20
524.6179526241
  0
VERTEX
  8
0
 62
7
  6
CONTINUOUS
 10
380.3407783591
 20
524.5108041042
  0
VERTEX
  8
0
 62
7
  6
CONTINUOUS
 10
380.4902964793
 20
524.4027889115
  0
VERTEX
  8
0
 62
7
  6
CONTINUOUS
 10
380.6393615489
 20
524.2939057921
  0
VERTEX
  8
0
 62
7
  6
CONTINUOUS
 10
380.7879714389
 20
524.184153438
  0
VERTEX
  8
0
 62
7
  6
CONTINUOUS
 10
380.9361239885
 20
524.073530487
  0
VERTEX
  8
0
 62
7
  6
CONTINUOUS
 10
381.0838170043
 20
523.9620355219
  0
VERTEX
  8
0
 62
7
  6
CONTINUOUS
 10
381.2310482596
 20
523.8496670698
  0
VERTEX
  8
0
 62
7
  6
CONTINUOUS
 10
381.3384995476
 20
523.7668804057
  0
VERTEX
  8
0
 62
7
  6
CONTINUOUS
 10
381.4826276668
 20
523.6547925554
  0
VERTEX
  8
0
 62
7
  6
CONTINUOUS
 10
381.6261122176
 20
523.54200461
  0
VERTEX
  8
0
 62
7
  6
CONTINUOUS
 10
381.7689530382
 20
523.4285181354
  0
VERTEX
  8
0
 62
7
  6
CONTINUOUS
 10
381.9111499288
 20
523.3143346584
  0
VERTEX
  8
0
 62
7
  6
CONTINUOUS
 10
382.0527026509
 20
523.199455667
  0
VERTEX
  8
0
 62
7
  6
CONTINUOUS
 10
382.1936109285
 20
523.0838826111
  0
VERTEX
  8
0
 62
7
  6
CONTINUOUS
 10
382.3338744477
 20
522.9676169025
  0
VERTEX
  8
0
 62
7
  6
CONTINUOUS
 10
382.4734928569
 20
522.8506599153
  0
VERTEX
  8
0
 62
7
  6
CONTINUOUS
 10
382.6124657674
 20
522.7330129861
  0
VERTEX
  8
0
 62
7
  6
CONTINUOUS
 10
382.7507927531
 20
522.6146774146
  0
VERTEX
  8
0
 62
7
  6
CONTINUOUS
 10
382.8884733507
 20
522.4956544633
  0
VERTEX
  8
0
 62
7
  6
CONTINUOUS
 10
383.0255070603
 20
522.3759453582
  0
VERTEX
  8
0
 62
7
  6
CONTINUOUS
 10
383.1618933447
 20
522.2555512892
  0
VERTEX
  8
0
 62
7
  6
CONTINUOUS
 10
383.2976316304
 20
522.1344734095
  0
VERTEX
  8
0
 62
7
  6
CONTINUOUS
 10
383.4327213068
 20
522.0127128367
  0
VERTEX
  8
0
 62
7
  6
CONTINUOUS
 10
383.5671617271
 20
521.8902706524
  0
VERTEX
  8
0
 62
7
  6
CONTINUOUS
 10
383.7009522078
 20
521.7671479029
  0
VERTEX
  8
0
 62
7
  6
CONTINUOUS
 10
383.8340920287
 20
521.6433455987
  0
VERTEX
  8
0
 62
7
  6
CONTINUOUS
 10
383.9665804336
 20
521.5188647153
  0
VERTEX
  8
0
 62
7
  6
CONTINUOUS
 10
384.0984166296
 20
521.3937061929
  0
VERTEX
  8
0
 62
7
  6
CONTINUOUS
 10
384.2295997873
 20
521.2678709367
  0
VERTEX
  8
0
 62
7
  6
CONTINUOUS
 10
384.360129041
 20
521.1413598172
  0
VERTEX
  8
0
 62
7
  6
CONTINUOUS
 10
384.4900034886
 20
521.0141736699
  0
VERTEX
  8
0
 62
7
  6
CONTINUOUS
 10
384.6192221914
 20
520.8863132956
  0
VERTEX
  8
0
 62
7
  6
CONTINUOUS
 10
384.7477841741
 20
520.7577794607
  0
VERTEX
  8
0
 62
7
  6
CONTINUOUS
 10
384.8756884249
 20
520.6285728968
  0
VERTEX
  8
0
 62
7
  6
CONTINUOUS
 10
385.0029338955
 20
520.4986943011
  0
VERTEX
  8
0
 62
7
  6
CONTINUOUS
 10
385.1295195005
 20
520.3681443364
  0
VERTEX
  8
0
 62
7
  6
CONTINUOUS
 10
385.255444118
 20
520.236923631
  0
VERTEX
  8
0
 62
7
  6
CONTINUOUS
 10
385.3807065888
 20
520.1050327789
  0
VERTEX
  8
0
 62
7
  6
CONTINUOUS
 10
385.5053057169
 20
519.9724723395
  0
VERTEX
  8
0
 62
7
  6
CONTINUOUS
 10
385.6292402688
 20
519.8392428379
  0
VERTEX
  8
0
 62
7
  6
CONTINUOUS
 10
385.752508974
 20
519.7053447649
  0
VERTEX
  8
0
 62
7
  6
CONTINUOUS
 10
385.8751105241
 20
519.5707785766
  0
VERTEX
  8
0
 62
7
  6
CONTINUOUS
 10
385.9970435731
 20
519.4355446948
  0
VERTEX
  8
0
 62
7
  6
CONTINUOUS
 10
386.1183067372
 20
519.2996435065
  0
VERTEX
  8
0
 62
7
  6
CONTINUOUS
 10
386.2388985942
 20
519.1630753644
  0
VERTEX
  8
0
 62
7
  6
CONTINUOUS
 10
386.3588176839
 20
519.0258405862
  0
VERTEX
  8
0
 62
7
  6
CONTINUOUS
 10
386.4780625072
 20
518.887939455
  0
VERTEX
  8
0
 62
7
  6
CONTINUOUS
 10
386.5966315265
 20
518.7493722188
  0
VERTEX
  8
0
 62
7
  6
CONTINUOUS
 10
386.7145231648
 20
518.6101390907
  0
VERTEX
  8
0
 62
7
  6
CONTINUOUS
 10
386.8317358059
 20
518.4702402486
  0
VERTEX
  8
0
 62
7
  6
CONTINUOUS
 10
386.9482677941
 20
518.3296758351
  0
VERTEX
  8
0
 62
7
  6
CONTINUOUS
 10
387.0641174333
 20
518.1884459573
  0
VERTEX
  8
0
 62
7
  6
CONTINUOUS
 10
387.1792829875
 20
518.0465506867
  0
VERTEX
  8
0
 62
7
  6
CONTINUOUS
 10
387.29376268
 20
517.9039900589
  0
VERTEX
  8
0
 62
7
  6
CONTINUOUS
 10
387.4075546929
 20
517.7607640735
  0
VERTEX
  8
0
 62
7
  6
CONTINUOUS
 10
387.5206571673
 20
517.6168726939
  0
VERTEX
  8
0
 62
7
  6
CONTINUOUS
 10
387.6330682022
 20
517.4723158471
  0
VERTEX
  8
0
 62
7
  6
CONTINUOUS
 10
387.7447858548
 20
517.3270934231
  0
VERTEX
  8
0
 62
7
  6
CONTINUOUS
 10
387.8558081396
 20
517.1812052753
  0
VERTEX
  8
0
 62
7
  6
CONTINUOUS
 10
387.966133028
 20
517.0346512196
  0
VERTEX
  8
0
 62
7
  6
CONTINUOUS
 10
388.075758448
 20
516.8874310344
  0
VERTEX
  8
0
 62
7
  6
CONTINUOUS
 10
388.1846822839
 20
516.7395444604
  0
VERTEX
  8
0
 62
7
  6
CONTINUOUS
 10
388.2929023754
 20
516.5909911999
  0
VERTEX
  8
0
 62
7
  6
CONTINUOUS
 10
388.4004165172
 20
516.4417709171
  0
VERTEX
  8
0
 62
7
  6
CONTINUOUS
 10
388.5072224588
 20
516.291883237
  0
VERTEX
  8
0
 62
7
  6
CONTINUOUS
 10
388.6133179035
 20
516.1413277455
  0
VERTEX
  8
0
 62
7
  6
CONTINUOUS
 10
388.7187005081
 20
515.990103989
  0
VERTEX
  8
0
 62
7
  6
CONTINUOUS
 10
388.8233678823
 20
515.8382114739
  0
VERTEX
  8
0
 62
7
  6
CONTINUOUS
 10
388.9273175881
 20
515.685649666
  0
VERTEX
  8
0
 62
7
  6
CONTINUOUS
 10
389.0305471389
 20
515.5324179905
  0
VERTEX
  8
0
 62
7
  6
CONTINUOUS
 10
389.1330539993
 20
515.378515831
  0
VERTEX
  8
0
 62
7
  6
CONTINUOUS
 10
389.234835584
 20
515.2239425297
  0
VERTEX
  8
0
 62
7
  6
CONTINUOUS
 10
389.3044985031
 20
515.1171140999
  0
VERTEX
  8
0
 62
7
  6
CONTINUOUS
 10
389.4034633309
 20
514.9638760529
  0
VERTEX
  8
0
 62
7
  6
CONTINUOUS
 10
389.5015889323
 20
514.8101905006
  0
VERTEX
  8
0
 62
7
  6
CONTINUOUS
 10
389.5988756786
 20
514.6560589707
  0
VERTEX
  8
0
 62
7
  6
CONTINUOUS
 10
389.6953238921
 20
514.5014829668
  0
VERTEX
  8
0
 62
7
  6
CONTINUOUS
 10
389.7909338461
 20
514.3464639685
  0
VERTEX
  8
0
 62
7
  6
CONTINUOUS
 10
389.8857057655
 20
514.1910034317
  0
VERTEX
  8
0
 62
7
  6
CONTINUOUS
 10
389.9796398267
 20
514.0351027887
  0
VERTEX
  8
0
 62
7
  6
CONTINUOUS
 10
390.0727361585
 20
513.8787634487
  0
VERTEX
  8
0
 62
7
  6
CONTINUOUS
 10
390.1649948416
 20
513.7219867976
  0
VERTEX
  8
0
 62
7
  6
CONTINUOUS
 10
390.2564159096
 20
513.5647741989
  0
VERTEX
  8
0
 62
7
  6
CONTINUOUS
 10
390.3469993484
 20
513.4071269929
  0
VERTEX
  8
0
 62
7
  6
CONTINUOUS
 10
390.4367450974
 20
513.2490464979
  0
VERTEX
  8
0
 62
7
  6
CONTINUOUS
 10
390.5256530485
 20
513.0905340097
  0
VERTEX
  8
0
 62
7
  6
CONTINUOUS
 10
390.6137230474
 20
512.9315908021
  0
VERTEX
  8
0
 62
7
  6
CONTINUOUS
 10
390.700954893
 20
512.7722181269
  0
VERTEX
  8
0
 62
7
  6
CONTINUOUS
 10
390.7873483377
 20
512.6124172141
  0
VERTEX
  8
0
 62
7
  6
CONTINUOUS
 10
390.8729030879
 20
512.4521892723
  0
VERTEX
  8
0
 62
7
  6
CONTINUOUS
 10
390.9576188034
 20
512.2915354883
  0
VERTEX
  8
0
 62
7
  6
CONTINUOUS
 10
391.0414950981
 20
512.1304570279
  0
VERTEX
  8
0
 62
7
  6
CONTINUOUS
 10
391.1245315397
 20
511.9689550353
  0
VERTEX
  8
0
 62
7
  6
CONTINUOUS
 10
391.20672765
 20
511.8070306339
  0
VERTEX
  8
0
 62
7
  6
CONTINUOUS
 10
391.2880829048
 20
511.6446849261
  0
VERTEX
  8
0
 62
7
  6
CONTINUOUS
 10
391.3685967337
 20
511.4819189932
  0
VERTEX
  8
0
 62
7
  6
CONTINUOUS
 10
391.4482685206
 20
511.3187338959
  0
VERTEX
  8
0
 62
7
  6
CONTINUOUS
 10
391.5270976032
 20
511.1551306741
  0
VERTEX
  8
0
 62
7
  6
CONTINUOUS
 10
391.6050832732
 20
510.9911103472
  0
VERTEX
  8
0
 62
7
  6
CONTINUOUS
 10
391.6822247763
 20
510.826673914
  0
VERTEX
  8
0
 62
7
  6
CONTINUOUS
 10
391.7585213121
 20
510.6618223529
  0
VERTEX
  8
0
 62
7
  6
CONTINUOUS
 10
391.8339720336
 20
510.4965566216
  0
VERTEX
  8
0
 62
7
  6
CONTINUOUS
 10
391.9085760478
 20
510.3308776578
  0
VERTEX
  8
0
 62
7
  6
CONTINUOUS
 10
391.9823324151
 20
510.1647863787
  0
VERTEX
  8
0
 62
7
  6
CONTINUOUS
 10
392.0552401494
 20
509.9982836813
  0
VERTEX
  8
0
 62
7
  6
CONTINUOUS
 10
392.1272982178
 20
509.8313704424
  0
VERTEX
  8
0
 62
7
  6
CONTINUOUS
 10
392.1985055404
 20
509.6640475183
  0
VERTEX
  8
0
 62
7
  6
CONTINUOUS
 10
392.2688609903
 20
509.4963157455
  0
VERTEX
  8
0
 62
7
  6
CONTINUOUS
 10
392.3383633933
 20
509.3281759401
  0
VERTEX
  8
0
 62
7
  6
CONTINUOUS
 10
392.4070115276
 20
509.1596288979
  0
VERTEX
  8
0
 62
7
  6
CONTINUOUS
 10
392.4748041238
 20
508.9906753948
  0
VERTEX
  8
0
 62
7
  6
CONTINUOUS
 10
392.5417398643
 20
508.8213161862
  0
VERTEX
  8
0
 62
7
  6
CONTINUOUS
 10
392.6078173834
 20
508.6515520076
  0
VERTEX
  8
0
 62
7
  6
CONTINUOUS
 10
392.6730352667
 20
508.4813835738
  0
VERTEX
  8
0
 62
7
  6
CONTINUOUS
 10
392.7373920509
 20
508.3108115798
  0
VERTEX
  8
0
 62
7
  6
CONTINUOUS
 10
392.8008862236
 20
508.1398367
  0
VERTEX
  8
0
 62
7
  6
CONTINUOUS
 10
392.8635162229
 20
507.9684595884
  0
VERTEX
  8
0
 62
7
  6
CONTINUOUS
 10
392.9252804368
 20
507.7966808787
  0
VERTEX
  8
0
 62
7
  6
CONTINUOUS
 10
392.9861772031
 20
507.624501184
  0
VERTEX
  8
0
 62
7
  6
CONTINUOUS
 10
393.046204809
 20
507.451921097
  0
VERTEX
  8
0
 62
7
  6
CONTINUOUS
 10
393.1053614905
 20
507.2789411895
  0
VERTEX
  8
0
 62
7
  6
CONTINUOUS
 10
393.163645432
 20
507.1055620127
  0
VERTEX
  8
0
 62
7
  6
CONTINUOUS
 10
393.221054766
 20
506.931784097
  0
VERTEX
  8
0
 62
7
  6
CONTINUOUS
 10
393.2775875723
 20
506.7576079518
  0
VERTEX
  8
0
 62
7
  6
CONTINUOUS
 10
393.3332418779
 20
506.5830340655
  0
VERTEX
  8
0
 62
7
  6
CONTINUOUS
 10
393.3880156562
 20
506.4080629051
  0
VERTEX
  8
0
 62
7
  6
CONTINUOUS
 10
393.4419068265
 20
506.2326949167
  0
VERTEX
  8
0
 62
7
  6
CONTINUOUS
 10
393.4949132535
 20
506.0569305246
  0
VERTEX
  8
0
 62
7
  6
CONTINUOUS
 10
393.5470327466
 20
505.8807701317
  0
VERTEX
  8
0
 62
7
  6
CONTINUOUS
 10
393.5982630594
 20
505.704214119
  0
VERTEX
  8
0
 62
7
  6
CONTINUOUS
 10
393.648601889
 20
505.5272628457
  0
VERTEX
  8
0
 62
7
  6
CONTINUOUS
 10
393.6980468753
 20
505.3499166489
  0
VERTEX
  8
0
 62
7
  6
CONTINUOUS
 10
393.7465956004
 20
505.1721758433
  0
VERTEX
  8
0
 62
7
  6
CONTINUOUS
 10
393.7942455878
 20
504.9940407212
  0
VERTEX
  8
0
 62
7
  6
CONTINUOUS
 10
393.8409943016
 20
504.8155115523
  0
VERTEX
  8
0
 62
7
  6
CONTINUOUS
 10
393.8868391461
 20
504.6365885832
  0
VERTEX
  8
0
 62
7
  6
CONTINUOUS
 10
393.9317774644
 20
504.4572720376
  0
VERTEX
  8
0
 62
7
  6
CONTINUOUS
 10
393.9658403432
 20
504.3186023388
  0
VERTEX
  8
0
 62
7
  6
CONTINUOUS
 10
394.008478617
 20
504.1414768872
  0
VERTEX
  8
0
 62
7
  6
CONTINUOUS
 10
394.0501769327
 20
503.964206809
  0
VERTEX
  8
0
 62
7
  6
CONTINUOUS
 10
394.0909361478
 20
503.7867934137
  0
VERTEX
  8
0
 62
7
  6
CONTINUOUS
 10
394.1307570652
 20
503.6092380041
  0
VERTEX
  8
0
 62
7
  6
CONTINUOUS
 10
394.1696404338
 20
503.4315418765
  0
VERTEX
  8
0
 62
7
  6
CONTINUOUS
 10
394.2075869487
 20
503.2537063209
  0
VERTEX
  8
0
 62
7
  6
CONTINUOUS
 10
394.2445972517
 20
503.075732621
  0
VERTEX
  8
0
 62
7
  6
CONTINUOUS
 10
394.2806719313
 20
502.8976220544
  0
VERTEX
  8
0
 62
7
  6
CONTINUOUS
 10
394.3158115234
 20
502.7193758928
  0
VERTEX
  8
0
 62
7
  6
CONTINUOUS
 10
394.3500165113
 20
502.5409954018
  0
VERTEX
  8
0
 62
7
  6
CONTINUOUS
 10
394.3832873262
 20
502.3624818414
  0
VERTEX
  8
0
 62
7
  6
CONTINUOUS
 10
394.4156243474
 20
502.183836466
  0
VERTEX
  8
0
 62
7
  6
CONTINUOUS
 10
394.4470279023
 20
502.0050605243
  0
VERTEX
  8
0
 62
7
  6
CONTINUOUS
 10
394.477498267
 20
501.8261552597
  0
VERTEX
  8
0
 62
7
  6
CONTINUOUS
 10
394.5070356661
 20
501.6471219102
  0
VERTEX
  8
0
 62
7
  6
CONTINUOUS
 10
394.5356402732
 20
501.4679617086
  0
VERTEX
  8
0
 62
7
  6
CONTINUOUS
 10
394.5633122109
 20
501.2886758826
  0
VERTEX
  8
0
 62
7
  6
CONTINUOUS
 10
394.590051551
 20
501.109265655
  0
VERTEX
  8
0
 62
7
  6
CONTINUOUS
 10
394.6158583146
 20
500.9297322434
  0
VERTEX
  8
0
 62
7
  6
CONTINUOUS
 10
394.640732472
 20
500.7500768609
  0
VERTEX
  8
0
 62
7
  6
CONTINUOUS
 10
394.6646739431
 20
500.5703007157
  0
VERTEX
  8
0
 62
7
  6
CONTINUOUS
 10
394.6876825975
 20
500.3904050115
  0
VERTEX
  8
0
 62
7
  6
CONTINUOUS
 10
394.7097582542
 20
500.2103909473
  0
VERTEX
  8
0
 62
7
  6
CONTINUOUS
 10
394.7309006817
 20
500.030259718
  0
VERTEX
  8
0
 62
7
  6
CONTINUOUS
 10
394.7511095984
 20
499.8500125138
  0
VERTEX
  8
0
 62
7
  6
CONTINUOUS
 10
394.7703846722
 20
499.6696505208
  0
VERTEX
  8
0
 62
7
  6
CONTINUOUS
 10
394.7887255205
 20
499.489174921
  0
VERTEX
  8
0
 62
7
  6
CONTINUOUS
 10
394.8061317105
 20
499.3085868923
  0
VERTEX
  8
0
 62
7
  6
CONTINUOUS
 10
394.8226027585
 20
499.1278876084
  0
VERTEX
  8
0
 62
7
  6
CONTINUOUS
 10
394.8381381307
 20
498.9470782395
  0
VERTEX
  8
0
 62
7
  6
CONTINUOUS
 10
394.8527372423
 20
498.7661599516
  0
VERTEX
  8
0
 62
7
  6
CONTINUOUS
 10
394.8663994577
 20
498.5851339071
  0
VERTEX
  8
0
 62
7
  6
CONTINUOUS
 10
394.8791240905
 20
498.4040012648
  0
VERTEX
  8
0
 62
7
  6
CONTINUOUS
 10
394.8909104032
 20
498.2227631798
  0
SEQEND
  0
POLYLINE
  8
0
 62
7
  6
CONTINUOUS
 66
1
 70
0
  0
VERTEX
  8
0
 62
7
  6
CONTINUOUS
 10
394.8909104032
 20
498.2227631798
  0
VERTEX
  8
0
 62
7
  6
CONTINUOUS
 10
394.901757607
 20
498.0414208038
  0
VERTEX
  8
0
 62
7
  6
CONTINUOUS
 10
394.9116648618
 20
497.859975285
  0
VERTEX
  8
0
 62
7
  6
CONTINUOUS
 10
394.9206312756
 20
497.6784277683
  0
VERTEX
  8
0
 62
7
  6
CONTINUOUS
 10
394.9286559048
 20
497.4967793953
  0
VERTEX
  8
0
 62
7
  6
CONTINUOUS
 10
394.9357377536
 20
497.3150313043
  0
VERTEX
  8
0
 62
7
  6
CONTINUOUS
 10
394.9418757738
 20
497.1331846306
  0
VERTEX
  8
0
 62
7
  6
CONTINUOUS
 10
394.9470688646
 20
496.9512405064
  0
VERTEX
  8
0
 62
7
  6
CONTINUOUS
 10
394.9513158722
 20
496.7692000609
  0
VERTEX
  8
0
 62
7
  6
CONTINUOUS
 10
394.9546155894
 20
496.5870644204
  0
VERTEX
  8
0
 62
7
  6
CONTINUOUS
 10
394.9569667558
 20
496.4048347081
  0
VERTEX
  8
0
 62
7
  6
CONTINUOUS
 10
394.9583680565
 20
496.2225120449
  0
VERTEX
  8
0
 62
7
  6
CONTINUOUS
 10
394.9588181226
 20
496.0400975485
  0
VERTEX
  8
0
 62
7
  6
CONTINUOUS
 10
394.9583155304
 20
495.8575923342
  0
VERTEX
  8
0
 62
7
  6
CONTINUOUS
 10
394.9568588008
 20
495.6749975146
  0
VERTEX
  8
0
 62
7
  6
CONTINUOUS
 10
394.9544463992
 20
495.4923141999
  0
VERTEX
  8
0
 62
7
  6
CONTINUOUS
 10
394.951076735
 20
495.3095434976
  0
VERTEX
  8
0
 62
7
  6
CONTINUOUS
 10
394.9467481608
 20
495.1266865129
  0
VERTEX
  8
0
 62
7
  6
CONTINUOUS
 10
394.9414589723
 20
494.9437443489
  0
VERTEX
  8
0
 62
7
  6
CONTINUOUS
 10
394.9352074075
 20
494.7607181059
  0
VERTEX
  8
0
 62
7
  6
CONTINUOUS
 10
394.9279916459
 20
494.5776088823
  0
VERTEX
  8
0
 62
7
  6
CONTINUOUS
 10
394.9198098088
 20
494.3944177744
  0
VERTEX
  8
0
 62
7
  6
CONTINUOUS
 10
394.9106599575
 20
494.2111458761
  0
VERTEX
  8
0
 62
7
  6
CONTINUOUS
 10
394.9005400937
 20
494.0277942794
  0
VERTEX
  8
0
 62
7
  6
CONTINUOUS
 10
394.8894481582
 20
493.8443640743
  0
VERTEX
  8
0
 62
7
  6
CONTINUOUS
 10
394.8773820305
 20
493.6608563487
  0
VERTEX
  8
0
 62
7
  6
CONTINUOUS
 10
394.8643395279
 20
493.4772721889
  0
VERTEX
  8
0
 62
7
  6
CONTINUOUS
 10
394.8503184051
 20
493.2936126789
  0
VERTEX
  8
0
 62
7
  6
CONTINUOUS
 10
394.8353163531
 20
493.1098789014
  0
VERTEX
  8
0
 62
7
  6
CONTINUOUS
 10
394.8193309983
 20
492.9260719368
  0
VERTEX
  8
0
 62
7
  6
CONTINUOUS
 10
394.8023599021
 20
492.7421928644
  0
SEQEND
  0
ARC
  8
0
 62
7
  6
CONTINUOUS
 10
209.3776301826
 20
466.0397429197
 40
77.2632392753
 50
89.8218061009
 51
103.9484663514
  0
ARC
  8
0
 62
7
  6
CONTINUOUS
 10
209.3776301826
 20
466.0397429197
 40
77.0632392753
 50
76.1031020349
 51
89.4495902558
  0
ARC
  8
0
 62
7
  6
CONTINUOUS
 10
182.5630460231
 20
534.8642854589
 40
1.0
 50
105.2723793093
 51
160.0
  0
ARC
  8
0
 62
7
  6
CONTINUOUS
 10
236.1922143421
 20
534.8642854589
 40
1.0
 50
20.0
 51
74.7276206907
  0
ENDSEC
  0
EOF
